  0
SECTION
  2
HEADER
  9
$ACADVER
  1
AC1018
  9
$ACADMAINTVER
 70
   104
  9
$DWGCODEPAGE
  3
ANSI_936
  9
$LASTSAVEDBY
  1
yuqin.cai
  9
$INSBASE
 10
0.0
 20
0.0
 30
0.0
  9
$EXTMIN
 10
65304.71226545135
 20
13586.99999999
 30
-0.00000001
  9
$EXTMAX
 10
66543.77222156746
 20
15070.66666666666
 30
0.00000001
  9
$LIMMIN
 10
0.0
 20
0.0
  9
$LIMMAX
 10
297.0
 20
210.0
  9
$ORTHOMODE
 70
     0
  9
$REGENMODE
 70
     1
  9
$FILLMODE
 70
     1
  9
$QTEXTMODE
 70
     0
  9
$MIRRTEXT
 70
     0
  9
$LTSCALE
 40
16.335
  9
$ATTMODE
 70
     1
  9
$TEXTSIZE
 40
0.2
  9
$TRACEWID
 40
0.05
  9
$TEXTSTYLE
  7
STANDARD
  9
$CLAYER
  8
0
  9
$CELTYPE
  6
BYLAYER
  9
$CECOLOR
 62
   256
  9
$CELTSCALE
 40
1.0
  9
$DISPSILH
 70
     0
  9
$DIMSCALE
 40
1.0
  9
$DIMASZ
 40
3.5
  9
$DIMEXO
 40
1.0
  9
$DIMDLI
 40
11.286
  9
$DIMRND
 40
0.0
  9
$DIMDLE
 40
0.0
  9
$DIMEXE
 40
1.5
  9
$DIMTP
 40
0.01
  9
$DIMTM
 40
0.01
  9
$DIMTXT
 40
3.5
  9
$DIMCEN
 40
2.673
  9
$DIMTSZ
 40
0.0
  9
$DIMTOL
 70
     1
  9
$DIMLIM
 70
     0
  9
$DIMTIH
 70
     1
  9
$DIMTOH
 70
     1
  9
$DIMSE1
 70
     0
  9
$DIMSE2
 70
     0
  9
$DIMTAD
 70
     0
  9
$DIMZIN
 70
     0
  9
$DIMBLK
  1

  9
$DIMASO
 70
     1
  9
$DIMSHO
 70
     1
  9
$DIMPOST
  1

  9
$DIMAPOST
  1

  9
$DIMALT
 70
     0
  9
$DIMALTD
 70
     2
  9
$DIMALTF
 40
25.4
  9
$DIMLFAC
 40
1.0
  9
$DIMTOFL
 70
     0
  9
$DIMTVP
 40
0.0
  9
$DIMTIX
 70
     0
  9
$DIMSOXD
 70
     0
  9
$DIMSAH
 70
     0
  9
$DIMBLK1
  1

  9
$DIMBLK2
  1

  9
$DIMSTYLE
  2
STANDARD
  9
$DIMCLRD
 70
     0
  9
$DIMCLRE
 70
     0
  9
$DIMCLRT
 70
     0
  9
$DIMTFAC
 40
1.0
  9
$DIMGAP
 40
0.625
  9
$DIMJUST
 70
     0
  9
$DIMSD1
 70
     0
  9
$DIMSD2
 70
     0
  9
$DIMTOLJ
 70
     1
  9
$DIMTZIN
 70
     0
  9
$DIMALTZ
 70
     0
  9
$DIMALTTZ
 70
     0
  9
$DIMUPT
 70
     0
  9
$DIMDEC
 70
     4
  9
$DIMTDEC
 70
     4
  9
$DIMALTU
 70
     2
  9
$DIMALTTD
 70
     2
  9
$DIMTXSTY
  7
STANDARD
  9
$DIMAUNIT
 70
     0
  9
$DIMADEC
 70
     0
  9
$DIMALTRND
 40
0.0
  9
$DIMAZIN
 70
     0
  9
$DIMDSEP
 70
    44
  9
$DIMATFIT
 70
     3
  9
$DIMFRAC
 70
     0
  9
$DIMLDRBLK
  1

  9
$DIMLUNIT
 70
     2
  9
$DIMLWD
 70
    -2
  9
$DIMLWE
 70
    -2
  9
$DIMTMOVE
 70
     0
  9
$LUNITS
 70
     2
  9
$LUPREC
 70
     4
  9
$SKETCHINC
 40
0.1
  9
$FILLETRAD
 40
0.0
  9
$AUNITS
 70
     0
  9
$AUPREC
 70
     0
  9
$MENU
  1
.
  9
$ELEVATION
 40
0.0
  9
$PELEVATION
 40
0.0
  9
$THICKNESS
 40
0.0
  9
$LIMCHECK
 70
     0
  9
$CHAMFERA
 40
0.0
  9
$CHAMFERB
 40
0.0
  9
$CHAMFERC
 40
0.0
  9
$CHAMFERD
 40
0.0
  9
$SKPOLY
 70
     0
  9
$TDCREATE
 40
2458249.037099549
  9
$TDUCREATE
 40
2458248.703766215
  9
$TDUPDATE
 40
2458507.731420856
  9
$TDUUPDATE
 40
2458507.398087523
  9
$TDINDWG
 40
0.1169733102
  9
$TDUSRTIMER
 40
0.1169733102
  9
$USRTIMER
 70
     1
  9
$ANGBASE
 50
0.0
  9
$ANGDIR
 70
     0
  9
$PDMODE
 70
     3
  9
$PDSIZE
 40
8.0
  9
$PLINEWID
 40
0.0
  9
$SPLFRAME
 70
     0
  9
$SPLINETYPE
 70
     6
  9
$SPLINESEGS
 70
     8
  9
$HANDSEED
  5
7A25
  9
$SURFTAB1
 70
     6
  9
$SURFTAB2
 70
     6
  9
$SURFTYPE
 70
     6
  9
$SURFU
 70
     6
  9
$SURFV
 70
     6
  9
$UCSBASE
  2

  9
$UCSNAME
  2

  9
$UCSORG
 10
0.0
 20
0.0
 30
0.0
  9
$UCSXDIR
 10
1.0
 20
0.0
 30
0.0
  9
$UCSYDIR
 10
0.0
 20
1.0
 30
0.0
  9
$UCSORTHOREF
  2

  9
$UCSORTHOVIEW
 70
     0
  9
$UCSORGTOP
 10
0.0
 20
0.0
 30
0.0
  9
$UCSORGBOTTOM
 10
0.0
 20
0.0
 30
0.0
  9
$UCSORGLEFT
 10
0.0
 20
0.0
 30
0.0
  9
$UCSORGRIGHT
 10
0.0
 20
0.0
 30
0.0
  9
$UCSORGFRONT
 10
0.0
 20
0.0
 30
0.0
  9
$UCSORGBACK
 10
0.0
 20
0.0
 30
0.0
  9
$PUCSBASE
  2

  9
$PUCSNAME
  2

  9
$PUCSORG
 10
0.0
 20
0.0
 30
0.0
  9
$PUCSXDIR
 10
1.0
 20
0.0
 30
0.0
  9
$PUCSYDIR
 10
0.0
 20
1.0
 30
0.0
  9
$PUCSORTHOREF
  2

  9
$PUCSORTHOVIEW
 70
     0
  9
$PUCSORGTOP
 10
0.0
 20
0.0
 30
0.0
  9
$PUCSORGBOTTOM
 10
0.0
 20
0.0
 30
0.0
  9
$PUCSORGLEFT
 10
0.0
 20
0.0
 30
0.0
  9
$PUCSORGRIGHT
 10
0.0
 20
0.0
 30
0.0
  9
$PUCSORGFRONT
 10
0.0
 20
0.0
 30
0.0
  9
$PUCSORGBACK
 10
0.0
 20
0.0
 30
0.0
  9
$USERI1
 70
     0
  9
$USERI2
 70
     0
  9
$USERI3
 70
     0
  9
$USERI4
 70
     0
  9
$USERI5
 70
     0
  9
$USERR1
 40
0.0
  9
$USERR2
 40
0.0
  9
$USERR3
 40
0.0
  9
$USERR4
 40
0.0
  9
$USERR5
 40
0.0
  9
$WORLDVIEW
 70
     1
  9
$SHADEDGE
 70
     3
  9
$SHADEDIF
 70
    70
  9
$TILEMODE
 70
     1
  9
$MAXACTVP
 70
    64
  9
$PINSBASE
 10
0.0
 20
0.0
 30
0.0
  9
$PLIMCHECK
 70
     0
  9
$PEXTMIN
 10
1.000000000000000E+20
 20
1.000000000000000E+20
 30
1.000000000000000E+20
  9
$PEXTMAX
 10
-1.000000000000000E+20
 20
-1.000000000000000E+20
 30
-1.000000000000000E+20
  9
$PLIMMIN
 10
0.0
 20
0.0
  9
$PLIMMAX
 10
12.0
 20
9.0
  9
$UNITMODE
 70
     0
  9
$VISRETAIN
 70
     1
  9
$PLINEGEN
 70
     0
  9
$PSLTSCALE
 70
     1
  9
$TREEDEPTH
 70
  3020
  9
$CMLSTYLE
  2
Standard
  9
$CMLJUST
 70
     0
  9
$CMLSCALE
 40
1.0
  9
$PROXYGRAPHICS
 70
     1
  9
$MEASUREMENT
 70
     1
  9
$CELWEIGHT
370
    -1
  9
$ENDCAPS
280
     0
  9
$JOINSTYLE
280
     0
  9
$LWDISPLAY
290
     0
  9
$INSUNITS
 70
     4
  9
$HYPERLINKBASE
  1

  9
$STYLESHEET
  1

  9
$XEDIT
290
     1
  9
$CEPSNTYPE
380
     0
  9
$PSTYLEMODE
290
     1
  9
$FINGERPRINTGUID
  2
{F2F7998C-03D6-45F9-A96A-CF8146DB7140}
  9
$VERSIONGUID
  2
{EF18F3DC-8BA7-48F0-B695-8E76A7B87DBA}
  9
$EXTNAMES
290
     1
  9
$PSVPSCALE
 40
0.0
  9
$OLESTARTUP
290
     0
  9
$SORTENTS
280
   127
  9
$INDEXCTL
280
     0
  9
$HIDETEXT
280
     1
  9
$XCLIPFRAME
290
     0
  9
$HALOGAP
280
     0
  9
$OBSCOLOR
 70
   257
  9
$OBSLTYPE
280
     0
  9
$INTERSECTIONDISPLAY
280
     0
  9
$INTERSECTIONCOLOR
 70
   257
  9
$DIMASSOC
280
     2
  9
$PROJECTNAME
  1

  0
ENDSEC
  0
SECTION
  2
CLASSES
  0
CLASS
  1
ACDBDICTIONARYWDFLT
  2
AcDbDictionaryWithDefault
  3
ObjectDBX Classes
 90
        0
 91
        1
280
     0
281
     0
  0
CLASS
  1
MATERIAL
  2
AcDbMaterial
  3
ObjectDBX Classes
 90
        0
 91
        3
280
     0
281
     0
  0
CLASS
  1
VISUALSTYLE
  2
AcDbVisualStyle
  3
ObjectDBX Classes
 90
     4095
 91
       26
280
     0
281
     0
  0
CLASS
  1
TABLESTYLE
  2
AcDbTableStyle
  3
ObjectDBX Classes
 90
     4095
 91
        1
280
     0
281
     0
  0
CLASS
  1
SCALE
  2
AcDbScale
  3
ObjectDBX Classes
 90
     1153
 91
       33
280
     0
281
     0
  0
CLASS
  1
MLEADERSTYLE
  2
AcDbMLeaderStyle
  3
ACDB_MLEADERSTYLE_CLASS
 90
     4095
 91
        1
280
     0
281
     0
  0
CLASS
  1
CELLSTYLEMAP
  2
AcDbCellStyleMap
  3
ObjectDBX Classes
 90
     1152
 91
        2
280
     0
281
     0
  0
CLASS
  1
DICTIONARYVAR
  2
AcDbDictionaryVar
  3
ObjectDBX Classes
 90
        0
 91
        4
280
     0
281
     0
  0
CLASS
  1
DIMASSOC
  2
AcDbDimAssoc
  3
"ZcDbDimAssoc|Product Desc:     ZwDim ZRX App For Dimension|Company:          ZwSoft.|WEB Address:      www.zwsoft.com"
 90
        0
 91
        0
280
     0
281
     0
  0
CLASS
  1
SORTENTSTABLE
  2
AcDbSortentsTable
  3
ObjectDBX Classes
 90
        0
 91
        1
280
     0
281
     0
  0
CLASS
  1
SUN
  2
AcDbSun
  3
SCENEOE
 90
     1024
 91
        1
280
     0
281
     0
  0
ENDSEC
  0
SECTION
  2
TABLES
  0
TABLE
  2
VPORT
  5
8
330
0
100
AcDbSymbolTable
 70
     3
  0
VPORT
  5
7A21
330
8
100
AcDbSymbolTableRecord
100
AcDbViewportTableRecord
  2
*Active
 70
     0
 10
0.0
 20
0.0
 11
1.0
 21
1.0
 12
67317.50014436638
 22
14177.64542796108
 13
0.0
 23
0.0
 14
1.0
 24
1.0
 15
0.0
 25
0.0
 16
0.0
 26
0.0
 36
1.0
 17
0.0
 27
0.0
 37
0.0
 40
1983.275904964216
 41
3.584
 42
50.0
 43
0.0
 44
0.0
 50
0.0
 51
0.0
 71
     0
 72
   100
 73
     1
 74
     1
 75
     1
 76
     0
 77
     0
 78
     0
281
     0
 65
     1
110
0.0
120
0.0
130
0.0
111
1.0
121
0.0
131
0.0
112
0.0
122
1.0
132
0.0
 79
     0
146
0.0
  0
ENDTAB
  0
TABLE
  2
LTYPE
  5
5
330
0
100
AcDbSymbolTable
 70
     2
  0
LTYPE
  5
14
330
5
100
AcDbSymbolTableRecord
100
AcDbLinetypeTableRecord
  2
BYBLOCK
 70
     0
  3

 72
    65
 73
     0
 40
0.0
  0
LTYPE
  5
15
330
5
100
AcDbSymbolTableRecord
100
AcDbLinetypeTableRecord
  2
BYLAYER
 70
     0
  3

 72
    65
 73
     0
 40
0.0
  0
LTYPE
  5
16
330
5
100
AcDbSymbolTableRecord
100
AcDbLinetypeTableRecord
  2
CONTINUOUS
 70
     0
  3
Solid line
 72
    65
 73
     0
 40
0.0
  0
LTYPE
  5
7463
330
5
100
AcDbSymbolTableRecord
100
AcDbLinetypeTableRecord
  2
CENTER2
 70
     0
  3
Center (.5x) ___ _ ___ _ ___ _ ___ _ ___ _ ___
 72
    65
 73
     4
 40
28.575
 49
19.05
 74
     0
 49
-3.174999999999999
 74
     0
 49
3.174999999999999
 74
     0
 49
-3.174999999999999
 74
     0
  0
ENDTAB
  0
TABLE
  2
LAYER
  5
2
102
{ACAD_XDICTIONARY
360
38E
102
}
330
0
100
AcDbSymbolTable
 70
    13
  0
LAYER
  5
10
330
2
100
AcDbSymbolTableRecord
100
AcDbLayerTableRecord
  2
0
 70
     0
 62
     7
  6
CONTINUOUS
370
    -3
390
F
  0
LAYER
  5
351
330
2
100
AcDbSymbolTableRecord
100
AcDbLayerTableRecord
  2
Defpoints
 70
     0
 62
     7
  6
CONTINUOUS
290
     0
370
    -3
390
F
  0
LAYER
  5
5D2B
330
2
100
AcDbSymbolTableRecord
100
AcDbLayerTableRecord
  2
02___PRT_ALL_AXES
 70
     0
 62
     7
  6
CONTINUOUS
370
    -3
390
F
  0
LAYER
  5
5D2C
330
2
100
AcDbSymbolTableRecord
100
AcDbLayerTableRecord
  2
06___PRT_ALL_SURFS
 70
     0
 62
     7
  6
CONTINUOUS
370
    -3
390
F
  0
LAYER
  5
68F9
330
2
100
AcDbSymbolTableRecord
100
AcDbLayerTableRecord
  2
11111外轮廓线
 70
     0
 62
   255
  6
CONTINUOUS
370
     5
390
F
1001
AcAecLayerStandard
1000

1000

  0
LAYER
  5
68FA
330
2
100
AcDbSymbolTableRecord
100
AcDbLayerTableRecord
  2
11111尺寸标注
 70
     0
 62
    -3
  6
CONTINUOUS
370
     5
390
F
1001
AcAecLayerStandard
1000

1000

  0
LAYER
  5
7464
330
2
100
AcDbSymbolTableRecord
100
AcDbLayerTableRecord
  2
轮廓线.
 70
     0
 62
   255
  6
CONTINUOUS
370
    30
390
F
1001
AcAecLayerStandard
1000

1000

  0
LAYER
  5
7465
330
2
100
AcDbSymbolTableRecord
100
AcDbLayerTableRecord
  2
尺寸标注
 70
     0
 62
    80
  6
CONTINUOUS
370
    18
390
F
1001
AcAecLayerStandard
1000

1000

  0
LAYER
  5
7466
330
2
100
AcDbSymbolTableRecord
100
AcDbLayerTableRecord
  2
中心线
 70
     0
 62
    10
  6
CENTER2
370
    18
390
F
1001
AcAecLayerStandard
1000

1000

  0
LAYER
  5
76A1
330
2
100
AcDbSymbolTableRecord
100
AcDbLayerTableRecord
  2
细实线
 70
     0
 62
   210
  6
CONTINUOUS
370
    13
390
F
1001
AcAecLayerStandard
1000

1000

  0
LAYER
  5
76A2
330
2
100
AcDbSymbolTableRecord
100
AcDbLayerTableRecord
  2
尺寸标注层
 70
     0
 62
    80
  6
CONTINUOUS
370
    13
390
F
1001
AcAecLayerStandard
1000

1000

  0
LAYER
  5
76A3
330
2
100
AcDbSymbolTableRecord
100
AcDbLayerTableRecord
  2
轮廓线
 70
     0
 62
     7
  6
CONTINUOUS
370
    20
390
F
1001
AcAecLayerStandard
1000

1000

  0
LAYER
  5
76A4
330
2
100
AcDbSymbolTableRecord
100
AcDbLayerTableRecord
  2
中心线-圆
 70
     0
 62
    10
  6
CONTINUOUS
370
    13
390
F
1001
AcAecLayerStandard
1000

1000

  0
ENDTAB
  0
TABLE
  2
STYLE
  5
3
330
0
100
AcDbSymbolTable
 70
     4
  0
STYLE
  5
11
330
3
100
AcDbSymbolTableRecord
100
AcDbTextStyleTableRecord
  2
STANDARD
 70
     0
 40
0.0
 41
0.85
 50
0.0
 71
     0
 42
0.2
  3
txt
  4

  0
STYLE
  5
68FB
330
3
100
AcDbSymbolTableRecord
100
AcDbTextStyleTableRecord
  2
TT宋体
 70
     0
 40
0.0
 41
1.0
 50
0.0
 71
     0
 42
2.5
  3
arial.ttf
  4

1001
ACAD
1000
Arial
1071
       34
  0
STYLE
  5
7467
330
3
100
AcDbSymbolTableRecord
100
AcDbTextStyleTableRecord
  2
Arial
 70
     0
 40
0.0
 41
1.0
 50
0.0
 71
     0
 42
2.5
  3
arial.ttf
  4

1001
ACAD
1000
Arial
1071
       34
  0
STYLE
  5
7468
330
3
100
AcDbSymbolTableRecord
100
AcDbTextStyleTableRecord
  2
TXT
 70
     0
 40
0.0
 41
1.0
 50
0.0
 71
     0
 42
2.5
  3
txt.shx
  4

  0
ENDTAB
  0
TABLE
  2
VIEW
  5
6
330
0
100
AcDbSymbolTable
 70
     0
  0
ENDTAB
  0
TABLE
  2
UCS
  5
7
330
0
100
AcDbSymbolTable
 70
     0
  0
ENDTAB
  0
TABLE
  2
APPID
  5
9
330
0
100
AcDbSymbolTable
 70
    10
  0
APPID
  5
1FF
330
9
100
AcDbSymbolTableRecord
100
AcDbRegAppTableRecord
  2
ACAD
 70
     0
  0
APPID
  5
343
330
9
100
AcDbSymbolTableRecord
100
AcDbRegAppTableRecord
  2
ACAD_MLEADERVER
 70
     0
  0
APPID
  5
389
330
9
100
AcDbSymbolTableRecord
100
AcDbRegAppTableRecord
  2
ACAD_DSTYLE_DIMJAG
 70
     0
  0
APPID
  5
38A
330
9
100
AcDbSymbolTableRecord
100
AcDbRegAppTableRecord
  2
ACAD_DSTYLE_DIMTALN
 70
     0
  0
APPID
  5
38B
330
9
100
AcDbSymbolTableRecord
100
AcDbRegAppTableRecord
  2
ACAD_PSEXT
 70
     0
  0
APPID
  5
38C
330
9
100
AcDbSymbolTableRecord
100
AcDbRegAppTableRecord
  2
AcAecLayerStandard
 70
     0
  0
APPID
  5
38D
330
9
100
AcDbSymbolTableRecord
100
AcDbRegAppTableRecord
  2
ACAD_DSTYLE_DIMBREAK
 70
     0
  0
APPID
  5
12E1
330
9
100
AcDbSymbolTableRecord
100
AcDbRegAppTableRecord
  2
ACAD_EXEMPT_FROM_CAD_STANDARDS
 70
     0
  0
APPID
  5
617A
330
9
100
AcDbSymbolTableRecord
100
AcDbRegAppTableRecord
  2
ACAD_SPLINE_DATA
 70
     0
  0
APPID
  5
617B
330
9
100
AcDbSymbolTableRecord
100
AcDbRegAppTableRecord
  2
ACAD_SPLINE_DATA2
 70
     0
  0
ENDTAB
  0
TABLE
  2
DIMSTYLE
  5
A
330
0
100
AcDbSymbolTable
 70
     6
100
AcDbDimStyleTable
 71
     1
340
202
  0
DIMSTYLE
105
202
330
A
100
AcDbSymbolTableRecord
100
AcDbDimStyleTableRecord
  2
STANDARD
 70
     0
 41
3.5
 42
1.0
 44
1.5
 47
0.01
 48
0.01
 71
     1
 73
     0
 74
     0
 77
     1
 78
     8
140
3.5
147
0.625
271
     2
272
     2
278
    44
284
     8
340
11
  0
DIMSTYLE
105
68FC
330
A
100
AcDbSymbolTableRecord
100
AcDbDimStyleTableRecord
  2
新标注1比10
 70
     0
 40
12.0
 41
1.8
 42
1.0
 43
3.75
 44
1.0
 73
     0
 74
     0
 77
     1
 78
     8
140
2.5
141
1.0
143
0.03937007874016
147
1.0
171
     3
172
     1
176
   256
177
   256
178
     3
271
     0
272
     0
274
     3
284
     8
340
68FB
1001
ACAD_DSTYLE_DIMJAG
1070
   388
1040
1.5
1001
ACAD_DSTYLE_DIMTALN
1070
   392
1070
     0
  0
DIMSTYLE
105
7469
330
A
100
AcDbSymbolTableRecord
100
AcDbDimStyleTableRecord
  2
宋体
 70
     0
 40
0.5
 41
20.0
 42
0.0
 43
3.75
 44
10.0
 73
     0
 78
     8
140
30.0
141
0.0
143
0.03937007874016
147
20.0
171
     3
172
     1
271
     0
272
     0
274
     3
279
     1
284
     8
340
11
  0
DIMSTYLE
105
746A
330
A
100
AcDbSymbolTableRecord
100
AcDbDimStyleTableRecord
  2
Arial
 70
     0
 40
0.7
 41
20.0
 42
0.0
 43
3.75
 44
10.0
 73
     0
 78
     8
140
30.0
141
0.0
143
0.03937007874016
147
20.0
171
     3
172
     1
271
     0
272
     0
274
     3
279
     1
284
     8
340
7467
  0
DIMSTYLE
105
746B
330
A
100
AcDbSymbolTableRecord
100
AcDbDimStyleTableRecord
  2
TXT
 70
     0
 40
0.7
 41
20.0
 42
0.0
 43
3.75
 44
10.0
 73
     0
 78
     8
140
30.0
141
0.0
143
0.03937007874016
147
20.0
171
     3
172
     1
271
     0
272
     0
274
     3
279
     1
284
     8
340
7468
  0
DIMSTYLE
105
76A5
330
A
100
AcDbSymbolTableRecord
100
AcDbDimStyleTableRecord
  2
新标注1比10 无框
 70
     0
 40
0.6
 41
20.0
 42
0.0
 43
3.75
 44
5.0
 73
     0
 78
     8
140
30.0
141
5.0
143
0.03937007874016
147
20.0
171
     3
172
     1
176
   256
177
   256
271
     0
272
     0
274
     3
279
     1
284
     8
340
68FB
  0
ENDTAB
  0
TABLE
  2
BLOCK_RECORD
  5
1
330
0
100
AcDbSymbolTable
 70
    21
  0
BLOCK_RECORD
  5
200
102
{ACAD_XDICTIONARY
360
467B
102
}
330
1
100
AcDbSymbolTableRecord
100
AcDbBlockTableRecord
  2
*Model_Space
340
2EE
  0
BLOCK_RECORD
  5
201
330
1
100
AcDbSymbolTableRecord
100
AcDbBlockTableRecord
  2
*Paper_Space
340
2EF
  0
ENDTAB
  0
ENDSEC
  0
SECTION
  2
BLOCKS
  0
BLOCK
  5
20
330
200
100
AcDbEntity
  8
0
100
AcDbBlockBegin
  2
*Model_Space
 70
     0
 10
0.0
 20
0.0
 30
0.0
  3
*Model_Space
  1

  0
ENDBLK
  5
21
330
200
100
AcDbEntity
  8
0
100
AcDbBlockEnd
  0
BLOCK
  5
1C
330
201
100
AcDbEntity
 67
     1
  8
0
100
AcDbBlockBegin
  2
*Paper_Space
 70
     0
 10
0.0
 20
0.0
 30
0.0
  3
*Paper_Space
  1

  0
ENDBLK
  5
1D
330
201
100
AcDbEntity
 67
     1
  8
0
100
AcDbBlockEnd
  0
ENDSEC
  0
SECTION
  2
ENTITIES
  0
MTEXT
  5
399
330
200
100
AcDbEntity
  8
0
100
AcDbMText
 10
65481.07764527027
 20
15054.0
 30
0.0
 40
75.0
 41
29.92235472972973
 71
     1
 72
     5
  1
{\fSimSun|b0|i0|c134|p2;SCALE  1:1}
 73
     1
 44
1.0
  0
LINE
  5
77D9
330
200
100
AcDbEntity
  8
0
100
AcDbLine
 10
65659.71226546136
 20
13764.5
 30
0.0
 11
65659.71226546136
 21
14150.0
 31
0.0
  0
LINE
  5
77DA
330
200
100
AcDbEntity
  8
0
100
AcDbLine
 10
65304.71226546135
 20
14150.0
 30
0.0
 11
65304.71226546135
 21
13764.5
 31
0.0
  0
LINE
  5
77DB
330
200
100
AcDbEntity
  8
0
100
AcDbLine
 10
65652.71226546136
 20
14157.0
 30
0.0
 11
65311.71226546136
 21
14157.0
 31
0.0
  0
LINE
  5
77DC
330
200
100
AcDbEntity
  8
0
100
AcDbLine
 10
65361.75440285326
 20
14354.20554418924
 30
0.0
 11
65363.55312754396
 21
14353.97049726814
 31
0.0
  0
LINE
  5
77DD
330
200
100
AcDbEntity
  8
0
100
AcDbLine
 10
65359.86738751206
 20
14355.01941990374
 30
0.0
 11
65361.75440285326
 21
14354.20554418924
 31
0.0
  0
LINE
  5
77DE
330
200
100
AcDbEntity
  8
0
100
AcDbLine
 10
65482.21226546135
 20
14353.97049726814
 30
0.0
 11
65363.65757903976
 21
14353.97049726814
 31
0.0
  0
LWPOLYLINE
  5
77DF
330
200
100
AcDbEntity
  8
0
100
AcDbPolyline
 90
        3
 70
     0
 43
0.0
 10
65357.12570308576
 20
14358.19773380154
 10
65358.26812627075
 20
14356.38042498964
 10
65359.86738751206
 20
14355.01941990374
  0
LINE
  5
77E1
330
200
100
AcDbEntity
  8
0
100
AcDbLine
 10
65356.99619808085
 20
14358.51964466714
 30
0.0
 11
65357.12570308576
 21
14358.19773380154
 31
0.0
  0
LINE
  5
77E2
330
200
100
AcDbEntity
  8
0
100
AcDbLine
 10
65314.65900278136
 20
14643.20822188634
 30
0.0
 11
65314.66353240906
 21
14642.92381081324
 31
0.0
  0
LINE
  5
77E3
330
200
100
AcDbEntity
  8
0
100
AcDbLine
 10
65314.66353240056
 20
14642.92381083994
 30
0.0
 11
65314.69632783715
 21
14630.97062922474
 31
0.0
  0
LWPOLYLINE
  5
77E4
330
200
100
AcDbEntity
  8
0
100
AcDbPolyline
 90
        5
 70
     0
 43
0.0
 10
65314.73473889396
 20
14616.97068329384
 10
65314.79810554196
 20
14593.87499889634
 10
65317.68065728666
 20
14538.18804190444
 10
65325.34539974865
 20
14478.74149207624
 10
65338.12699967566
 20
14417.75124037304
  0
LINE
  5
77E5
330
200
100
AcDbEntity
  8
0
100
AcDbLine
 10
65304.71226546135
 20
14655.63241249424
 30
0.0
 11
65304.71226546135
 21
14696.97049726814
 31
0.0
  0
LINE
  5
77E8
330
200
100
AcDbEntity
  8
0
100
AcDbLine
 10
65338.12699967566
 20
14417.75124037304
 30
0.0
 11
65356.99619810475
 21
14358.51964466524
 31
0.0
  0
LINE
  5
7806
330
200
100
AcDbEntity
  8
0
100
AcDbLine
 10
65311.71226546136
 20
14703.97049726814
 30
0.0
 11
65482.21226546135
 21
14703.97049726814
 31
0.0
  0
LINE
  5
7807
330
200
100
AcDbEntity
  8
0
100
AcDbLine
 10
65973.77222155746
 20
14696.97049726814
 30
0.0
 11
65973.77222155746
 21
14360.97049726814
 31
0.0
  0
LINE
  5
7808
330
200
100
AcDbEntity
  8
0
100
AcDbLine
 10
66397.89940725386
 20
14353.97049726814
 30
0.0
 11
65980.77222155746
 21
14353.97049726814
 31
0.0
  0
LWPOLYLINE
  5
7809
330
200
100
AcDbEntity
  8
0
100
AcDbPolyline
 90
        7
 70
     0
 43
0.0
 10
66538.07509157166
 20
14648.86569309604
 10
66539.28226579775
 20
14649.20892188444
 10
66541.05345952266
 20
14650.20537057224
 10
66542.46386919647
 20
14651.66871656234
 10
66543.39450451775
 20
14653.47567750634
 10
66543.76680094966
 20
14655.47397008814
 10
66543.77198531046
 20
14655.74332903554
  0
LINE
  5
780A
330
200
100
AcDbEntity
  8
0
100
AcDbLine
 10
66543.77210546596
 20
14655.74338869344
 30
0.0
 11
66543.77222153416
 21
14655.74338760914
 31
0.0
  0
LINE
  5
780B
330
200
100
AcDbEntity
  8
0
100
AcDbLine
 10
65980.77222155746
 20
14703.97049726814
 30
0.0
 11
66536.75742488546
 21
14703.97049726814
 31
0.0
  0
LWPOLYLINE
  5
780C
330
200
100
AcDbEntity
  8
0
100
AcDbPolyline
 90
        9
 70
     0
 43
0.0
 10
66403.82647004786
 20
14357.24626199234
 10
66428.74692446776
 20
14396.55711832904
 10
66452.33974132445
 20
14435.24811900014
 10
66472.82525037065
 20
14472.78379891284
 10
66490.25909907785
 20
14509.28686833864
 10
66505.14251466766
 20
14544.70639796594
 10
66517.66849136167
 20
14579.15412993944
 10
66527.44496674006
 20
14612.63202667224
 10
66533.23199527946
 20
14643.66029186254
  0
LWPOLYLINE
  5
780D
330
200
100
AcDbEntity
  8
0
100
AcDbPolyline
 90
        6
 70
     0
 43
0.0
 10
66533.23186041427
 20
14643.66030747164
 10
66533.30900362755
 20
14644.14925206494
 10
66534.04499871995
 20
14646.05392611204
 10
66535.37109211535
 20
14647.59649968954
 10
66537.12926800686
 20
14648.60472295734
 10
66538.07511292456
 20
14648.86558056174
  0
LINE
  5
780E
330
200
100
AcDbEntity
  8
0
100
AcDbLine
 10
66543.77222155746
 20
14655.74365720934
 30
0.0
 11
66543.77222155746
 21
14696.97049726814
 31
0.0
  0
ARC
  5
780F
330
200
100
AcDbEntity
  8
0
100
AcDbCircle
 10
65482.21226546135
 20
13764.5
 30
0.0
 40
177.5
100
AcDbArc
 50
180.0
 51
0.0
  0
CIRCLE
  5
7810
330
200
100
AcDbEntity
  8
0
100
AcDbCircle
 10
65482.21226546135
 20
13897.0
 30
0.0
 40
23.0
  0
CIRCLE
  5
7811
330
200
100
AcDbEntity
  8
0
100
AcDbCircle
 10
65482.21226546135
 20
14044.0
 30
0.0
 40
17.5
  0
ARC
  5
7812
330
200
100
AcDbEntity
  8
0
100
AcDbCircle
 10
65311.71226546136
 20
14150.0
 30
0.0
 40
7.0
100
AcDbArc
 50
90.0
 51
180.0
  0
ARC
  5
7813
330
200
100
AcDbEntity
  8
0
100
AcDbCircle
 10
65652.71226546136
 20
14150.0
 30
0.0
 40
7.0
100
AcDbArc
 50
0.0
 51
90.0
  0
ARC
  5
7815
330
200
100
AcDbEntity
  8
0
100
AcDbCircle
 10
65311.71226546136
 20
14655.63241249104
 30
0.0
 40
7.0
100
AcDbArc
 50
180.000000445438
 51
256.9042772208301
  0
ARC
  5
7816
330
200
100
AcDbEntity
  8
0
100
AcDbCircle
 10
65311.71226546136
 20
14696.97049726814
 30
0.0
 40
7.0
100
AcDbArc
 50
90.0
 51
180.0
  0
ARC
  5
7821
330
200
100
AcDbEntity
  8
0
100
AcDbCircle
 10
66536.77222155746
 20
14696.97049726814
 30
0.0
 40
7.0
100
AcDbArc
 50
0.0
 51
90.0
  0
ARC
  5
7822
330
200
100
AcDbEntity
  8
0
100
AcDbCircle
 10
66397.89940738136
 20
14360.97049726814
 30
0.0
 40
7.0
100
AcDbArc
 50
270.0
 51
327.8570391226879
  0
ARC
  5
7823
330
200
100
AcDbEntity
  8
0
100
AcDbCircle
 10
65980.77222155746
 20
14360.97049726814
 30
0.0
 40
7.0
100
AcDbArc
 50
180.0
 51
270.0
  0
ARC
  5
7824
330
200
100
AcDbEntity
  8
0
100
AcDbCircle
 10
65980.77222155746
 20
14696.97049726814
 30
0.0
 40
7.0
100
AcDbArc
 50
90.0
 51
180.0
  0
SPLINE
  5
7825
330
200
100
AcDbEntity
  8
0
100
AcDbSpline
210
0.0
220
0.0
230
1.0
 70
     8
 71
     3
 72
    13
 73
     9
 74
     7
 42
0.0000000001
 43
0.0000000001
 44
0.0000000001
 12
0.0000000000000001
 22
1.0
 32
0.0
 13
1.0
 23
-0.0000000000000001
 33
0.0
 40
0.0
 40
0.0
 40
0.0
 40
0.0
 40
0.3998496339254037
 40
1.489085005750628
 40
3.233863798746023
 40
5.521103285329797
 40
8.188848681696381
 40
11.06233138464671
 40
11.06233138464671
 40
11.06233138464671
 40
11.06233138464671
 10
65471.21226546136
 20
13982.20639913839
 30
0.0
 10
65471.21226546136
 20
13982.3396823497
 30
0.0
 10
65471.93047838989
 20
13982.40241553512
 30
0.0
 10
65472.78651856744
 20
13982.6018649668
 30
0.0
 10
65474.60236862945
 20
13982.71395106258
 30
0.0
 10
65476.78664128385
 20
13982.84173175671
 30
0.0
 10
65479.41128665946
 20
13982.91267541824
 30
0.0
 10
65481.25443789371
 20
13982.93071164039
 30
0.0
 10
65482.21226546135
 20
13982.93071164039
 30
0.0
 11
65471.21226546136
 21
13982.20639913839
 31
0.0
 11
65471.57461106235
 21
13982.3754712981
 31
0.0
 11
65472.65060794824
 21
13982.5447769294
 31
0.0
 11
65474.38847248694
 21
13982.6999538658
 31
0.0
 11
65476.67235084734
 21
13982.82390588841
 31
0.0
 11
65479.33891300974
 21
13982.90335230999
 31
0.0
 11
65482.21226546135
 21
13982.93071164039
 31
0.0
  0
SPLINE
  5
7826
330
200
100
AcDbEntity
  8
0
100
AcDbSpline
210
0.0
220
0.0
230
1.0
 70
     8
 71
     3
 72
    13
 73
     9
 74
     7
 42
0.0000000001
 43
0.0000000001
 44
0.0000000001
 12
1.0
 22
-0.0000000000000001
 32
0.0
 13
-0.0000000000000001
 23
-1.0
 33
0.0
 40
0.0
 40
0.0
 40
0.0
 40
0.0
 40
2.854213273541777
 40
5.506370467202604
 40
7.796492966652714
 40
9.549779220698686
 40
10.6548430596736
 40
11.06218205572229
 40
11.06218205572229
 40
11.06218205572229
 40
11.06218205572229
 10
65482.21226546135
 20
13982.93071164039
 30
0.0
 10
65483.16366988587
 20
13982.93071164039
 30
0.0
 10
65484.99524396969
 20
13982.91287876643
 30
0.0
 10
65487.60911697596
 20
13982.84283536852
 30
0.0
 10
65489.79205406062
 20
13982.71566914021
 30
0.0
 10
65491.61777876642
 20
13982.60479324197
 30
0.0
 10
65492.48116454474
 20
13982.40280357895
 30
0.0
 10
65493.21226546135
 20
13982.34217880374
 30
0.0
 10
65493.21226546135
 20
13982.20639913839
 30
0.0
 11
65482.21226546135
 21
13982.93071164039
 31
0.0
 11
65485.06635114544
 21
13982.90372425879
 31
0.0
 11
65487.71734971875
 21
13982.8253383916
 31
0.0
 11
65490.00415791944
 21
13982.70217461549
 31
0.0
 11
65491.75060595374
 21
13982.54747506119
 31
0.0
 11
65492.84247610104
 21
13982.37722327809
 31
0.0
 11
65493.21226546135
 21
13982.20639913839
 31
0.0
  0
SPLINE
  5
7827
330
200
100
AcDbEntity
  8
0
100
AcDbSpline
210
0.0
220
0.0
230
1.0
 70
     8
 71
     3
 72
    13
 73
     9
 74
     7
 42
0.0000000001
 43
0.0000000001
 44
0.0000000001
 12
-1.0
 22
0.0000000000000001
 32
0.0
 13
0.0000000000000001
 23
1.0
 33
0.0
 40
0.0
 40
0.0
 40
0.0
 40
0.0
 40
2.886010981448775
 40
5.529941846836941
 40
7.800503536902988
 40
9.541588425117462
 40
10.63843751869381
 40
11.04915643280754
 40
11.04915643280754
 40
11.04915643280754
 40
11.04915643280754
 10
65482.21226546135
 20
13981.620216266
 30
0.0
 10
65481.25026180087
 20
13981.620216266
 30
0.0
 10
65479.41100008496
 20
13981.63330493969
 30
0.0
 10
65476.79497726981
 20
13981.68097522338
 30
0.0
 10
65474.62471820883
 20
13981.77616553218
 30
0.0
 10
65472.80818134504
 20
13981.84889046654
 30
0.0
 10
65471.95096121542
 20
13982.02818797039
 30
0.0
 10
65471.21226546136
 20
13982.06949283369
 30
0.0
 10
65471.21226546136
 20
13982.20639913839
 30
0.0
 11
65482.21226546135
 21
13981.620216266
 31
0.0
 11
65479.32631902255
 21
13981.6395174933
 31
0.0
 11
65476.68296843895
 21
13981.6949080441
 31
0.0
 11
65474.41414171634
 21
13981.78365313519
 31
0.0
 11
65472.67707066533
 21
13981.9018087603
 31
0.0
 11
65471.58946109344
 21
13982.043876889
 31
0.0
 11
65471.21226546136
 21
13982.20639913839
 31
0.0
  0
SPLINE
  5
7828
330
200
100
AcDbEntity
  8
0
100
AcDbSpline
210
0.0
220
0.0
230
1.0
 70
     8
 71
     3
 72
    15
 73
    11
 74
     9
 42
0.0000000001
 43
0.0000000001
 44
0.0000000001
 12
-0.0000000000000001
 22
-1.0
 32
0.0
 13
-1.0
 23
0.0000000000000001
 33
0.0
 40
0.0
 40
0.0
 40
0.0
 40
0.0
 40
0.3466143656912255
 40
1.147488162058144
 40
2.281999210780253
 40
3.674111556045027
 40
5.278786932480573
 40
7.085235294709528
 40
9.034294155638681
 40
11.05077673770887
 40
11.05077673770887
 40
11.05077673770887
 40
11.05077673770887
 10
65493.21226546135
 20
13982.20639913839
 30
0.0
 10
65493.21226546135
 20
13982.09086101649
 30
0.0
 10
65492.65632147854
 20
13982.03800416382
 30
0.0
 10
65492.04642314804
 20
13981.90703101582
 30
0.0
 10
65490.87291280208
 20
13981.83390250232
 30
0.0
 10
65489.5227305554
 20
13981.75416650034
 30
0.0
 10
65487.91431292051
 20
13981.69701953658
 30
0.0
 10
65486.13074837887
 20
13981.6529324196
 30
0.0
 10
65484.20608987556
 20
13981.62630083997
 30
0.0
 10
65482.88442632204
 20
13981.620216266
 30
0.0
 10
65482.21226546135
 20
13981.620216266
 30
0.0
 11
65493.21226546135
 21
13982.20639913839
 31
0.0
 11
65492.89914775764
 21
13982.05774241259
 31
0.0
 11
65492.10728870314
 21
13981.9379172253
 31
0.0
 11
65490.97693111526
 21
13981.8409273125
 31
0.0
 11
65489.58699841855
 21
13981.7630563907
 31
0.0
 11
65487.98347771125
 21
13981.7021925673
 31
0.0
 11
65486.17758867044
 21
13981.65724306541
 31
0.0
 11
65484.22872638594
 21
13981.62956203609
 31
0.0
 11
65482.21226546135
 21
13981.620216266
 31
0.0
  0
SPLINE
  5
7829
330
200
100
AcDbEntity
  8
0
100
AcDbSpline
210
0.0
220
0.0
230
1.0
 70
     8
 71
     3
 72
    10
 73
     6
 74
     4
 42
0.0000000001
 43
0.0000000001
 44
0.0000000001
 12
-0.011772739429077
 22
-0.9999306989018464
 32
0.0
 13
0.0064373195685455
 23
-0.9999792802437321
 33
0.0
 40
0.0
 40
0.0
 40
0.0
 40
0.0
 40
57.83475758316298
 40
110.8667753401887
 40
159.7835689758223
 40
159.7835689758223
 40
159.7835689758223
 40
159.7835689758223
 10
65343.64055633404
 20
13924.90587484579
 30
0.0
 10
65343.41359849039
 20
13905.62895832214
 30
0.0
 10
65343.28170039798
 20
13868.67261334529
 30
0.0
 10
65343.3929160349
 20
13815.41175877027
 30
0.0
 10
65343.48935453154
 20
13781.42880565442
 30
0.0
 10
65343.59431887584
 20
13765.12354562389
 30
0.0
 11
65343.64055633404
 21
13924.90587484579
 31
0.0
 11
65343.33287945245
 21
13867.07193567821
 31
0.0
 11
65343.40267452095
 21
13814.0399638496
 31
0.0
 11
65343.59431887584
 21
13765.12354562389
 31
0.0
  0
SPLINE
  5
782A
330
200
100
AcDbEntity
  8
0
100
AcDbSpline
210
0.0
220
0.0
230
1.0
 70
     8
 71
     3
 72
    17
 73
    13
 74
    11
 42
0.0000000001
 43
0.0000000001
 44
0.0000000001
 12
0.0064824409343506
 22
-0.9999789887590303
 32
0.0
 13
0.9999999991504294
 23
-0.000041220638783
 33
0.0
 40
0.0
 40
0.0
 40
0.0
 40
0.0
 40
22.51898820225401
 40
45.04913525075362
 40
67.35804432136816
 40
89.39802959813773
 40
111.3530692138182
 40
133.4186607099584
 40
155.6938927314424
 40
177.9110024361135
 40
198.9845109939957
 40
217.6387621557936
 40
217.6387621557936
 40
217.6387621557936
 40
217.6387621557936
 10
65343.59431887584
 20
13765.12354562389
 30
0.0
 10
65343.64297821282
 20
13757.61737394044
 30
0.0
 10
65344.91815119207
 20
13742.5817747666
 30
0.0
 10
65350.34130298577
 20
13720.70056601793
 30
0.0
 10
65359.10631195421
 20
13700.09774678839
 30
0.0
 10
65370.94980106964
 20
13681.32629762144
 30
0.0
 10
65385.57830950462
 20
13664.74028508086
 30
0.0
 10
65402.74914436053
 20
13650.6777515828
 30
0.0
 10
65422.00942946744
 20
13639.47991931971
 30
0.0
 10
65442.48182813683
 20
13631.56871139966
 30
0.0
 10
65462.7358355842
 20
13627.17418967813
 30
0.0
 10
65475.99418174604
 20
13626.24877587109
 30
0.0
 10
65482.21226546135
 20
13626.2485195577
 30
0.0
 11
65343.59431887584
 21
13765.12354562389
 31
0.0
 11
65345.50550333214
 21
13742.68580501511
 31
0.0
 11
65350.93132158634
 21
13720.8187516631
 31
0.0
 11
65359.67535322975
 21
13700.29487935449
 31
0.0
 11
65371.43772251974
 21
13681.65600546989
 31
0.0
 11
65385.96513551484
 21
13665.1945949533
 31
0.0
 11
65403.02836310456
 21
13651.2040055341
 31
0.0
 11
65422.28124901265
 21
13640.0007762755
 31
0.0
 11
65443.00681973195
 21
13631.9976092781
 31
0.0
 11
65463.60244147125
 21
13627.5351964654
 31
0.0
 11
65482.21226546135
 21
13626.2485195577
 31
0.0
  0
SPLINE
  5
782B
330
200
100
AcDbEntity
  8
0
100
AcDbSpline
210
0.0
220
0.0
230
1.0
 70
     8
 71
     3
 72
    17
 73
    13
 74
    11
 42
0.0000000001
 43
0.0000000001
 44
0.0000000001
 12
0.9999999993015384
 22
0.000037375434236
 32
0.0
 13
0.0064826289600844
 23
0.9999789875401214
 33
0.0
 40
0.0
 40
0.0
 40
0.0
 40
0.0
 40
18.70928127667162
 40
39.82387116267466
 40
62.05578123370338
 40
84.31745904537036
 40
106.3636180855221
 40
128.3037632907928
 40
150.3284531404934
 40
172.6218159742825
 40
195.1359218958101
 40
217.6388225651848
 40
217.6388225651848
 40
217.6388225651848
 40
217.6388225651848
 10
65482.21226546135
 20
13626.2485195577
 30
0.0
 10
65488.44869254923
 20
13626.24875264687
 30
0.0
 10
65501.73921529851
 20
13627.17917185755
 30
0.0
 10
65522.0273546136
 20
13631.59270749976
 30
0.0
 10
65542.50725250009
 20
13639.52414884347
 30
0.0
 10
65561.75382856564
 20
13650.73321260415
 30
0.0
 10
65578.90315090808
 20
13664.79645682413
 30
0.0
 10
65593.5119996412
 20
13681.37748252726
 30
0.0
 10
65605.3397100555
 20
13700.14061852542
 30
0.0
 10
65614.09260837237
 20
13720.73138115212
 30
0.0
 10
65619.50817778268
 20
13742.59789288242
 30
0.0
 10
65620.78158606166
 20
13757.62273634787
 30
0.0
 10
65620.83021204686
 20
13765.12354562389
 30
0.0
 11
65482.21226546135
 21
13626.2485195577
 31
0.0
 11
65500.87672780025
 21
13627.54275736019
 31
0.0
 11
65521.51005762525
 21
13632.0251235196
 31
0.0
 11
65542.24351598805
 21
13640.04893369459
 31
0.0
 11
65561.47632576624
 21
13651.25970204589
 31
0.0
 11
65578.51561091013
 21
13665.24883676569
 31
0.0
 11
65593.02467357196
 21
13681.70657270669
 31
0.0
 11
65604.77138510376
 21
13700.3372391243
 31
0.0
 11
65613.50343427405
 21
13720.84931712061
 31
0.0
 11
65618.92165925124
 21
13742.70172667979
 31
0.0
 11
65620.83021204686
 21
13765.12354562389
 31
0.0
  0
SPLINE
  5
782C
330
200
100
AcDbEntity
  8
0
100
AcDbSpline
210
0.0
220
0.0
230
1.0
 70
     8
 71
     3
 72
    10
 73
     6
 74
     4
 42
0.0000000001
 43
0.0000000001
 44
0.0000000001
 12
0.0064355140743866
 22
0.9999792918648859
 32
0.0
 13
-0.0117663549538867
 23
0.9999307740494334
 33
0.0
 40
0.0
 40
0.0
 40
0.0
 40
0.0
 40
49.20675729193374
 40
102.2036736386931
 40
159.7835716641358
 40
159.7835716641358
 40
159.7835716641358
 40
159.7835716641358
 10
65620.83021204686
 20
13765.12354562389
 30
0.0
 10
65620.93576897322
 20
13781.52545839448
 30
0.0
 10
65621.0320114128
 20
13815.5933667974
 30
0.0
 10
65621.14296070698
 20
13868.85422725766
 30
0.0
 10
65621.00980976143
 20
13905.71390417837
 30
0.0
 10
65620.78397458864
 20
13924.90587484579
 30
0.0
 11
65620.83021204686
 21
13765.12354562389
 31
0.0
 11
65621.02258352824
 21
13814.3299268808
 31
0.0
 11
65621.09155559365
 21
13867.3267983462
 31
0.0
 11
65620.78397458864
 21
13924.90587484579
 31
0.0
  0
SPLINE
  5
782D
330
200
100
AcDbEntity
  8
0
100
AcDbSpline
210
0.0
220
0.0
230
1.0
 70
     8
 71
     3
 72
    27
 73
    23
 74
    21
 42
0.0000000001
 43
0.0000000001
 44
0.0000000001
 12
-0.0117618504041236
 22
0.9999308270450868
 32
0.0
 13
-0.9999999999921554
 23
-0.0000039609333064
 33
0.0
 40
0.0
 40
0.0
 40
0.0
 40
0.0
 40
4.24892395340329
 40
8.707455566806537
 40
13.22378734407888
 40
17.61084482528097
 40
21.83698994885734
 40
26.43364843382651
 40
31.56221017982197
 40
37.22841528722069
 40
43.462181256085
 40
50.32883439397104
 40
57.9087739728823
 40
66.25136951878795
 40
75.43409641840674
 40
85.52449745343517
 40
96.61038579233181
 40
108.7755438916771
 40
122.0994996005956
 40
136.6781247759915
 40
152.6326292389484
 40
170.0925635135611
 40
170.0925635135611
 40
170.0925635135611
 40
170.0925635135611
 10
65620.78397458864
 20
13924.90587484579
 30
0.0
 10
65620.767316186
 20
13926.32208486005
 30
0.0
 10
65620.63277876575
 20
13929.22440095719
 30
0.0
 10
65620.08580355093
 20
13933.60320447764
 30
0.0
 10
65619.15621355746
 20
13937.96500820042
 30
0.0
 10
65617.87059051698
 20
13942.15438017346
 30
0.0
 10
65616.21290925541
 20
13946.23954082698
 30
0.0
 10
65614.08384830074
 20
13950.38141649005
 30
0.0
 10
65611.3028312925
 20
13954.70340316141
 30
0.0
 10
65607.73420591889
 20
13959.132025297
 30
0.0
 10
65603.2907025053
 20
13963.55262090142
 30
0.0
 10
65597.90104216097
 20
13967.87125396855
 30
0.0
 10
65591.49592113279
 20
13971.98016121726
 30
0.0
 10
65584.03023704874
 20
13975.78814532063
 30
0.0
 10
65575.48000544257
 20
13979.22770371955
 30
0.0
 10
65565.81407039038
 20
13982.25416322386
 30
0.0
 10
65554.99997658089
 20
13984.8502943699
 30
0.0
 10
65542.98794989673
 20
13986.9731736494
 30
0.0
 10
65529.72899479977
 20
13988.61790974067
 30
0.0
 10
65515.15556198477
 20
13989.81603651332
 30
0.0
 10
65499.17135947291
 20
13990.54392691563
 30
0.0
 10
65488.03224355284
 20
13990.69080821184
 30
0.0
 10
65482.21226546135
 20
13990.6907851593
 30
0.0
 11
65620.78397458864
 21
13924.90587484579
 31
0.0
 11
65620.58229316753
 21
13929.15000954749
 31
0.0
 11
65620.02571816204
 21
13933.5736650959
 31
0.0
 11
65619.08227525256
 21
13937.99035709319
 31
0.0
 11
65617.79322936645
 21
13942.18376072829
 31
0.0
 11
65616.20450890454
 21
13946.0999157175
 31
0.0
 11
65614.10401209644
 21
13950.18858082809
 31
0.0
 11
65611.32960489666
 21
13954.5019102002
 31
0.0
 11
65607.77973745475
 21
13958.9182799157
 31
0.0
 11
65603.36983757183
 21
13963.3242555372
 31
0.0
 11
65598.02021726025
 21
13967.62919314859
 31
0.0
 11
65591.65139899615
 21
13971.7393802415
 31
0.0
 11
65584.23146481614
 21
13975.5529713584
 31
0.0
 11
65575.72265155395
 21
13979.0058788553
 31
0.0
 11
65566.10238347144
 21
13982.0499936804
 31
0.0
 11
65555.32847673594
 21
13984.6614786827
 31
0.0
 11
65543.35405719405
 21
13986.8072531855
 31
0.0
 11
65530.13540038644
 21
13988.47905100101
 31
0.0
 11
65515.60747712505
 21
13989.69385868769
 31
0.0
 11
65499.67038481365
 21
13990.4390441118
 31
0.0
 11
65482.21226546135
 21
13990.6907851593
 31
0.0
  0
SPLINE
  5
782E
330
200
100
AcDbEntity
  8
0
100
AcDbSpline
210
0.0
220
0.0
230
1.0
 70
     8
 71
     3
 72
    19
 73
    15
 74
    13
 42
0.0000000001
 43
0.0000000001
 44
0.0000000001
 12
-0.9999999999455576
 22
-0.0000104347867309
 32
0.0
 13
-0.0119118868764938
 23
-0.9999290509586376
 33
0.0
 40
0.0
 40
0.0
 40
0.0
 40
0.0
 40
22.69697115563844
 40
43.35953562462958
 40
62.15803542424561
 40
79.21802008172967
 40
94.6303475315649
 40
108.5132923262223
 40
120.962912972429
 40
132.0732840459566
 40
142.1926453782345
 40
151.9523047127246
 40
161.3467034004302
 40
170.0170157506238
 40
170.0170157506238
 40
170.0170157506238
 40
170.0170157506238
 10
65482.21226546135
 20
13990.6907851593
 30
0.0
 10
65474.64660840988
 20
13990.69070621328
 30
0.0
 10
65460.19083498578
 20
13990.4444838644
 30
0.0
 10
65439.50393815054
 20
13989.15718145504
 30
0.0
 10
65420.77696277198
 20
13986.98528271961
 30
0.0
 10
65403.97164698429
 20
13983.77121051195
 30
0.0
 10
65389.1051978514
 20
13979.45804595238
 30
0.0
 10
65376.25498974333
 20
13974.01133961613
 30
0.0
 10
65365.57455817521
 20
13967.44763623312
 30
0.0
 10
65357.12482336976
 20
13959.95799409705
 30
0.0
 10
65350.82519481997
 20
13951.68725137785
 30
0.0
 10
65346.53966067732
 20
13942.84816708378
 30
0.0
 10
65344.17552882897
 20
13933.8240970986
 30
0.0
 10
65343.67498292734
 20
13927.79577391241
 30
0.0
 10
65343.64055633404
 20
13924.90587484579
 30
0.0
 11
65482.21226546135
 21
13990.6907851593
 31
0.0
 11
65459.51949089954
 21
13990.2543423492
 31
0.0
 11
65438.89961056825
 21
13988.926899108
 31
0.0
 11
65420.23594937014
 21
13986.6793792753
 31
0.0
 11
65403.49494009825
 21
13983.3958316402
 31
0.0
 11
65388.71914976065
 21
13979.01224209279
 31
0.0
 11
65375.97905476844
 21
13973.4962529919
 31
0.0
 11
65365.41857182915
 21
13966.9031312485
 31
0.0
 11
65357.15298654634
 21
13959.4788167802
 31
0.0
 11
65351.04510960445
 21
13951.41065013369
 31
0.0
 11
65346.79167479835
 21
13942.6266167392
 31
0.0
 11
65344.39373729265
 21
13933.5434112245
 31
0.0
 11
65343.64055633404
 21
13924.90587484579
 31
0.0
  0
SPLINE
  5
782F
330
200
100
AcDbEntity
  8
0
100
AcDbSpline
210
0.0
220
0.0
230
1.0
 70
     8
 71
     3
 72
    10
 73
     6
 74
     4
 42
0.0000000001
 43
0.0000000001
 44
0.0000000001
 12
-0.4119056207814851
 22
-0.9112265138639347
 32
0.0
 13
-0.9158384292244083
 23
0.4015469730377366
 33
0.0
 40
0.0
 40
0.0
 40
0.0
 40
0.0
 40
0.0577136806687188
 40
0.0950802342266223
 40
0.1328822040243482
 40
0.1328822040243482
 40
0.1328822040243482
 40
0.1328822040243482
 10
65357.05349587006
 20
14358.64974054024
 30
0.0
 10
65357.04557167357
 20
14358.63221046156
 30
0.0
 10
65357.03399185043
 20
14358.59985583128
 30
0.0
 10
65357.01189036824
 20
14358.57024576319
 30
0.0
 10
65357.0114640427
 20
14358.52307773152
 30
0.0
 10
65356.99992387716
 20
14358.52813748704
 30
0.0
 11
65357.05349587006
 21
14358.64974054024
 31
0.0
 11
65357.02995365506
 21
14358.59704677354
 31
0.0
 11
65357.01494691286
 21
14358.56282606324
 31
0.0
 11
65356.99992387716
 21
14358.52813748704
 31
0.0
  0
SPLINE
  5
7832
330
200
100
AcDbEntity
  8
0
100
AcDbSpline
210
0.0
220
0.0
230
1.0
 70
     8
 71
     3
 72
    12
 73
     8
 74
     6
 42
0.0000000001
 43
0.0000000001
 44
0.0000000001
 12
-0.0093173691078231
 22
0.9999565923743434
 32
0.0
 13
-0.9739958832004781
 23
0.2265657068236962
 33
0.0
 40
0.0
 40
0.0
 40
0.0
 40
0.0
 40
1.403468325411142
 40
2.99482715676547
 40
4.587827155271371
 40
6.180212523775268
 40
7.780840266361254
 40
7.780840266361254
 40
7.780840266361254
 40
7.780840266361254
 10
65314.65900278136
 20
14643.20822188634
 30
0.0
 10
65314.65464390389
 20
14643.6760243544
 30
0.0
 10
65314.62885552299
 20
14644.69082444666
 30
0.0
 10
65313.95400280295
 20
14646.10190286653
 30
0.0
 10
65312.96307944884
 20
14647.3618834613
 30
0.0
 10
65311.65435334554
 20
14648.31104947308
 30
0.0
 10
65310.64593605483
 20
14648.69355904828
 30
0.0
 10
65310.12626777756
 20
14648.81444150024
 30
0.0
 11
65314.65900278136
 21
14643.20822188634
 31
0.0
 11
65314.53939041895
 21
14644.60658386494
 31
0.0
 11
65313.90624885745
 21
14646.06656834884
 31
0.0
 11
65312.91037229076
 21
14647.30990211704
 31
0.0
 11
65311.62295810875
 21
14648.24705519194
 31
0.0
 11
65310.12626777756
 21
14648.81444150024
 31
0.0
  0
SPLINE
  5
7833
330
200
100
AcDbEntity
  8
0
100
AcDbSpline
210
0.0
220
0.0
230
1.0
 70
     8
 71
     3
 72
    11
 73
     7
 74
     5
 42
0.0000000001
 43
0.0000000001
 44
0.0000000001
 12
-1.0
 22
0.0000000119707934
 32
0.0
 13
-0.3315362283051613
 23
0.9434424886134756
 33
0.0
 40
0.0
 40
0.0
 40
0.0
 40
0.0
 40
2.149642061768214
 40
4.297958764396019
 40
6.446305149905501
 40
8.595921490805803
 40
8.595921490805803
 40
8.595921490805803
 40
8.595921490805803
 10
65363.65757887216
 20
14353.97049726824
 30
0.0
 10
65362.94103151824
 20
14353.97049727682
 30
0.0
 10
65361.49867928551
 20
14354.19389606008
 30
0.0
 10
65359.54637628881
 20
14355.16811720329
 30
0.0
 10
65357.9800058103
 20
14356.68701310911
 30
0.0
 10
65357.29105320092
 20
14357.97372680176
 30
0.0
 10
65357.05349463626
 20
14358.64973993184
 30
0.0
 11
65363.65757887216
 21
14353.97049726824
 31
0.0
 11
65361.53342847786
 21
14354.30056710344
 31
0.0
 11
65359.61069235836
 21
14355.25887314514
 31
0.0
 11
65358.06911240706
 21
14356.75517640514
 31
0.0
 11
65357.05349463626
 21
14358.64973993184
 31
0.0
  0
SPLINE
  5
7863
330
200
100
AcDbEntity
  8
0
100
AcDbSpline
210
0.0
220
0.0
230
1.0
 70
     8
 71
     3
 72
    10
 73
     6
 74
     4
 42
0.0000000001
 43
0.0000000001
 44
0.0000000001
 12
0.9999999732331186
 22
-0.0002313736419116
 32
0.0
 13
0.9999999827277537
 23
0.0001858614868372
 33
0.0
 40
0.0
 40
0.0
 40
0.0
 40
0.0
 40
102.8651287417312
 40
208.271096252448
 40
315.2003322308406
 40
315.2003322308406
 40
315.2003322308406
 40
315.2003322308406
 10
65980.76879390205
 20
14648.80830293564
 30
0.0
 10
66015.0571692315
 20
14648.80036950915
 30
0.0
 10
66084.48086804306
 20
14648.79091339807
 30
0.0
 10
66189.54764550163
 20
14648.80101876042
 30
0.0
 10
66260.32604534364
 20
14648.81450588464
 30
0.0
 10
66295.96912338746
 20
14648.82113056024
 30
0.0
 11
65980.76879390205
 21
14648.80830293564
 31
0.0
 11
66083.63392177897
 21
14648.79496427644
 31
0.0
 11
66189.03988901196
 21
14648.80261595844
 31
0.0
 11
66295.96912338746
 21
14648.82113056024
 31
0.0
  0
SPLINE
  5
7864
330
200
100
AcDbEntity
  8
0
100
AcDbSpline
210
0.0
220
0.0
230
1.0
 70
     8
 71
     3
 72
    10
 73
     6
 74
     4
 42
0.0000000001
 43
0.0000000001
 44
0.0000000001
 12
0.9999999826451535
 22
0.0001863053751792
 32
0.0
 13
0.9999998605570912
 23
0.0005280963909315
 33
0.0
 40
0.0
 40
0.0
 40
0.0
 40
0.0
 40
23.25376115609362
 40
46.69909836493276
 40
70.33380162763697
 40
70.33380162763697
 40
70.33380162763697
 40
70.33380162763697
 10
66295.96912338756
 20
14648.82113058984
 30
0.0
 10
66303.72037697174
 20
14648.82257469007
 30
0.0
 10
66319.28674258983
 20
14648.8268105953
 30
0.0
 10
66342.73134126543
 20
14648.83627087566
 30
0.0
 10
66358.42468616322
 20
14648.84408284897
 30
0.0
 10
66366.30291948556
 20
14648.84824331614
 30
0.0
 11
66295.96912338756
 21
14648.82113058984
 31
0.0
 11
66319.22288372516
 21
14648.82730037594
 31
0.0
 11
66342.66821908476
 21
14648.83661229824
 31
0.0
 11
66366.30291948556
 21
14648.84824331614
 31
0.0
  0
SPLINE
  5
7865
330
200
100
AcDbEntity
  8
0
100
AcDbSpline
210
0.0
220
0.0
230
1.0
 70
     8
 71
     3
 72
    24
 73
    20
 74
    18
 42
0.0000000001
 43
0.0000000001
 44
0.0000000001
 12
0.999999869134384
 22
0.0005115967311386
 32
0.0
 13
-0.0007454015115284
 23
-0.9999997221882548
 33
0.0
 40
0.0
 40
0.0
 40
0.0
 40
0.0
 40
23.98929533568233
 40
44.69204218961023
 40
62.44524582507861
 40
77.49876261012892
 40
90.3280856292574
 40
101.4908275580499
 40
112.5588990449058
 40
123.326520150791
 40
132.9284675601303
 40
141.4479695325971
 40
149.1070475472869
 40
156.1176432455981
 40
162.4434448595305
 40
167.7100433049831
 40
171.1070919664813
 40
171.4734399022381
 40
171.6732158971857
 40
171.6732158971857
 40
171.6732158971857
 40
171.6732158971857
 10
66366.30291946596
 20
14648.84824530514
 30
0.0
 10
66374.29935019807
 20
14648.8523362535
 30
0.0
 10
66389.19669570989
 20
14648.86004459453
 30
0.0
 10
66410.01177660053
 20
14648.86648336829
 30
0.0
 10
66427.84826611289
 20
14648.86915642444
 30
0.0
 10
66443.06027842845
 20
14648.87260640199
 30
0.0
 10
66456.07547747376
 20
14648.87458347325
 30
0.0
 10
66467.76217307114
 20
14648.87516194663
 30
0.0
 10
66478.76171019355
 20
14648.87456764682
 30
0.0
 10
66489.2407169679
 20
14648.87339045563
 30
0.0
 10
66498.87106924668
 20
14648.87466234789
 30
0.0
 10
66507.46250020164
 20
14648.87205381842
 30
0.0
 10
66515.19886206387
 20
14648.87761137003
 30
0.0
 10
66522.17581849067
 20
14648.85339181534
 30
0.0
 10
66528.44444302466
 20
14648.91925777179
 30
0.0
 10
66533.25657551351
 20
14648.73397050248
 30
0.0
 10
66536.59605682722
 20
14649.06231017676
 30
0.0
 10
66537.66510484337
 20
14648.81012868988
 30
0.0
 10
66537.97617936174
 20
14648.93226424705
 30
0.0
 10
66537.97612972396
 20
14648.86567226724
 30
0.0
 11
66366.30291946596
 21
14648.84824530514
 31
0.0
 11
66390.29221205817
 21
14648.85971824104
 31
0.0
 11
66410.99495789896
 21
14648.86619505864
 31
0.0
 11
66428.74816121976
 21
14648.86953763904
 31
0.0
 11
66443.80167769905
 21
14648.87257166994
 31
0.0
 11
66456.63100058306
 21
14648.87443368254
 31
0.0
 11
66467.79374249896
 21
14648.87497007864
 31
0.0
 11
66478.86181397375
 21
14648.87445319994
 31
0.0
 11
66489.62943506045
 21
14648.87381053784
 31
0.0
 11
66499.23138246845
 21
14648.87397121784
 31
0.0
 11
66507.75088442766
 21
14648.87349588454
 31
0.0
 11
66515.40996233197
 21
14648.87219553304
 31
0.0
 11
66522.42055765485
 21
14648.86990123084
 31
0.0
 11
66528.74635901707
 21
14648.86811666324
 31
0.0
 11
66534.01295730946
 21
14648.86684693864
 31
0.0
 11
66537.41000583815
 21
14648.86589707024
 31
0.0
 11
66537.77635374825
 21
14648.86575994674
 31
0.0
 11
66537.97612972396
 21
14648.86567226724
 31
0.0
  0
SPLINE
  5
7866
330
200
100
AcDbEntity
  8
0
100
AcDbSpline
210
0.0
220
0.0
230
1.0
 70
     8
 71
     3
 72
    12
 73
     8
 74
     6
 42
0.0000000001
 43
0.0000000001
 44
0.0000000001
 12
-0.9999930059103901
 22
0.0037400708953597
 32
0.0
 13
0.0000000022315769
 23
1.0
 33
0.0
 40
0.0
 40
0.0
 40
0.0
 40
0.0
 40
2.187976288238474
 40
4.365300167750725
 40
6.525302033694933
 40
8.667847104500458
 40
10.79953806482962
 40
10.79953806482962
 40
10.79953806482962
 40
10.79953806482962
 10
65980.76879988535
 20
14648.80832165674
 30
0.0
 10
65980.0394795569
 20
14648.81104938555
 30
0.0
 10
65978.5746784794
 20
14649.03271586488
 30
0.0
 10
65976.59564613062
 20
14650.01402107686
 30
0.0
 10
65975.01969102876
 20
14651.54349752488
 30
0.0
 10
65974.00576422899
 20
14653.47333294005
 30
0.0
 10
65973.77222155587
 20
14654.9085396326
 30
0.0
 10
65973.77222155746
 20
14655.61910328604
 30
0.0
 11
65980.76879988535
 21
14648.80832165674
 31
0.0
 11
65978.60649281856
 21
14649.14248985814
 31
0.0
 11
65976.65605860145
 21
14650.11024274034
 31
0.0
 11
65975.10829541106
 21
14651.61690699204
 31
0.0
 11
65974.11461430805
 21
14653.51508960864
 31
0.0
 11
65973.77222155746
 21
14655.61910328604
 31
0.0
  0
CIRCLE
  5
7867
330
200
100
AcDbEntity
  8
轮廓线
100
AcDbCircle
 10
65482.21226546135
 20
13897.0
 30
0.0
 40
35.0
  0
LINE
  5
7868
330
200
100
AcDbEntity
  8
轮廓线
100
AcDbLine
 10
65314.69632783715
 20
14630.97062922474
 30
0.0
 11
65314.73473889396
 21
14616.97068329384
 31
0.0
  0
LINE
  5
786A
330
200
100
AcDbEntity
  8
0
100
AcDbLine
 10
65602.67012806945
 20
14354.20554418924
 30
0.0
 11
65600.87140337875
 21
14353.97049726814
 31
0.0
  0
LINE
  5
786B
330
200
100
AcDbEntity
  8
0
100
AcDbLine
 10
65604.55714341065
 20
14355.01941990374
 30
0.0
 11
65602.67012806945
 21
14354.20554418924
 31
0.0
  0
LINE
  5
786C
330
200
100
AcDbEntity
  8
0
100
AcDbLine
 10
65482.21226546135
 20
14353.97049726814
 30
0.0
 11
65600.76695188294
 21
14353.97049726814
 31
0.0
  0
LWPOLYLINE
  5
786D
330
200
100
AcDbEntity
  8
0
100
AcDbPolyline
 90
        3
 70
     0
 43
0.0
 10
65607.29882783696
 20
14358.19773380154
 10
65606.15640465196
 20
14356.38042498964
 10
65604.55714341065
 20
14355.01941990374
  0
LINE
  5
786F
330
200
100
AcDbEntity
  8
0
100
AcDbLine
 10
65607.42833284185
 20
14358.51964466714
 30
0.0
 11
65607.29882783696
 21
14358.19773380154
 31
0.0
  0
LINE
  5
7870
330
200
100
AcDbEntity
  8
0
100
AcDbLine
 10
65649.76552814136
 20
14643.20822188634
 30
0.0
 11
65649.76099851366
 21
14642.92381081324
 31
0.0
  0
LINE
  5
7871
330
200
100
AcDbEntity
  8
0
100
AcDbLine
 10
65649.76099852216
 20
14642.92381083994
 30
0.0
 11
65649.72820308556
 21
14630.97062922474
 31
0.0
  0
LWPOLYLINE
  5
7872
330
200
100
AcDbEntity
  8
0
100
AcDbPolyline
 90
        5
 70
     0
 43
0.0
 10
65649.68979202876
 20
14616.97068329384
 10
65649.62642538076
 20
14593.87499889634
 10
65646.74387363607
 20
14538.18804190444
 10
65639.07913117406
 20
14478.74149207624
 10
65626.29753124705
 20
14417.75124037304
  0
LINE
  5
7873
330
200
100
AcDbEntity
  8
0
100
AcDbLine
 10
65659.71226546136
 20
14655.63241249424
 30
0.0
 11
65659.71226546136
 21
14696.97049726814
 31
0.0
  0
LINE
  5
7876
330
200
100
AcDbEntity
  8
0
100
AcDbLine
 10
65626.29753124705
 20
14417.75124037304
 30
0.0
 11
65607.42833281795
 21
14358.51964466524
 31
0.0
  0
LWPOLYLINE
  5
788F
330
200
100
AcDbEntity
  8
0
100
AcDbPolyline
 90
        5
 70
     0
 43
0.0
 10
65653.96134063415
 20
14648.69429716564
 10
65652.32140401106
 20
14647.88684135234
 10
65650.99927208805
 20
14646.62120832774
 10
65650.11882053946
 20
14645.01203525354
 10
65649.76552814136
 20
14643.20822188634
  0
LINE
  5
7893
330
200
100
AcDbEntity
  8
0
100
AcDbLine
 10
65654.29831564703
 20
14648.81446229992
 30
0.0
 11
65653.96134063415
 21
14648.69429716564
 31
0.0
  0
LINE
  5
7896
330
200
100
AcDbEntity
  8
0
100
AcDbLine
 10
65652.71226546136
 20
14703.97049726814
 30
0.0
 11
65482.21226546135
 21
14703.97049726814
 31
0.0
  0
ARC
  5
7898
330
200
100
AcDbEntity
  8
0
100
AcDbCircle
 10
65652.71226546136
 20
14655.63241249104
 30
0.0
 40
7.0
100
AcDbArc
 50
283.0957227791699
 51
359.9999995544577
  0
ARC
  5
7899
330
200
100
AcDbEntity
  8
0
100
AcDbCircle
 10
65652.71226546136
 20
14696.97049726814
 30
0.0
 40
7.0
100
AcDbArc
 50
0.0
 51
90.0
  0
SPLINE
  5
78A6
330
200
100
AcDbEntity
  8
0
100
AcDbSpline
210
0.0
220
0.0
230
1.0
 70
     8
 71
     3
 72
    10
 73
     6
 74
     4
 42
0.0000000001
 43
0.0000000001
 44
0.0000000001
 12
0.4119056207814851
 22
-0.9112265138639347
 32
0.0
 13
0.9158384292244083
 23
0.4015469730377366
 33
0.0
 40
0.0
 40
0.0
 40
0.0
 40
0.0
 40
0.0577136806687188
 40
0.0950802342295444
 40
0.1328822040243788
 40
0.1328822040243788
 40
0.1328822040243788
 40
0.1328822040243788
 10
65607.37103505265
 20
14358.64974054024
 30
0.0
 10
65607.37895924914
 20
14358.63221046156
 30
0.0
 10
65607.39053907227
 20
14358.59985583128
 30
0.0
 10
65607.41264055448
 20
14358.57024576319
 30
0.0
 10
65607.41306688001
 20
14358.52307773152
 30
0.0
 10
65607.42460704555
 20
14358.52813748704
 30
0.0
 11
65607.37103505265
 21
14358.64974054024
 31
0.0
 11
65607.39457726765
 21
14358.59704677354
 31
0.0
 11
65607.40958400986
 21
14358.56282606324
 31
0.0
 11
65607.42460704555
 21
14358.52813748704
 31
0.0
  0
SPLINE
  5
78A9
330
200
100
AcDbEntity
  8
0
100
AcDbSpline
210
0.0
220
0.0
230
1.0
 70
     8
 71
     3
 72
    11
 73
     7
 74
     5
 42
0.0000000001
 43
0.0000000001
 44
0.0000000001
 12
1.0
 22
0.0000000119707934
 32
0.0
 13
0.3315362283051613
 23
0.9434424886134756
 33
0.0
 40
0.0
 40
0.0
 40
0.0
 40
0.0
 40
2.149642061768214
 40
4.297958764389507
 40
6.446305149898989
 40
8.595921490806167
 40
8.595921490806167
 40
8.595921490806167
 40
8.595921490806167
 10
65600.76695205055
 20
14353.97049726824
 30
0.0
 10
65601.48349940448
 20
14353.97049727682
 30
0.0
 10
65602.92585163722
 20
14354.19389606008
 30
0.0
 10
65604.87815463385
 20
14355.16811720329
 30
0.0
 10
65606.44452511244
 20
14356.68701310911
 30
0.0
 10
65607.13347772181
 20
14357.97372680176
 30
0.0
 10
65607.37103628646
 20
14358.64973993184
 30
0.0
 11
65600.76695205055
 21
14353.97049726824
 31
0.0
 11
65602.89110244486
 21
14354.30056710344
 31
0.0
 11
65604.81383856435
 21
14355.25887314514
 31
0.0
 11
65606.35541851565
 21
14356.75517640514
 31
0.0
 11
65607.37103628646
 21
14358.64973993184
 31
0.0
  0
LINE
  5
78D9
330
200
100
AcDbEntity
  8
轮廓线
100
AcDbLine
 10
65649.72820308556
 20
14630.97062922474
 30
0.0
 11
65649.68979202876
 21
14616.97068329384
 31
0.0
  0
CIRCLE
  5
78FF
330
200
100
AcDbEntity
  8
轮廓线
100
AcDbCircle
 10
66041.77222155746
 20
14623.97049726814
 30
0.0
 40
10.5
  0
LINE
  5
79A4
330
200
100
AcDbEntity
  8
0
100
AcDbLine
 10
65310.12621527567
 20
14648.81446229992
 30
0.0
 11
65654.29831564705
 21
14648.81446229992
 31
0.0
  0
LINE
  5
79A5
330
200
100
AcDbEntity
  8
0
100
AcDbLine
 10
65314.66126759521
 20
14643.06601634979
 30
0.0
 11
65649.76326332752
 21
14643.06601634979
 31
0.0
  0
ENDSEC
  0
SECTION
  2
OBJECTS
  0
DICTIONARY
  5
C
330
0
100
AcDbDictionary
281
     1
  3
ACAD_COLOR
350
31C
  3
ACAD_DETAILVIEWSTYLE
350
3E0
  3
ACAD_GROUP
350
D
  3
ACAD_LAYOUT
350
1A
  3
ACAD_MATERIAL
350
2F2
  3
ACAD_MLEADERSTYLE
350
341
  3
ACAD_MLINESTYLE
350
17
  3
ACAD_PLOTSETTINGS
350
19
  3
ACAD_PLOTSTYLENAME
350
E
  3
ACAD_SCALELIST
350
31F
  3
ACAD_SECTIONVIEWSTYLE
350
3E1
  3
ACAD_TABLESTYLE
350
31D
  3
ACAD_VISUALSTYLE
350
30B
  3
ACDB_RECOMPOSE_DATA
350
3DE
  3
ACDBHEADERROUNDTRIPXREC
350
7A22
  3
AcDbVariableDictionary
350
347
  0
DICTIONARY
  5
38E
330
2
100
AcDbDictionary
280
     1
281
     1
  3
ACAD_LAYERSTATES
360
38F
  0
DICTIONARY
  5
467B
330
200
100
AcDbDictionary
280
     1
281
     1
  3
ACAD_SORTENTS
360
467C
  0
DICTIONARY
  5
31C
102
{ACAD_REACTORS
330
C
102
}
330
C
100
AcDbDictionary
281
     1
  0
DICTIONARY
  5
3E0
102
{ACAD_REACTORS
330
C
102
}
330
C
100
AcDbDictionary
281
     1
  0
DICTIONARY
  5
D
102
{ACAD_REACTORS
330
C
102
}
330
C
100
AcDbDictionary
281
     1
  0
DICTIONARY
  5
1A
102
{ACAD_REACTORS
330
C
102
}
330
C
100
AcDbDictionary
281
     1
  3
Layout1
350
2EF
  3
Model
350
2EE
  0
DICTIONARY
  5
2F2
102
{ACAD_REACTORS
330
C
102
}
330
C
100
AcDbDictionary
281
     1
  3
ByBlock
350
2FB
  3
ByLayer
350
2F3
  3
Global
350
303
  0
DICTIONARY
  5
341
102
{ACAD_REACTORS
330
C
102
}
330
C
100
AcDbDictionary
281
     1
  3
Standard
350
342
  0
DICTIONARY
  5
17
102
{ACAD_REACTORS
330
C
102
}
330
C
100
AcDbDictionary
281
     1
  3
Standard
350
18
  0
DICTIONARY
  5
19
102
{ACAD_REACTORS
330
C
102
}
330
C
100
AcDbDictionary
281
     1
  0
ACDBDICTIONARYWDFLT
  5
E
102
{ACAD_REACTORS
330
C
102
}
330
C
100
AcDbDictionary
281
     1
  3
Normal
350
F
100
AcDbDictionaryWithDefault
340
F
  0
DICTIONARY
  5
31F
102
{ACAD_REACTORS
330
C
102
}
330
C
100
AcDbDictionary
281
     1
  3
A0
350
320
  3
A1
350
321
  3
A2
350
322
  3
A3
350
323
  3
A4
350
324
  3
A5
350
325
  3
A6
350
326
  3
A7
350
327
  3
A8
350
328
  3
A9
350
329
  3
B0
350
32A
  3
B1
350
32B
  3
B2
350
32C
  3
B3
350
32D
  3
B4
350
32E
  3
B5
350
32F
  3
B6
350
330
  3
B7
350
331
  3
B8
350
332
  3
B9
350
333
  3
C0
350
334
  3
C1
350
335
  3
C2
350
336
  3
C3
350
337
  3
C4
350
338
  3
C5
350
339
  3
C6
350
33A
  3
C7
350
33B
  3
C8
350
33C
  3
C9
350
33D
  3
D0
350
33E
  3
D1
350
33F
  3
D2
350
340
  0
DICTIONARY
  5
3E1
102
{ACAD_REACTORS
330
C
102
}
330
C
100
AcDbDictionary
281
     1
  0
DICTIONARY
  5
31D
102
{ACAD_REACTORS
330
C
102
}
330
C
100
AcDbDictionary
281
     1
  3
Standard
350
31E
  0
DICTIONARY
  5
30B
102
{ACAD_REACTORS
330
C
102
}
330
C
100
AcDbDictionary
281
     1
  3
2dWireframe
350
311
  3
3D Hidden
350
313
  3
3dWireframe
350
312
  3
Basic
350
310
  3
Brighten
350
317
  3
ColorChange
350
31B
  3
Conceptual
350
314
  3
Dim
350
316
  3
EdgeColorOff
350
39F
  3
Facepattern
350
31A
  3
Flat
350
30C
  3
FlatWithEdges
350
30D
  3
Gouraud
350
30E
  3
GouraudWithEdges
350
30F
  3
Hidden
350
39C
  3
JitterOff
350
39D
  3
Linepattern
350
319
  3
OverhangOff
350
39E
  3
Realistic
350
315
  3
Shaded
350
3A4
  3
Shaded with edges
350
3A3
  3
Shades of Gray
350
3A0
  3
Sketchy
350
3A1
  3
Thicken
350
318
  3
Wireframe
350
39B
  3
X-Ray
350
3A2
  0
XRECORD
  5
3DE
102
{ACAD_REACTORS
330
C
102
}
330
C
100
AcDbXrecord
280
     1
 90
        1
330
31E
  0
DICTIONARY
  5
7A22
102
{ACAD_REACTORS
330
C
102
}
330
C
100
AcDbDictionary
281
     1
  0
DICTIONARY
  5
347
102
{ACAD_REACTORS
330
C
102
}
330
C
100
AcDbDictionary
281
     1
  3
CANNOSCALE
350
34A
  3
CMLEADERSTYLE
350
349
  3
CTABLESTYLE
350
348
  3
XCLIPFRAME
350
3DF
  0
DICTIONARY
  5
38F
102
{ACAD_REACTORS
330
38E
102
}
330
38E
100
AcDbDictionary
281
     1
  0
SORTENTSTABLE
  5
467C
102
{ACAD_REACTORS
330
467B
102
}
330
467B
100
AcDbSortentsTable
330
200
331
399
  5
399
  0
LAYOUT
  5
2EF
102
{ACAD_REACTORS
330
1A
102
}
330
1A
100
AcDbPlotSettings
  1

  2
none_device
  4
ISO_A4_(297.00_x_210.00_MM)
  6

 40
0.0
 41
0.0
 42
0.0
 43
0.0
 44
297.0
 45
210.0
 46
0.0
 47
0.0
 48
0.0
 49
0.0
140
0.0
141
0.0
142
1.0
143
1.0
 70
     0
 72
     1
 73
     0
 74
     0
  7

 75
     0
147
1.0
 76
     0
 77
     2
 78
   300
148
0.0
149
0.0
100
AcDbLayout
  1
Layout1
 70
     1
 71
     1
 10
0.0
 20
0.0
 11
12.0
 21
9.0
 12
0.0
 22
0.0
 32
0.0
 14
1.000000000000000E+20
 24
1.000000000000000E+20
 34
1.000000000000000E+20
 15
-1.000000000000000E+20
 25
-1.000000000000000E+20
 35
-1.000000000000000E+20
146
0.0
 13
0.0
 23
0.0
 33
0.0
 16
1.0
 26
0.0
 36
0.0
 17
0.0
 27
1.0
 37
0.0
 76
     0
330
201
  0
LAYOUT
  5
2EE
102
{ACAD_REACTORS
330
1A
102
}
330
1A
100
AcDbPlotSettings
  1

  2
none_device
  4
ISO_A4_(297.00_x_210.00_MM)
  6

 40
0.0
 41
0.0
 42
0.0
 43
0.0
 44
297.0
 45
210.0
 46
0.0
 47
0.0
 48
0.0
 49
0.0
140
0.0
141
0.0
142
1.0
143
1.0
 70
  1024
 72
     1
 73
     0
 74
     0
  7

 75
     0
147
1.0
 76
     0
 77
     2
 78
   300
148
0.0
149
0.0
100
AcDbLayout
  1
Model
 70
     0
 71
     0
 10
0.0
 20
0.0
 11
297.0
 21
210.0
 12
0.0
 22
0.0
 32
0.0
 14
0.0
 24
0.0
 34
0.0
 15
0.0
 25
0.0
 35
0.0
146
0.0
 13
0.0
 23
0.0
 33
0.0
 16
1.0
 26
0.0
 36
0.0
 17
0.0
 27
1.0
 37
0.0
 76
     0
330
200
331
39A
  0
MATERIAL
  5
2FB
102
{ACAD_REACTORS
330
2F2
102
}
330
2F2
100
AcDbMaterial
  1
ByBlock
  2

 72
     0
 73
     2
 43
0.0008202099737533
 43
0.0
 43
0.0
 43
0.0
 43
0.0
 43
0.0008202099737533
 43
0.0
 43
0.0
 43
0.0
 43
0.0
 43
1.0
 43
0.0
 43
0.0
 43
0.0
 43
0.0
 43
1.0
 77
     0
 78
     2
 47
0.0008202099737533
 47
0.0
 47
0.0
 47
0.0
 47
0.0
 47
0.0008202099737533
 47
0.0
 47
0.0
 47
0.0
 47
0.0
 47
1.0
 47
0.0
 47
0.0
 47
0.0
 47
0.0
 47
1.0
171
     0
172
     2
 49
0.0008202099737533
 49
0.0
 49
0.0
 49
0.0
 49
0.0
 49
0.0008202099737533
 49
0.0
 49
0.0
 49
0.0
 49
0.0
 49
1.0
 49
0.0
 49
0.0
 49
0.0
 49
0.0
 49
1.0
175
     0
176
     2
142
0.0008202099737533
142
0.0
142
0.0
142
0.0
142
0.0
142
0.0008202099737533
142
0.0
142
0.0
142
0.0
142
0.0
142
1.0
142
0.0
142
0.0
142
0.0
142
0.0
142
1.0
179
     0
270
     2
144
0.0008202099737533
144
0.0
144
0.0
144
0.0
144
0.0
144
0.0008202099737533
144
0.0
144
0.0
144
0.0
144
0.0
144
1.0
144
0.0
144
0.0
144
0.0
144
0.0
144
1.0
274
     2
147
0.0008202099737533
147
0.0
147
0.0
147
0.0
147
0.0
147
0.0008202099737533
147
0.0
147
0.0
147
0.0
147
0.0
147
1.0
147
0.0
147
0.0
147
0.0
147
0.0
147
1.0
  0
MATERIAL
  5
2F3
102
{ACAD_REACTORS
330
2F2
102
}
330
2F2
100
AcDbMaterial
  1
ByLayer
  2

 72
     0
 73
     2
 43
0.0008202099737533
 43
0.0
 43
0.0
 43
0.0
 43
0.0
 43
0.0008202099737533
 43
0.0
 43
0.0
 43
0.0
 43
0.0
 43
1.0
 43
0.0
 43
0.0
 43
0.0
 43
0.0
 43
1.0
 77
     0
 78
     2
 47
0.0008202099737533
 47
0.0
 47
0.0
 47
0.0
 47
0.0
 47
0.0008202099737533
 47
0.0
 47
0.0
 47
0.0
 47
0.0
 47
1.0
 47
0.0
 47
0.0
 47
0.0
 47
0.0
 47
1.0
171
     0
172
     2
 49
0.0008202099737533
 49
0.0
 49
0.0
 49
0.0
 49
0.0
 49
0.0008202099737533
 49
0.0
 49
0.0
 49
0.0
 49
0.0
 49
1.0
 49
0.0
 49
0.0
 49
0.0
 49
0.0
 49
1.0
175
     0
176
     2
142
0.0008202099737533
142
0.0
142
0.0
142
0.0
142
0.0
142
0.0008202099737533
142
0.0
142
0.0
142
0.0
142
0.0
142
1.0
142
0.0
142
0.0
142
0.0
142
0.0
142
1.0
179
     0
270
     2
144
0.0008202099737533
144
0.0
144
0.0
144
0.0
144
0.0
144
0.0008202099737533
144
0.0
144
0.0
144
0.0
144
0.0
144
1.0
144
0.0
144
0.0
144
0.0
144
0.0
144
1.0
274
     2
147
0.0008202099737533
147
0.0
147
0.0
147
0.0
147
0.0
147
0.0008202099737533
147
0.0
147
0.0
147
0.0
147
0.0
147
1.0
147
0.0
147
0.0
147
0.0
147
0.0
147
1.0
  0
MATERIAL
  5
303
102
{ACAD_REACTORS
330
2F2
102
}
330
2F2
100
AcDbMaterial
  1
Global
  2

 72
     0
 73
     2
 43
0.0008202099737533
 43
0.0
 43
0.0
 43
0.0
 43
0.0
 43
0.0008202099737533
 43
0.0
 43
0.0
 43
0.0
 43
0.0
 43
1.0
 43
0.0
 43
0.0
 43
0.0
 43
0.0
 43
1.0
 77
     0
 78
     2
 47
0.0008202099737533
 47
0.0
 47
0.0
 47
0.0
 47
0.0
 47
0.0008202099737533
 47
0.0
 47
0.0
 47
0.0
 47
0.0
 47
1.0
 47
0.0
 47
0.0
 47
0.0
 47
0.0
 47
1.0
171
     0
172
     2
 49
0.0008202099737533
 49
0.0
 49
0.0
 49
0.0
 49
0.0
 49
0.0008202099737533
 49
0.0
 49
0.0
 49
0.0
 49
0.0
 49
1.0
 49
0.0
 49
0.0
 49
0.0
 49
0.0
 49
1.0
175
     0
176
     2
142
0.0008202099737533
142
0.0
142
0.0
142
0.0
142
0.0
142
0.0008202099737533
142
0.0
142
0.0
142
0.0
142
0.0
142
1.0
142
0.0
142
0.0
142
0.0
142
0.0
142
1.0
179
     0
270
     2
144
0.0008202099737533
144
0.0
144
0.0
144
0.0
144
0.0
144
0.0008202099737533
144
0.0
144
0.0
144
0.0
144
0.0
144
1.0
144
0.0
144
0.0
144
0.0
144
0.0
144
1.0
274
     2
147
0.0008202099737533
147
0.0
147
0.0
147
0.0
147
0.0
147
0.0008202099737533
147
0.0
147
0.0
147
0.0
147
0.0
147
1.0
147
0.0
147
0.0
147
0.0
147
0.0
147
1.0
  0
MLEADERSTYLE
  5
342
102
{ACAD_REACTORS
330
341
102
}
330
341
100
AcDbMLeaderStyle
170
     2
171
     1
172
     0
 90
        2
 40
0.0
 41
0.0
173
     1
 91
-1056964608
340
14
 92
       -2
290
     1
 42
2.0
291
     1
 43
0.36
  3
Standard
341
0
 44
4.0
300

342
11
174
     1
178
     6
175
     1
176
     0
 93
-1056964608
 45
4.0
292
     0
297
     0
 46
4.0
343
0
 94
-1056964608
 47
1.0
 49
1.0
140
1.0
293
     1
141
0.0
294
     1
177
     0
142
1.0
295
     0
296
     0
143
0.125
1001
ACAD_MLEADERVER
1070
     2
  0
MLINESTYLE
  5
18
102
{ACAD_REACTORS
330
17
102
}
330
17
100
AcDbMlineStyle
  2
STANDARD
 70
     0
  3

 62
   256
 51
90.0
 52
90.0
 71
     2
 49
0.5
 62
   256
  6
BYLAYER
 49
-0.5
 62
   256
  6
BYLAYER
  0
ACDBPLACEHOLDER
  5
F
102
{ACAD_REACTORS
330
E
102
}
330
E
  0
SCALE
  5
320
102
{ACAD_REACTORS
330
31F
102
}
330
31F
100
AcDbScale
 70
     0
300
1:1
140
1.0
141
1.0
290
     1
  0
SCALE
  5
321
102
{ACAD_REACTORS
330
31F
102
}
330
31F
100
AcDbScale
 70
     0
300
1:2
140
1.0
141
2.0
290
     0
  0
SCALE
  5
322
102
{ACAD_REACTORS
330
31F
102
}
330
31F
100
AcDbScale
 70
     0
300
1:4
140
1.0
141
4.0
290
     0
  0
SCALE
  5
323
102
{ACAD_REACTORS
330
31F
102
}
330
31F
100
AcDbScale
 70
     0
300
1:5
140
1.0
141
5.0
290
     0
  0
SCALE
  5
324
102
{ACAD_REACTORS
330
31F
102
}
330
31F
100
AcDbScale
 70
     0
300
1:8
140
1.0
141
8.0
290
     0
  0
SCALE
  5
325
102
{ACAD_REACTORS
330
31F
102
}
330
31F
100
AcDbScale
 70
     0
300
1:10
140
1.0
141
10.0
290
     0
  0
SCALE
  5
326
102
{ACAD_REACTORS
330
31F
102
}
330
31F
100
AcDbScale
 70
     0
300
1:16
140
1.0
141
16.0
290
     0
  0
SCALE
  5
327
102
{ACAD_REACTORS
330
31F
102
}
330
31F
100
AcDbScale
 70
     0
300
1:20
140
1.0
141
20.0
290
     0
  0
SCALE
  5
328
102
{ACAD_REACTORS
330
31F
102
}
330
31F
100
AcDbScale
 70
     0
300
1:30
140
1.0
141
30.0
290
     0
  0
SCALE
  5
329
102
{ACAD_REACTORS
330
31F
102
}
330
31F
100
AcDbScale
 70
     0
300
1:40
140
1.0
141
40.0
290
     0
  0
SCALE
  5
32A
102
{ACAD_REACTORS
330
31F
102
}
330
31F
100
AcDbScale
 70
     0
300
1:50
140
1.0
141
50.0
290
     0
  0
SCALE
  5
32B
102
{ACAD_REACTORS
330
31F
102
}
330
31F
100
AcDbScale
 70
     0
300
1:100
140
1.0
141
100.0
290
     0
  0
SCALE
  5
32C
102
{ACAD_REACTORS
330
31F
102
}
330
31F
100
AcDbScale
 70
     0
300
2:1
140
2.0
141
1.0
290
     0
  0
SCALE
  5
32D
102
{ACAD_REACTORS
330
31F
102
}
330
31F
100
AcDbScale
 70
     0
300
4:1
140
4.0
141
1.0
290
     0
  0
SCALE
  5
32E
102
{ACAD_REACTORS
330
31F
102
}
330
31F
100
AcDbScale
 70
     0
300
8:1
140
8.0
141
1.0
290
     0
  0
SCALE
  5
32F
102
{ACAD_REACTORS
330
31F
102
}
330
31F
100
AcDbScale
 70
     0
300
10:1
140
10.0
141
1.0
290
     0
  0
SCALE
  5
330
102
{ACAD_REACTORS
330
31F
102
}
330
31F
100
AcDbScale
 70
     0
300
100:1
140
100.0
141
1.0
290
     0
  0
SCALE
  5
331
102
{ACAD_REACTORS
330
31F
102
}
330
31F
100
AcDbScale
 70
     0
300
1/128" = 1'-0"
140
0.0078125
141
12.0
290
     0
  0
SCALE
  5
332
102
{ACAD_REACTORS
330
31F
102
}
330
31F
100
AcDbScale
 70
     0
300
1/64" = 1'-0"
140
0.015625
141
12.0
290
     0
  0
SCALE
  5
333
102
{ACAD_REACTORS
330
31F
102
}
330
31F
100
AcDbScale
 70
     0
300
1/32" = 1'-0"
140
0.03125
141
12.0
290
     0
  0
SCALE
  5
334
102
{ACAD_REACTORS
330
31F
102
}
330
31F
100
AcDbScale
 70
     0
300
1/16" = 1'-0"
140
0.0625
141
12.0
290
     0
  0
SCALE
  5
335
102
{ACAD_REACTORS
330
31F
102
}
330
31F
100
AcDbScale
 70
     0
300
3/32" = 1'-0"
140
0.09375
141
12.0
290
     0
  0
SCALE
  5
336
102
{ACAD_REACTORS
330
31F
102
}
330
31F
100
AcDbScale
 70
     0
300
1/8" = 1'-0"
140
0.125
141
12.0
290
     0
  0
SCALE
  5
337
102
{ACAD_REACTORS
330
31F
102
}
330
31F
100
AcDbScale
 70
     0
300
3/16" = 1'-0"
140
0.1875
141
12.0
290
     0
  0
SCALE
  5
338
102
{ACAD_REACTORS
330
31F
102
}
330
31F
100
AcDbScale
 70
     0
300
1/4" = 1'-0"
140
0.25
141
12.0
290
     0
  0
SCALE
  5
339
102
{ACAD_REACTORS
330
31F
102
}
330
31F
100
AcDbScale
 70
     0
300
3/8" = 1'-0"
140
0.375
141
12.0
290
     0
  0
SCALE
  5
33A
102
{ACAD_REACTORS
330
31F
102
}
330
31F
100
AcDbScale
 70
     0
300
1/2" = 1'-0"
140
0.5
141
12.0
290
     0
  0
SCALE
  5
33B
102
{ACAD_REACTORS
330
31F
102
}
330
31F
100
AcDbScale
 70
     0
300
3/4" = 1'-0"
140
0.75
141
12.0
290
     0
  0
SCALE
  5
33C
102
{ACAD_REACTORS
330
31F
102
}
330
31F
100
AcDbScale
 70
     0
300
1" = 1'-0"
140
1.0
141
12.0
290
     0
  0
SCALE
  5
33D
102
{ACAD_REACTORS
330
31F
102
}
330
31F
100
AcDbScale
 70
     0
300
1-1/2" = 1'-0"
140
1.5
141
12.0
290
     0
  0
SCALE
  5
33E
102
{ACAD_REACTORS
330
31F
102
}
330
31F
100
AcDbScale
 70
     0
300
3" = 1'-0"
140
3.0
141
12.0
290
     0
  0
SCALE
  5
33F
102
{ACAD_REACTORS
330
31F
102
}
330
31F
100
AcDbScale
 70
     0
300
6" = 1'-0"
140
6.0
141
12.0
290
     0
  0
SCALE
  5
340
102
{ACAD_REACTORS
330
31F
102
}
330
31F
100
AcDbScale
 70
     0
300
1'-0" = 1'-0"
140
12.0
141
12.0
290
     0
  0
TABLESTYLE
  5
31E
102
{ACAD_XDICTIONARY
360
3A8
102
}
102
{ACAD_REACTORS
330
31D
102
}
330
31D
100
AcDbTableStyle
  3
Standard
 70
     0
 71
     0
 40
1.5
 41
1.5
280
     0
281
     0
  7
STANDARD
140
4.5
170
     2
 62
     0
 63
   257
283
     1
274
    -2
284
     1
 64
     0
275
    -2
285
     1
 65
     0
276
    -2
286
     1
 66
     0
277
    -2
287
     1
 67
     0
278
    -2
288
     1
 68
     0
279
    -2
289
     1
 69
     0
  7
STANDARD
140
6.0
170
     5
 62
     0
 63
   257
283
     1
274
    -2
284
     1
 64
     0
275
    -2
285
     1
 65
     0
276
    -2
286
     1
 66
     0
277
    -2
287
     1
 67
     0
278
    -2
288
     1
 68
     0
279
    -2
289
     1
 69
     0
  7
STANDARD
140
4.5
170
     5
 62
     0
 63
   257
283
     1
274
    -2
284
     1
 64
     0
275
    -2
285
     1
 65
     0
276
    -2
286
     1
 66
     0
277
    -2
287
     1
 67
     0
278
    -2
288
     1
 68
     0
279
    -2
289
     1
 69
     0
  0
VISUALSTYLE
  5
311
102
{ACAD_XDICTIONARY
360
3AA
102
}
102
{ACAD_REACTORS
330
30B
102
}
330
30B
100
AcDbVisualStyle
  2
2dWireframe
 70
     4
 71
     0
 72
     2
 73
     0
 90
        0
 40
-0.6
 41
-30.0
 62
     5
 63
     7
421
 16777215
 74
     1
 91
        4
 64
     7
 65
   257
 75
     1
175
     1
 42
1.0
 92
        0
 66
   257
 43
1.0
 76
     1
 77
     6
 78
     2
 67
     7
 79
     5
170
     0
171
     0
290
     0
174
     0
 93
        1
 44
0.0
173
     0
291
     0
 45
0.0
1001
ACAD
1000
AcDbSavedByObjectVersion
1070
     0
  0
VISUALSTYLE
  5
313
102
{ACAD_XDICTIONARY
360
3AC
102
}
102
{ACAD_REACTORS
330
30B
102
}
330
30B
100
AcDbVisualStyle
  2
3D Hidden
 70
     6
 71
     1
 72
     2
 73
     2
 90
        0
 40
-0.6
 41
-30.0
 62
     5
 63
     7
421
 16777215
 74
     2
 91
        2
 64
     7
 65
   257
 75
     2
175
     1
 42
40.0
 92
        0
 66
   257
 43
1.0
 76
     1
 77
     6
 78
     2
 67
     7
 79
     3
170
     0
171
     0
290
     0
174
     0
 93
        1
 44
0.0
173
     0
291
     0
 45
0.0
1001
ACAD
1000
AcDbSavedByObjectVersion
1070
     0
  0
VISUALSTYLE
  5
312
102
{ACAD_XDICTIONARY
360
3AE
102
}
102
{ACAD_REACTORS
330
30B
102
}
330
30B
100
AcDbVisualStyle
  2
3dWireframe
 70
     5
 71
     0
 72
     2
 73
     0
 90
        0
 40
-0.6
 41
-30.0
 62
     5
 63
     7
421
 16777215
 74
     1
 91
        4
 64
     7
 65
   257
 75
     1
175
     1
 42
1.0
 92
        0
 66
   257
 43
1.0
 76
     1
 77
     6
 78
     2
 67
     7
 79
     5
170
     0
171
     0
290
     0
174
     0
 93
        1
 44
0.0
173
     0
291
     0
 45
0.0
1001
ACAD
1000
AcDbSavedByObjectVersion
1070
     0
  0
VISUALSTYLE
  5
310
102
{ACAD_XDICTIONARY
360
3B0
102
}
102
{ACAD_REACTORS
330
30B
102
}
330
30B
100
AcDbVisualStyle
  2
Basic
 70
     7
 71
     1
 72
     0
 73
     1
 90
        0
 40
-0.6
 41
-30.0
 62
     5
 63
     7
421
 16777215
 74
     0
 91
        4
 64
     7
 65
   257
 75
     1
175
     1
 42
1.0
 92
        8
 66
     7
 43
1.0
 76
     1
 77
     6
 78
     2
 67
     7
 79
     5
170
     0
171
     0
290
     0
174
     0
 93
        1
 44
0.0
173
     0
291
     1
 45
0.0
1001
ACAD
1000
AcDbSavedByObjectVersion
1070
     0
  0
VISUALSTYLE
  5
317
102
{ACAD_XDICTIONARY
360
3B2
102
}
102
{ACAD_REACTORS
330
30B
102
}
330
30B
100
AcDbVisualStyle
  2
Brighten
 70
    12
 71
     2
 72
     2
 73
     0
 90
        0
 40
-0.6
 41
-30.0
 62
     5
 63
     7
421
 16777215
 74
     1
 91
        4
 64
     7
 65
   257
 75
     1
175
     1
 42
1.0
 92
        8
 66
     7
 43
1.0
 76
     1
 77
     6
 78
     2
 67
     7
 79
     5
170
     0
171
     0
290
     0
174
     0
 93
        1
 44
50.0
173
     0
291
     1
 45
0.0
1001
ACAD
1000
AcDbSavedByObjectVersion
1070
     0
  0
VISUALSTYLE
  5
31B
102
{ACAD_XDICTIONARY
360
3B4
102
}
102
{ACAD_REACTORS
330
30B
102
}
330
30B
100
AcDbVisualStyle
  2
ColorChange
 70
    16
 71
     2
 72
     2
 73
     3
 90
        0
 40
-0.6
 41
-30.0
 62
     5
 63
     8
421
  8421504
 74
     1
 91
        4
 64
     7
 65
   257
 75
     1
175
     1
 42
1.0
 92
        8
 66
     8
424
  8421504
 43
1.0
 76
     1
 77
     6
 78
     2
 67
     7
 79
     5
170
     0
171
     0
290
     0
174
     0
 93
        1
 44
0.0
173
     0
291
     1
 45
0.0
1001
ACAD
1000
AcDbSavedByObjectVersion
1070
     0
  0
VISUALSTYLE
  5
314
102
{ACAD_XDICTIONARY
360
3B6
102
}
102
{ACAD_REACTORS
330
30B
102
}
330
30B
100
AcDbVisualStyle
  2
Conceptual
 70
     9
 71
     3
 72
     2
 73
     0
 90
        0
 40
-0.6
 41
-30.0
 62
     5
 63
     7
421
 16777215
 74
     2
 91
        2
 64
     7
 65
   257
 75
     1
175
     1
 42
40.0
 92
        8
 66
     7
 43
1.0
 76
     1
 77
     6
 78
     2
 67
     7
 79
     3
170
     0
171
     0
290
     0
174
     0
 93
        1
 44
0.0
173
     0
291
     0
 45
0.0
1001
ACAD
1000
AcDbSavedByObjectVersion
1070
     0
  0
VISUALSTYLE
  5
316
102
{ACAD_XDICTIONARY
360
3B8
102
}
102
{ACAD_REACTORS
330
30B
102
}
330
30B
100
AcDbVisualStyle
  2
Dim
 70
    11
 71
     2
 72
     2
 73
     0
 90
        0
 40
-0.6
 41
-30.0
 62
     5
 63
     7
421
 16777215
 74
     1
 91
        4
 64
     7
 65
   257
 75
     1
175
     1
 42
1.0
 92
        8
 66
     7
 43
1.0
 76
     1
 77
     6
 78
     2
 67
     7
 79
     5
170
     0
171
     0
290
     0
174
     0
 93
        1
 44
-50.0
173
     0
291
     1
 45
0.0
1001
ACAD
1000
AcDbSavedByObjectVersion
1070
     0
  0
VISUALSTYLE
  5
39F
102
{ACAD_XDICTIONARY
360
3D2
102
}
102
{ACAD_REACTORS
330
30B
102
}
330
30B
100
AcDbVisualStyle
  2
EdgeColorOff
 70
    22
 71
     2
 72
     2
 73
     0
 90
        0
 40
-0.6
 41
-30.0
 62
     5
 63
     7
421
 16777215
 74
     1
 91
        4
 64
     7
 65
   257
 75
     1
175
     1
 42
1.0
 92
        8
 66
     7
 43
1.0
 76
     1
 77
     6
 78
     2
 67
     7
 79
     5
170
     0
171
     0
290
     0
174
     0
 93
        1
 44
0.0
173
     0
291
     1
 45
0.0
1001
ACAD
1000
AcDbSavedByObjectVersion
1070
     0
  0
VISUALSTYLE
  5
31A
102
{ACAD_XDICTIONARY
360
3BA
102
}
102
{ACAD_REACTORS
330
30B
102
}
330
30B
100
AcDbVisualStyle
  2
Facepattern
 70
    15
 71
     2
 72
     2
 73
     0
 90
        0
 40
-0.6
 41
-30.0
 62
     5
 63
     7
421
 16777215
 74
     1
 91
        4
 64
     7
 65
   257
 75
     1
175
     1
 42
1.0
 92
        8
 66
     7
 43
1.0
 76
     1
 77
     6
 78
     2
 67
     7
 79
     5
170
     0
171
     0
290
     0
174
     0
 93
        1
 44
0.0
173
     0
291
     1
 45
0.0
1001
ACAD
1000
AcDbSavedByObjectVersion
1070
     0
  0
VISUALSTYLE
  5
30C
102
{ACAD_XDICTIONARY
360
3BC
102
}
102
{ACAD_REACTORS
330
30B
102
}
330
30B
100
AcDbVisualStyle
  2
Flat
 70
     0
 71
     2
 72
     1
 73
     1
 90
        2
 40
-0.6
 41
30.0
 62
     5
 63
     7
421
 16777215
 74
     0
 91
        4
 64
     7
 65
   257
 75
     1
175
     1
 42
1.0
 92
        8
 66
     7
 43
1.0
 76
     1
 77
     6
 78
     2
 67
     7
 79
     5
170
     0
171
     0
290
     0
174
     0
 93
       13
 44
0.0
173
     0
291
     1
 45
0.0
1001
ACAD
1000
AcDbSavedByObjectVersion
1070
     0
  0
VISUALSTYLE
  5
30D
102
{ACAD_XDICTIONARY
360
3BE
102
}
102
{ACAD_REACTORS
330
30B
102
}
330
30B
100
AcDbVisualStyle
  2
FlatWithEdges
 70
     1
 71
     2
 72
     1
 73
     1
 90
        2
 40
-0.6
 41
30.0
 62
     5
 63
     7
421
 16777215
 74
     1
 91
        4
 64
     7
 65
   257
 75
     1
175
     1
 42
1.0
 92
        0
 66
   257
 43
1.0
 76
     1
 77
     6
 78
     2
 67
     7
 79
     5
170
     0
171
     0
290
     0
174
     0
 93
       13
 44
0.0
173
     0
291
     1
 45
0.0
1001
ACAD
1000
AcDbSavedByObjectVersion
1070
     0
  0
VISUALSTYLE
  5
30E
102
{ACAD_XDICTIONARY
360
3C0
102
}
102
{ACAD_REACTORS
330
30B
102
}
330
30B
100
AcDbVisualStyle
  2
Gouraud
 70
     2
 71
     2
 72
     2
 73
     1
 90
        2
 40
-0.6
 41
30.0
 62
     5
 63
     7
421
 16777215
 74
     0
 91
        4
 64
     7
 65
   257
 75
     1
175
     1
 42
1.0
 92
        0
 66
     7
 43
1.0
 76
     1
 77
     6
 78
     2
 67
     7
 79
     5
170
     0
171
     0
290
     0
174
     0
 93
       13
 44
0.0
173
     0
291
     1
 45
0.0
1001
ACAD
1000
AcDbSavedByObjectVersion
1070
     0
  0
VISUALSTYLE
  5
30F
102
{ACAD_XDICTIONARY
360
3C2
102
}
102
{ACAD_REACTORS
330
30B
102
}
330
30B
100
AcDbVisualStyle
  2
GouraudWithEdges
 70
     3
 71
     2
 72
     2
 73
     1
 90
        2
 40
-0.6
 41
30.0
 62
     5
 63
     7
421
 16777215
 74
     1
 91
        4
 64
     7
 65
   257
 75
     1
175
     1
 42
1.0
 92
        0
 66
   257
 43
1.0
 76
     1
 77
     6
 78
     2
 67
     7
 79
     5
170
     0
171
     0
290
     0
174
     0
 93
       13
 44
0.0
173
     0
291
     1
 45
0.0
1001
ACAD
1000
AcDbSavedByObjectVersion
1070
     0
  0
VISUALSTYLE
  5
39C
102
{ACAD_XDICTIONARY
360
3CC
102
}
102
{ACAD_REACTORS
330
30B
102
}
330
30B
100
AcDbVisualStyle
  2
Hidden
 70
     6
 71
     1
 72
     2
 73
     2
 90
        0
 40
-0.6
 41
-30.0
 62
     5
 63
     7
421
 16777215
 74
     2
 91
        2
 64
     7
 65
   257
 75
     2
175
     1
 42
40.0
 92
        0
 66
   257
 43
1.0
 76
     1
 77
     6
 78
     2
 67
     7
 79
     3
170
     0
171
     0
290
     0
174
     0
 93
        1
 44
0.0
173
     0
291
     0
 45
0.0
1001
ACAD
1000
AcDbSavedByObjectVersion
1070
     0
  0
VISUALSTYLE
  5
39D
102
{ACAD_XDICTIONARY
360
3CE
102
}
102
{ACAD_REACTORS
330
30B
102
}
330
30B
100
AcDbVisualStyle
  2
JitterOff
 70
    20
 71
     2
 72
     2
 73
     0
 90
        0
 40
-0.6
 41
-30.0
 62
     5
 63
     7
421
 16777215
 74
     1
 91
        4
 64
     7
 65
   257
 75
     1
175
     1
 42
1.0
 92
       10
 66
     7
 43
1.0
 76
     1
 77
     6
 78
     2
 67
     7
 79
     5
170
     0
171
     0
290
     0
174
     0
 93
        1
 44
0.0
173
     0
291
     1
 45
0.0
1001
ACAD
1000
AcDbSavedByObjectVersion
1070
     0
  0
VISUALSTYLE
  5
319
102
{ACAD_XDICTIONARY
360
3C4
102
}
102
{ACAD_REACTORS
330
30B
102
}
330
30B
100
AcDbVisualStyle
  2
Linepattern
 70
    14
 71
     2
 72
     2
 73
     0
 90
        0
 40
-0.6
 41
-30.0
 62
     5
 63
     7
421
 16777215
 74
     1
 91
        4
 64
     7
 65
   257
 75
     7
175
     7
 42
1.0
 92
        8
 66
     7
 43
1.0
 76
     1
 77
     6
 78
     2
 67
     7
 79
     5
170
     0
171
     0
290
     0
174
     0
 93
        1
 44
0.0
173
     0
291
     1
 45
0.0
1001
ACAD
1000
AcDbSavedByObjectVersion
1070
     0
  0
VISUALSTYLE
  5
39E
102
{ACAD_XDICTIONARY
360
3D0
102
}
102
{ACAD_REACTORS
330
30B
102
}
330
30B
100
AcDbVisualStyle
  2
OverhangOff
 70
    21
 71
     2
 72
     2
 73
     0
 90
        0
 40
-0.6
 41
-30.0
 62
     5
 63
     7
421
 16777215
 74
     1
 91
        4
 64
     7
 65
   257
 75
     1
175
     1
 42
1.0
 92
        9
 66
     7
 43
1.0
 76
     1
 77
     6
 78
     2
 67
     7
 79
     5
170
     0
171
     0
290
     0
174
     0
 93
        1
 44
0.0
173
     0
291
     1
 45
0.0
1001
ACAD
1000
AcDbSavedByObjectVersion
1070
     0
  0
VISUALSTYLE
  5
315
102
{ACAD_XDICTIONARY
360
3C6
102
}
102
{ACAD_REACTORS
330
30B
102
}
330
30B
100
AcDbVisualStyle
  2
Realistic
 70
     8
 71
     2
 72
     2
 73
     0
 90
        0
 40
-0.6
 41
-30.0
 62
     5
 63
     7
421
 16777215
 74
     1
 91
        0
 64
     7
 65
   257
 75
     1
175
     1
 42
1.0
 92
        8
 66
     8
424
  7895160
 43
1.0
 76
     1
 77
     6
 78
     2
 67
     7
 79
     5
170
     0
171
     0
290
     0
174
     0
 93
       13
 44
0.0
173
     0
291
     0
 45
0.0
1001
ACAD
1000
AcDbSavedByObjectVersion
1070
     0
  0
VISUALSTYLE
  5
3A4
102
{ACAD_XDICTIONARY
360
3DC
102
}
102
{ACAD_REACTORS
330
30B
102
}
330
30B
100
AcDbVisualStyle
  2
Shaded
 70
    27
 71
     2
 72
     2
 73
     1
 90
        2
 40
-0.6
 41
30.0
 62
     5
 63
     7
421
 16777215
 74
     0
 91
        4
 64
     7
 65
   257
 75
     1
175
     1
 42
1.0
 92
        8
 66
   257
 43
1.0
 76
     1
 77
     6
 78
     2
 67
     8
425
  7895160
 79
     3
170
     0
171
     0
290
     0
174
     0
 93
        5
 44
0.0
173
     0
291
     0
 45
0.0
1001
ACAD
1000
AcDbSavedByObjectVersion
1070
     0
  0
VISUALSTYLE
  5
3A3
102
{ACAD_XDICTIONARY
360
3DA
102
}
102
{ACAD_REACTORS
330
30B
102
}
330
30B
100
AcDbVisualStyle
  2
Shaded with edges
 70
    26
 71
     2
 72
     2
 73
     1
 90
        2
 40
-0.6
 41
30.0
 62
     5
 63
     7
421
 16777215
 74
     1
 91
       10
 64
     7
 65
   257
 75
     2
175
     1
 42
1.0
 92
        8
 66
   257
 43
1.0
 76
     1
 77
     6
 78
     2
 67
     7
 79
     3
170
     0
171
     0
290
     0
174
     0
 93
        5
 44
0.0
173
     0
291
     0
 45
0.0
1001
ACAD
1000
AcDbSavedByObjectVersion
1070
     0
  0
VISUALSTYLE
  5
3A0
102
{ACAD_XDICTIONARY
360
3D4
102
}
102
{ACAD_REACTORS
330
30B
102
}
330
30B
100
AcDbVisualStyle
  2
Shades of Gray
 70
    23
 71
     2
 72
     2
 73
     3
 90
        0
 40
-0.6
 41
-30.0
 62
     5
 63
     7
421
 16777215
 74
     2
 91
        2
 64
     7
 65
     7
 75
     1
175
     1
 42
40.0
 92
        8
 66
     7
 43
1.0
 76
     1
 77
     6
 78
     2
 67
     7
 79
     3
170
     0
171
     0
290
     0
174
     0
 93
        1
 44
0.0
173
     0
291
     0
 45
0.0
1001
ACAD
1000
AcDbSavedByObjectVersion
1070
     0
  0
VISUALSTYLE
  5
3A1
102
{ACAD_XDICTIONARY
360
3D6
102
}
102
{ACAD_REACTORS
330
30B
102
}
330
30B
100
AcDbVisualStyle
  2
Sketchy
 70
    24
 71
     1
 72
     2
 73
     2
 90
        0
 40
-0.6
 41
-30.0
 62
     5
 63
     7
421
 16777215
 74
     2
 91
        2
 64
     7
 65
     7
 75
     1
175
     1
 42
40.0
 92
       11
 66
     7
 43
1.0
 76
     1
 77
     6
 78
     2
 67
     7
 79
     6
170
     0
171
     0
290
     0
174
     0
 93
        1
 44
0.0
173
     0
291
     0
 45
0.0
1001
ACAD
1000
AcDbSavedByObjectVersion
1070
     0
  0
VISUALSTYLE
  5
318
102
{ACAD_XDICTIONARY
360
3C8
102
}
102
{ACAD_REACTORS
330
30B
102
}
330
30B
100
AcDbVisualStyle
  2
Thicken
 70
    13
 71
     2
 72
     2
 73
     0
 90
        0
 40
-0.6
 41
-30.0
 62
     5
 63
     7
421
 16777215
 74
     1
 91
        4
 64
     7
 65
   257
 75
     1
175
     1
 42
1.0
 92
       12
 66
     7
 43
1.0
 76
     1
 77
     6
 78
     2
 67
     7
 79
     5
170
     0
171
     0
290
     0
174
     0
 93
        1
 44
0.0
173
     0
291
     1
 45
0.0
1001
ACAD
1000
AcDbSavedByObjectVersion
1070
     0
  0
VISUALSTYLE
  5
39B
102
{ACAD_XDICTIONARY
360
3CA
102
}
102
{ACAD_REACTORS
330
30B
102
}
330
30B
100
AcDbVisualStyle
  2
Wireframe
 70
     5
 71
     0
 72
     2
 73
     0
 90
        0
 40
-0.6
 41
-30.0
 62
     5
 63
     7
421
 16777215
 74
     1
 91
        4
 64
     7
 65
   257
 75
     1
175
     1
 42
1.0
 92
        0
 66
   257
 43
1.0
 76
     1
 77
     6
 78
     2
 67
     7
 79
     3
170
     0
171
     0
290
     0
174
     0
 93
        1
 44
0.0
173
     0
291
     0
 45
0.0
1001
ACAD
1000
AcDbSavedByObjectVersion
1070
     0
  0
VISUALSTYLE
  5
3A2
102
{ACAD_XDICTIONARY
360
3D8
102
}
102
{ACAD_REACTORS
330
30B
102
}
330
30B
100
AcDbVisualStyle
  2
X-Ray
 70
    25
 71
     2
 72
     2
 73
     1
 90
        1
 40
0.5
 41
-30.0
 62
     5
 63
     7
421
 16777215
 74
     1
 91
        0
 64
     7
 65
   257
 75
     1
175
     1
 42
1.0
 92
        8
 66
     7
 43
1.0
 76
     1
 77
     6
 78
     2
 67
     7
 79
     3
170
     0
171
     0
290
     0
174
     0
 93
       13
 44
0.0
173
     0
291
     0
 45
0.0
1001
ACAD
1000
AcDbSavedByObjectVersion
1070
     0
  0
DICTIONARYVAR
  5
34A
102
{ACAD_REACTORS
330
347
102
}
330
347
100
DictionaryVariables
280
     0
  1
1:1
  0
DICTIONARYVAR
  5
349
102
{ACAD_REACTORS
330
347
102
}
330
347
100
DictionaryVariables
280
     0
  1
STANDARD
  0
DICTIONARYVAR
  5
348
102
{ACAD_REACTORS
330
347
102
}
330
347
100
DictionaryVariables
280
     0
  1
STANDARD
  0
DICTIONARYVAR
  5
3DF
102
{ACAD_REACTORS
330
347
102
}
330
347
100
DictionaryVariables
280
     0
  1
0
  0
DICTIONARY
  5
3A8
330
31E
100
AcDbDictionary
280
     1
281
     1
  3
ACAD_ROUNDTRIP_2008_TABLESTYLE_CELLSTYLEMAP
360
7A24
  3
ACAD_XREC_ROUNDTRIP
360
7A23
  0
DICTIONARY
  5
3AA
330
311
100
AcDbDictionary
280
     1
281
     1
  3
ACAD_XREC_ROUNDTRIP
360
3AB
  0
DICTIONARY
  5
3AC
330
313
100
AcDbDictionary
280
     1
281
     1
  3
ACAD_XREC_ROUNDTRIP
360
3AD
  0
DICTIONARY
  5
3AE
330
312
100
AcDbDictionary
280
     1
281
     1
  3
ACAD_XREC_ROUNDTRIP
360
3AF
  0
DICTIONARY
  5
3B0
330
310
100
AcDbDictionary
280
     1
281
     1
  3
ACAD_XREC_ROUNDTRIP
360
3B1
  0
DICTIONARY
  5
3B2
330
317
100
AcDbDictionary
280
     1
281
     1
  3
ACAD_XREC_ROUNDTRIP
360
3B3
  0
DICTIONARY
  5
3B4
330
31B
100
AcDbDictionary
280
     1
281
     1
  3
ACAD_XREC_ROUNDTRIP
360
3B5
  0
DICTIONARY
  5
3B6
330
314
100
AcDbDictionary
280
     1
281
     1
  3
ACAD_XREC_ROUNDTRIP
360
3B7
  0
DICTIONARY
  5
3B8
330
316
100
AcDbDictionary
280
     1
281
     1
  3
ACAD_XREC_ROUNDTRIP
360
3B9
  0
DICTIONARY
  5
3D2
330
39F
100
AcDbDictionary
280
     1
281
     1
  3
ACAD_XREC_ROUNDTRIP
360
3D3
  0
DICTIONARY
  5
3BA
330
31A
100
AcDbDictionary
280
     1
281
     1
  3
ACAD_XREC_ROUNDTRIP
360
3BB
  0
DICTIONARY
  5
3BC
330
30C
100
AcDbDictionary
280
     1
281
     1
  3
ACAD_XREC_ROUNDTRIP
360
3BD
  0
DICTIONARY
  5
3BE
330
30D
100
AcDbDictionary
280
     1
281
     1
  3
ACAD_XREC_ROUNDTRIP
360
3BF
  0
DICTIONARY
  5
3C0
330
30E
100
AcDbDictionary
280
     1
281
     1
  3
ACAD_XREC_ROUNDTRIP
360
3C1
  0
DICTIONARY
  5
3C2
330
30F
100
AcDbDictionary
280
     1
281
     1
  3
ACAD_XREC_ROUNDTRIP
360
3C3
  0
DICTIONARY
  5
3CC
330
39C
100
AcDbDictionary
280
     1
281
     1
  3
ACAD_XREC_ROUNDTRIP
360
3CD
  0
DICTIONARY
  5
3CE
330
39D
100
AcDbDictionary
280
     1
281
     1
  3
ACAD_XREC_ROUNDTRIP
360
3CF
  0
DICTIONARY
  5
3C4
330
319
100
AcDbDictionary
280
     1
281
     1
  3
ACAD_XREC_ROUNDTRIP
360
3C5
  0
DICTIONARY
  5
3D0
330
39E
100
AcDbDictionary
280
     1
281
     1
  3
ACAD_XREC_ROUNDTRIP
360
3D1
  0
DICTIONARY
  5
3C6
330
315
100
AcDbDictionary
280
     1
281
     1
  3
ACAD_XREC_ROUNDTRIP
360
3C7
  0
DICTIONARY
  5
3DC
330
3A4
100
AcDbDictionary
280
     1
281
     1
  3
ACAD_XREC_ROUNDTRIP
360
3DD
  0
DICTIONARY
  5
3DA
330
3A3
100
AcDbDictionary
280
     1
281
     1
  3
ACAD_XREC_ROUNDTRIP
360
3DB
  0
DICTIONARY
  5
3D4
330
3A0
100
AcDbDictionary
280
     1
281
     1
  3
ACAD_XREC_ROUNDTRIP
360
3D5
  0
DICTIONARY
  5
3D6
330
3A1
100
AcDbDictionary
280
     1
281
     1
  3
ACAD_XREC_ROUNDTRIP
360
3D7
  0
DICTIONARY
  5
3C8
330
318
100
AcDbDictionary
280
     1
281
     1
  3
ACAD_XREC_ROUNDTRIP
360
3C9
  0
DICTIONARY
  5
3CA
330
39B
100
AcDbDictionary
280
     1
281
     1
  3
ACAD_XREC_ROUNDTRIP
360
3CB
  0
DICTIONARY
  5
3D8
330
3A2
100
AcDbDictionary
280
     1
281
     1
  3
ACAD_XREC_ROUNDTRIP
360
3D9
  0
CELLSTYLEMAP
  5
7A24
102
{ACAD_REACTORS
330
3A8
102
}
330
3A8
100
AcDbCellStyleMap
 90
        3
300
CELLSTYLE
  1
TABLEFORMAT_BEGIN
 90
        5
170
     1
 91
        0
 92
        0
 62
   257
 93
        1
300
CONTENTFORMAT
  1
CONTENTFORMAT_BEGIN
 90
        0
 91
        0
 92
      512
 93
        0
300

 40
0.0
140
1.0
 94
        5
 62
     0
340
11
144
6.0
309
CONTENTFORMAT_END
171
     1
301
MARGIN
  1
CELLMARGIN_BEGIN
 40
1.5
 40
1.5
 40
1.5
 40
1.5
 40
4.5
 40
4.5
309
CELLMARGIN_END
 94
        6
 95
        1
302
GRIDFORMAT
  1
GRIDFORMAT_BEGIN
 90
        0
 91
        1
 62
     0
 92
       -2
340
0
 93
        0
 40
1.125
309
GRIDFORMAT_END
 95
        2
302
GRIDFORMAT
  1
GRIDFORMAT_BEGIN
 90
        0
 91
        1
 62
     0
 92
       -2
340
0
 93
        0
 40
1.125
309
GRIDFORMAT_END
 95
        4
302
GRIDFORMAT
  1
GRIDFORMAT_BEGIN
 90
        0
 91
        1
 62
     0
 92
       -2
340
0
 93
        0
 40
1.125
309
GRIDFORMAT_END
 95
        8
302
GRIDFORMAT
  1
GRIDFORMAT_BEGIN
 90
        0
 91
        1
 62
     0
 92
       -2
340
0
 93
        0
 40
1.125
309
GRIDFORMAT_END
 95
       16
302
GRIDFORMAT
  1
GRIDFORMAT_BEGIN
 90
        0
 91
        1
 62
     0
 92
       -2
340
0
 93
        0
 40
1.125
309
GRIDFORMAT_END
 95
       32
302
GRIDFORMAT
  1
GRIDFORMAT_BEGIN
 90
        0
 91
        1
 62
     0
 92
       -2
340
0
 93
        0
 40
1.125
309
GRIDFORMAT_END
309
TABLEFORMAT_END
  1
CELLSTYLE_BEGIN
 90
        1
 91
        1
300
_TITLE
309
CELLSTYLE_END
300
CELLSTYLE
  1
TABLEFORMAT_BEGIN
 90
        5
170
     1
 91
        0
 92
        0
 62
   257
 93
        1
300
CONTENTFORMAT
  1
CONTENTFORMAT_BEGIN
 90
        0
 91
        0
 92
      512
 93
        0
300

 40
0.0
140
1.0
 94
        5
 62
     0
340
11
144
4.5
309
CONTENTFORMAT_END
171
     1
301
MARGIN
  1
CELLMARGIN_BEGIN
 40
1.5
 40
1.5
 40
1.5
 40
1.5
 40
4.5
 40
4.5
309
CELLMARGIN_END
 94
        6
 95
        1
302
GRIDFORMAT
  1
GRIDFORMAT_BEGIN
 90
        0
 91
        1
 62
     0
 92
       -2
340
0
 93
        0
 40
1.125
309
GRIDFORMAT_END
 95
        2
302
GRIDFORMAT
  1
GRIDFORMAT_BEGIN
 90
        0
 91
        1
 62
     0
 92
       -2
340
0
 93
        0
 40
1.125
309
GRIDFORMAT_END
 95
        4
302
GRIDFORMAT
  1
GRIDFORMAT_BEGIN
 90
        0
 91
        1
 62
     0
 92
       -2
340
0
 93
        0
 40
1.125
309
GRIDFORMAT_END
 95
        8
302
GRIDFORMAT
  1
GRIDFORMAT_BEGIN
 90
        0
 91
        1
 62
     0
 92
       -2
340
0
 93
        0
 40
1.125
309
GRIDFORMAT_END
 95
       16
302
GRIDFORMAT
  1
GRIDFORMAT_BEGIN
 90
        0
 91
        1
 62
     0
 92
       -2
340
0
 93
        0
 40
1.125
309
GRIDFORMAT_END
 95
       32
302
GRIDFORMAT
  1
GRIDFORMAT_BEGIN
 90
        0
 91
        1
 62
     0
 92
       -2
340
0
 93
        0
 40
1.125
309
GRIDFORMAT_END
309
TABLEFORMAT_END
  1
CELLSTYLE_BEGIN
 90
        2
 91
        1
300
_HEADER
309
CELLSTYLE_END
300
CELLSTYLE
  1
TABLEFORMAT_BEGIN
 90
        5
170
     1
 91
        0
 92
        0
 62
   257
 93
        1
300
CONTENTFORMAT
  1
CONTENTFORMAT_BEGIN
 90
        0
 91
        0
 92
      512
 93
        0
300

 40
0.0
140
1.0
 94
        2
 62
     0
340
11
144
4.5
309
CONTENTFORMAT_END
171
     1
301
MARGIN
  1
CELLMARGIN_BEGIN
 40
1.5
 40
1.5
 40
1.5
 40
1.5
 40
4.5
 40
4.5
309
CELLMARGIN_END
 94
        6
 95
        1
302
GRIDFORMAT
  1
GRIDFORMAT_BEGIN
 90
        0
 91
        1
 62
     0
 92
       -2
340
0
 93
        0
 40
1.125
309
GRIDFORMAT_END
 95
        2
302
GRIDFORMAT
  1
GRIDFORMAT_BEGIN
 90
        0
 91
        1
 62
     0
 92
       -2
340
0
 93
        0
 40
1.125
309
GRIDFORMAT_END
 95
        4
302
GRIDFORMAT
  1
GRIDFORMAT_BEGIN
 90
        0
 91
        1
 62
     0
 92
       -2
340
0
 93
        0
 40
1.125
309
GRIDFORMAT_END
 95
        8
302
GRIDFORMAT
  1
GRIDFORMAT_BEGIN
 90
        0
 91
        1
 62
     0
 92
       -2
340
0
 93
        0
 40
1.125
309
GRIDFORMAT_END
 95
       16
302
GRIDFORMAT
  1
GRIDFORMAT_BEGIN
 90
        0
 91
        1
 62
     0
 92
       -2
340
0
 93
        0
 40
1.125
309
GRIDFORMAT_END
 95
       32
302
GRIDFORMAT
  1
GRIDFORMAT_BEGIN
 90
        0
 91
        1
 62
     0
 92
       -2
340
0
 93
        0
 40
1.125
309
GRIDFORMAT_END
309
TABLEFORMAT_END
  1
CELLSTYLE_BEGIN
 90
        3
 91
        2
300
_DATA
309
CELLSTYLE_END
  0
XRECORD
  5
7A23
102
{ACAD_REACTORS
330
3A8
102
}
330
3A8
100
AcDbXrecord
280
     1
102
ACAD_ROUNDTRIP_PRE2007_TABLESTYLE
 90
      512
 91
        0
  1

 92
      512
 93
        0
  2

 94
      512
 95
        0
  3

  0
XRECORD
  5
3AB
102
{ACAD_REACTORS
330
3AA
102
}
330
3AA
100
AcDbXrecord
280
     1
102
RTVSPropertyOp0
 70
     1
102
RTVSPropertyOp1
 70
     1
102
RTVSPropertyOp2
 70
     1
102
RTVSPropertyOp3
 70
     1
102
RTVSPropertyOp4
 70
     1
102
RTVSPropertyOp5
 70
     1
102
RTVSPropertyOp6
 70
     1
102
RTVSPropertyOp7
 70
     1
102
RTVSPropertyOp8
 70
     1
102
RTVSPropertyOp9
 70
     1
102
RTVSPropertyOp10
 70
     1
102
RTVSPropertyOp11
 70
     1
102
RTVSPropertyOp12
 70
     1
102
RTVSPropertyOp13
 70
     1
102
RTVSPropertyOp14
 70
     1
102
RTVSPropertyOp15
 70
     1
102
RTVSPropertyOp16
 70
     1
102
RTVSPropertyOp17
 70
     1
102
RTVSPropertyOp18
 70
     1
102
RTVSPropertyOp19
 70
     1
102
RTVSPropertyOp20
 70
     1
102
RTVSPropertyOp21
 70
     1
102
RTVSPropertyOp22
 70
     1
102
RTVSPropertyOp23
 70
     1
102
RTVSPropertyOp24
 70
     1
102
RTVSPropertyOp25
 70
     1
102
RTVSPropertyOp26
 70
     1
102
RTVSPropertyOp27
 70
     1
  0
XRECORD
  5
3AD
102
{ACAD_REACTORS
330
3AC
102
}
330
3AC
100
AcDbXrecord
280
     1
102
RTVSPropertyOp0
 70
     1
102
RTVSPropertyOp1
 70
     1
102
RTVSPropertyOp2
 70
     1
102
RTVSPropertyOp3
 70
     1
102
RTVSPropertyOp4
 70
     1
102
RTVSPropertyOp5
 70
     1
102
RTVSPropertyOp6
 70
     1
102
RTVSPropertyOp7
 70
     1
102
RTVSPropertyOp8
 70
     1
102
RTVSPropertyOp9
 70
     1
102
RTVSPropertyOp10
 70
     1
102
RTVSPropertyOp11
 70
     1
102
RTVSPropertyOp12
 70
     1
102
RTVSPropertyOp13
 70
     1
102
RTVSPropertyOp14
 70
     1
102
RTVSPropertyOp15
 70
     1
102
RTVSPropertyOp16
 70
     1
102
RTVSPropertyOp17
 70
     1
102
RTVSPropertyOp18
 70
     1
102
RTVSPropertyOp19
 70
     1
102
RTVSPropertyOp20
 70
     1
102
RTVSPropertyOp21
 70
     1
102
RTVSPropertyOp22
 70
     1
102
RTVSPropertyOp23
 70
     1
102
RTVSPropertyOp24
 70
     1
102
RTVSPropertyOp25
 70
     1
102
RTVSPropertyOp26
 70
     1
102
RTVSPropertyOp27
 70
     1
  0
XRECORD
  5
3AF
102
{ACAD_REACTORS
330
3AE
102
}
330
3AE
100
AcDbXrecord
280
     1
102
RTVSPropertyOp0
 70
     1
102
RTVSPropertyOp1
 70
     1
102
RTVSPropertyOp2
 70
     1
102
RTVSPropertyOp3
 70
     1
102
RTVSPropertyOp4
 70
     1
102
RTVSPropertyOp5
 70
     1
102
RTVSPropertyOp6
 70
     1
102
RTVSPropertyOp7
 70
     1
102
RTVSPropertyOp8
 70
     1
102
RTVSPropertyOp9
 70
     1
102
RTVSPropertyOp10
 70
     1
102
RTVSPropertyOp11
 70
     1
102
RTVSPropertyOp12
 70
     1
102
RTVSPropertyOp13
 70
     1
102
RTVSPropertyOp14
 70
     1
102
RTVSPropertyOp15
 70
     1
102
RTVSPropertyOp16
 70
     1
102
RTVSPropertyOp17
 70
     1
102
RTVSPropertyOp18
 70
     1
102
RTVSPropertyOp19
 70
     1
102
RTVSPropertyOp20
 70
     1
102
RTVSPropertyOp21
 70
     1
102
RTVSPropertyOp22
 70
     1
102
RTVSPropertyOp23
 70
     1
102
RTVSPropertyOp24
 70
     1
102
RTVSPropertyOp25
 70
     1
102
RTVSPropertyOp26
 70
     1
102
RTVSPropertyOp27
 70
     1
  0
XRECORD
  5
3B1
102
{ACAD_REACTORS
330
3B0
102
}
330
3B0
100
AcDbXrecord
280
     1
102
RTVSPropertyOp0
 70
     1
102
RTVSPropertyOp1
 70
     1
102
RTVSPropertyOp2
 70
     1
102
RTVSPropertyOp3
 70
     1
102
RTVSPropertyOp4
 70
     1
102
RTVSPropertyOp5
 70
     1
102
RTVSPropertyOp6
 70
     1
102
RTVSPropertyOp7
 70
     1
102
RTVSPropertyOp8
 70
     1
102
RTVSPropertyOp9
 70
     1
102
RTVSPropertyOp10
 70
     1
102
RTVSPropertyOp11
 70
     1
102
RTVSPropertyOp12
 70
     1
102
RTVSPropertyOp13
 70
     1
102
RTVSPropertyOp14
 70
     1
102
RTVSPropertyOp15
 70
     1
102
RTVSPropertyOp16
 70
     1
102
RTVSPropertyOp17
 70
     1
102
RTVSPropertyOp18
 70
     1
102
RTVSPropertyOp19
 70
     1
102
RTVSPropertyOp20
 70
     1
102
RTVSPropertyOp21
 70
     1
102
RTVSPropertyOp22
 70
     1
102
RTVSPropertyOp23
 70
     1
102
RTVSPropertyOp24
 70
     1
102
RTVSPropertyOp25
 70
     1
102
RTVSPropertyOp26
 70
     1
102
RTVSPropertyOp27
 70
     1
  0
XRECORD
  5
3B3
102
{ACAD_REACTORS
330
3B2
102
}
330
3B2
100
AcDbXrecord
280
     1
102
RTVSPropertyOp0
 70
     1
102
RTVSPropertyOp1
 70
     1
102
RTVSPropertyOp2
 70
     1
102
RTVSPropertyOp3
 70
     1
102
RTVSPropertyOp4
 70
     1
102
RTVSPropertyOp5
 70
     1
102
RTVSPropertyOp6
 70
     1
102
RTVSPropertyOp7
 70
     1
102
RTVSPropertyOp8
 70
     1
102
RTVSPropertyOp9
 70
     1
102
RTVSPropertyOp10
 70
     1
102
RTVSPropertyOp11
 70
     1
102
RTVSPropertyOp12
 70
     1
102
RTVSPropertyOp13
 70
     1
102
RTVSPropertyOp14
 70
     1
102
RTVSPropertyOp15
 70
     1
102
RTVSPropertyOp16
 70
     1
102
RTVSPropertyOp17
 70
     1
102
RTVSPropertyOp18
 70
     1
102
RTVSPropertyOp19
 70
     1
102
RTVSPropertyOp20
 70
     1
102
RTVSPropertyOp21
 70
     1
102
RTVSPropertyOp22
 70
     1
102
RTVSPropertyOp23
 70
     1
102
RTVSPropertyOp24
 70
     1
102
RTVSPropertyOp25
 70
     1
102
RTVSPropertyOp26
 70
     1
102
RTVSPropertyOp27
 70
     1
  0
XRECORD
  5
3B5
102
{ACAD_REACTORS
330
3B4
102
}
330
3B4
100
AcDbXrecord
280
     1
102
RTVSPropertyOp0
 70
     1
102
RTVSPropertyOp1
 70
     1
102
RTVSPropertyOp2
 70
     1
102
RTVSPropertyOp3
 70
     1
102
RTVSPropertyOp4
 70
     1
102
RTVSPropertyOp5
 70
     1
102
RTVSPropertyOp6
 70
     1
102
RTVSPropertyOp7
 70
     1
102
RTVSPropertyOp8
 70
     1
102
RTVSPropertyOp9
 70
     1
102
RTVSPropertyOp10
 70
     1
102
RTVSPropertyOp11
 70
     1
102
RTVSPropertyOp12
 70
     1
102
RTVSPropertyOp13
 70
     1
102
RTVSPropertyOp14
 70
     1
102
RTVSPropertyOp15
 70
     1
102
RTVSPropertyOp16
 70
     1
102
RTVSPropertyOp17
 70
     1
102
RTVSPropertyOp18
 70
     1
102
RTVSPropertyOp19
 70
     1
102
RTVSPropertyOp20
 70
     1
102
RTVSPropertyOp21
 70
     1
102
RTVSPropertyOp22
 70
     1
102
RTVSPropertyOp23
 70
     1
102
RTVSPropertyOp24
 70
     1
102
RTVSPropertyOp25
 70
     1
102
RTVSPropertyOp26
 70
     1
102
RTVSPropertyOp27
 70
     1
  0
XRECORD
  5
3B7
102
{ACAD_REACTORS
330
3B6
102
}
330
3B6
100
AcDbXrecord
280
     1
102
RTVSPropertyOp0
 70
     1
102
RTVSPropertyOp1
 70
     1
102
RTVSPropertyOp2
 70
     1
102
RTVSPropertyOp3
 70
     1
102
RTVSPropertyOp4
 70
     1
102
RTVSPropertyOp5
 70
     1
102
RTVSPropertyOp6
 70
     1
102
RTVSPropertyOp7
 70
     1
102
RTVSPropertyOp8
 70
     1
102
RTVSPropertyOp9
 70
     1
102
RTVSPropertyOp10
 70
     1
102
RTVSPropertyOp11
 70
     1
102
RTVSPropertyOp12
 70
     1
102
RTVSPropertyOp13
 70
     1
102
RTVSPropertyOp14
 70
     1
102
RTVSPropertyOp15
 70
     1
102
RTVSPropertyOp16
 70
     1
102
RTVSPropertyOp17
 70
     1
102
RTVSPropertyOp18
 70
     1
102
RTVSPropertyOp19
 70
     1
102
RTVSPropertyOp20
 70
     1
102
RTVSPropertyOp21
 70
     1
102
RTVSPropertyOp22
 70
     1
102
RTVSPropertyOp23
 70
     1
102
RTVSPropertyOp24
 70
     1
102
RTVSPropertyOp25
 70
     1
102
RTVSPropertyOp26
 70
     1
102
RTVSPropertyOp27
 70
     1
  0
XRECORD
  5
3B9
102
{ACAD_REACTORS
330
3B8
102
}
330
3B8
100
AcDbXrecord
280
     1
102
RTVSPropertyOp0
 70
     1
102
RTVSPropertyOp1
 70
     1
102
RTVSPropertyOp2
 70
     1
102
RTVSPropertyOp3
 70
     1
102
RTVSPropertyOp4
 70
     1
102
RTVSPropertyOp5
 70
     1
102
RTVSPropertyOp6
 70
     1
102
RTVSPropertyOp7
 70
     1
102
RTVSPropertyOp8
 70
     1
102
RTVSPropertyOp9
 70
     1
102
RTVSPropertyOp10
 70
     1
102
RTVSPropertyOp11
 70
     1
102
RTVSPropertyOp12
 70
     1
102
RTVSPropertyOp13
 70
     1
102
RTVSPropertyOp14
 70
     1
102
RTVSPropertyOp15
 70
     1
102
RTVSPropertyOp16
 70
     1
102
RTVSPropertyOp17
 70
     1
102
RTVSPropertyOp18
 70
     1
102
RTVSPropertyOp19
 70
     1
102
RTVSPropertyOp20
 70
     1
102
RTVSPropertyOp21
 70
     1
102
RTVSPropertyOp22
 70
     1
102
RTVSPropertyOp23
 70
     1
102
RTVSPropertyOp24
 70
     1
102
RTVSPropertyOp25
 70
     1
102
RTVSPropertyOp26
 70
     1
102
RTVSPropertyOp27
 70
     1
  0
XRECORD
  5
3D3
102
{ACAD_REACTORS
330
3D2
102
}
330
3D2
100
AcDbXrecord
280
     1
102
RTVSPropertyOp0
 70
     0
102
RTVSPropertyOp1
 70
     0
102
RTVSPropertyOp2
 70
     0
102
RTVSPropertyOp3
 70
     0
102
RTVSPropertyOp4
 70
     0
102
RTVSPropertyOp5
 70
     0
102
RTVSPropertyOp6
 70
     0
102
RTVSPropertyOp7
 70
     0
102
RTVSPropertyOp8
 70
     0
102
RTVSPropertyOp9
 70
     0
102
RTVSPropertyOp10
 70
     0
102
RTVSPropertyOp11
 70
     0
102
RTVSPropertyOp12
 70
     0
102
RTVSPropertyOp13
 70
     0
102
RTVSPropertyOp14
 70
     2
102
RTVSPropertyOp15
 70
     0
102
RTVSPropertyOp16
 70
     0
102
RTVSPropertyOp17
 70
     0
102
RTVSPropertyOp18
 70
     0
102
RTVSPropertyOp19
 70
     0
102
RTVSPropertyOp20
 70
     0
102
RTVSPropertyOp21
 70
     0
102
RTVSPropertyOp22
 70
     0
102
RTVSPropertyOp23
 70
     0
102
RTVSPropertyOp24
 70
     0
102
RTVSPropertyOp25
 70
     0
102
RTVSPropertyOp26
 70
     0
102
RTVSPropertyOp27
 70
     0
  0
XRECORD
  5
3BB
102
{ACAD_REACTORS
330
3BA
102
}
330
3BA
100
AcDbXrecord
280
     1
102
RTVSPropertyOp0
 70
     1
102
RTVSPropertyOp1
 70
     1
102
RTVSPropertyOp2
 70
     1
102
RTVSPropertyOp3
 70
     1
102
RTVSPropertyOp4
 70
     1
102
RTVSPropertyOp5
 70
     1
102
RTVSPropertyOp6
 70
     1
102
RTVSPropertyOp7
 70
     1
102
RTVSPropertyOp8
 70
     1
102
RTVSPropertyOp9
 70
     1
102
RTVSPropertyOp10
 70
     1
102
RTVSPropertyOp11
 70
     1
102
RTVSPropertyOp12
 70
     1
102
RTVSPropertyOp13
 70
     1
102
RTVSPropertyOp14
 70
     1
102
RTVSPropertyOp15
 70
     1
102
RTVSPropertyOp16
 70
     1
102
RTVSPropertyOp17
 70
     1
102
RTVSPropertyOp18
 70
     1
102
RTVSPropertyOp19
 70
     1
102
RTVSPropertyOp20
 70
     1
102
RTVSPropertyOp21
 70
     1
102
RTVSPropertyOp22
 70
     1
102
RTVSPropertyOp23
 70
     1
102
RTVSPropertyOp24
 70
     1
102
RTVSPropertyOp25
 70
     1
102
RTVSPropertyOp26
 70
     1
102
RTVSPropertyOp27
 70
     1
  0
XRECORD
  5
3BD
102
{ACAD_REACTORS
330
3BC
102
}
330
3BC
100
AcDbXrecord
280
     1
102
RTVSPropertyOp0
 70
     1
102
RTVSPropertyOp1
 70
     1
102
RTVSPropertyOp2
 70
     1
102
RTVSPropertyOp3
 70
     1
102
RTVSPropertyOp4
 70
     1
102
RTVSPropertyOp5
 70
     1
102
RTVSPropertyOp6
 70
     1
102
RTVSPropertyOp7
 70
     1
102
RTVSPropertyOp8
 70
     1
102
RTVSPropertyOp9
 70
     1
102
RTVSPropertyOp10
 70
     1
102
RTVSPropertyOp11
 70
     1
102
RTVSPropertyOp12
 70
     1
102
RTVSPropertyOp13
 70
     1
102
RTVSPropertyOp14
 70
     1
102
RTVSPropertyOp15
 70
     1
102
RTVSPropertyOp16
 70
     1
102
RTVSPropertyOp17
 70
     1
102
RTVSPropertyOp18
 70
     1
102
RTVSPropertyOp19
 70
     1
102
RTVSPropertyOp20
 70
     1
102
RTVSPropertyOp21
 70
     1
102
RTVSPropertyOp22
 70
     1
102
RTVSPropertyOp23
 70
     1
102
RTVSPropertyOp24
 70
     1
102
RTVSPropertyOp25
 70
     1
102
RTVSPropertyOp26
 70
     1
102
RTVSPropertyOp27
 70
     1
  0
XRECORD
  5
3BF
102
{ACAD_REACTORS
330
3BE
102
}
330
3BE
100
AcDbXrecord
280
     1
102
RTVSPropertyOp0
 70
     1
102
RTVSPropertyOp1
 70
     1
102
RTVSPropertyOp2
 70
     1
102
RTVSPropertyOp3
 70
     1
102
RTVSPropertyOp4
 70
     1
102
RTVSPropertyOp5
 70
     1
102
RTVSPropertyOp6
 70
     1
102
RTVSPropertyOp7
 70
     1
102
RTVSPropertyOp8
 70
     1
102
RTVSPropertyOp9
 70
     1
102
RTVSPropertyOp10
 70
     1
102
RTVSPropertyOp11
 70
     1
102
RTVSPropertyOp12
 70
     1
102
RTVSPropertyOp13
 70
     1
102
RTVSPropertyOp14
 70
     1
102
RTVSPropertyOp15
 70
     1
102
RTVSPropertyOp16
 70
     1
102
RTVSPropertyOp17
 70
     1
102
RTVSPropertyOp18
 70
     1
102
RTVSPropertyOp19
 70
     1
102
RTVSPropertyOp20
 70
     1
102
RTVSPropertyOp21
 70
     1
102
RTVSPropertyOp22
 70
     1
102
RTVSPropertyOp23
 70
     1
102
RTVSPropertyOp24
 70
     1
102
RTVSPropertyOp25
 70
     1
102
RTVSPropertyOp26
 70
     1
102
RTVSPropertyOp27
 70
     1
  0
XRECORD
  5
3C1
102
{ACAD_REACTORS
330
3C0
102
}
330
3C0
100
AcDbXrecord
280
     1
102
RTVSPropertyOp0
 70
     1
102
RTVSPropertyOp1
 70
     1
102
RTVSPropertyOp2
 70
     1
102
RTVSPropertyOp3
 70
     1
102
RTVSPropertyOp4
 70
     1
102
RTVSPropertyOp5
 70
     1
102
RTVSPropertyOp6
 70
     1
102
RTVSPropertyOp7
 70
     1
102
RTVSPropertyOp8
 70
     1
102
RTVSPropertyOp9
 70
     1
102
RTVSPropertyOp10
 70
     1
102
RTVSPropertyOp11
 70
     1
102
RTVSPropertyOp12
 70
     1
102
RTVSPropertyOp13
 70
     1
102
RTVSPropertyOp14
 70
     1
102
RTVSPropertyOp15
 70
     1
102
RTVSPropertyOp16
 70
     1
102
RTVSPropertyOp17
 70
     1
102
RTVSPropertyOp18
 70
     1
102
RTVSPropertyOp19
 70
     1
102
RTVSPropertyOp20
 70
     1
102
RTVSPropertyOp21
 70
     1
102
RTVSPropertyOp22
 70
     1
102
RTVSPropertyOp23
 70
     1
102
RTVSPropertyOp24
 70
     1
102
RTVSPropertyOp25
 70
     1
102
RTVSPropertyOp26
 70
     1
102
RTVSPropertyOp27
 70
     1
  0
XRECORD
  5
3C3
102
{ACAD_REACTORS
330
3C2
102
}
330
3C2
100
AcDbXrecord
280
     1
102
RTVSPropertyOp0
 70
     1
102
RTVSPropertyOp1
 70
     1
102
RTVSPropertyOp2
 70
     1
102
RTVSPropertyOp3
 70
     1
102
RTVSPropertyOp4
 70
     1
102
RTVSPropertyOp5
 70
     1
102
RTVSPropertyOp6
 70
     1
102
RTVSPropertyOp7
 70
     1
102
RTVSPropertyOp8
 70
     1
102
RTVSPropertyOp9
 70
     1
102
RTVSPropertyOp10
 70
     1
102
RTVSPropertyOp11
 70
     1
102
RTVSPropertyOp12
 70
     1
102
RTVSPropertyOp13
 70
     1
102
RTVSPropertyOp14
 70
     1
102
RTVSPropertyOp15
 70
     1
102
RTVSPropertyOp16
 70
     1
102
RTVSPropertyOp17
 70
     1
102
RTVSPropertyOp18
 70
     1
102
RTVSPropertyOp19
 70
     1
102
RTVSPropertyOp20
 70
     1
102
RTVSPropertyOp21
 70
     1
102
RTVSPropertyOp22
 70
     1
102
RTVSPropertyOp23
 70
     1
102
RTVSPropertyOp24
 70
     1
102
RTVSPropertyOp25
 70
     1
102
RTVSPropertyOp26
 70
     1
102
RTVSPropertyOp27
 70
     1
  0
XRECORD
  5
3CD
102
{ACAD_REACTORS
330
3CC
102
}
330
3CC
100
AcDbXrecord
280
     1
102
RTVSPropertyOp0
 70
     1
102
RTVSPropertyOp1
 70
     1
102
RTVSPropertyOp2
 70
     1
102
RTVSPropertyOp3
 70
     1
102
RTVSPropertyOp4
 70
     1
102
RTVSPropertyOp5
 70
     1
102
RTVSPropertyOp6
 70
     1
102
RTVSPropertyOp7
 70
     1
102
RTVSPropertyOp8
 70
     1
102
RTVSPropertyOp9
 70
     1
102
RTVSPropertyOp10
 70
     1
102
RTVSPropertyOp11
 70
     1
102
RTVSPropertyOp12
 70
     1
102
RTVSPropertyOp13
 70
     1
102
RTVSPropertyOp14
 70
     1
102
RTVSPropertyOp15
 70
     1
102
RTVSPropertyOp16
 70
     1
102
RTVSPropertyOp17
 70
     1
102
RTVSPropertyOp18
 70
     1
102
RTVSPropertyOp19
 70
     1
102
RTVSPropertyOp20
 70
     1
102
RTVSPropertyOp21
 70
     1
102
RTVSPropertyOp22
 70
     1
102
RTVSPropertyOp23
 70
     1
102
RTVSPropertyOp24
 70
     1
102
RTVSPropertyOp25
 70
     1
102
RTVSPropertyOp26
 70
     1
102
RTVSPropertyOp27
 70
     1
  0
XRECORD
  5
3CF
102
{ACAD_REACTORS
330
3CE
102
}
330
3CE
100
AcDbXrecord
280
     1
102
RTVSPropertyOp0
 70
     0
102
RTVSPropertyOp1
 70
     0
102
RTVSPropertyOp2
 70
     0
102
RTVSPropertyOp3
 70
     0
102
RTVSPropertyOp4
 70
     0
102
RTVSPropertyOp5
 70
     0
102
RTVSPropertyOp6
 70
     0
102
RTVSPropertyOp7
 70
     0
102
RTVSPropertyOp8
 70
     0
102
RTVSPropertyOp9
 70
     0
102
RTVSPropertyOp10
 70
     0
102
RTVSPropertyOp11
 70
     0
102
RTVSPropertyOp12
 70
     0
102
RTVSPropertyOp13
 70
     0
102
RTVSPropertyOp14
 70
     2
102
RTVSPropertyOp15
 70
     0
102
RTVSPropertyOp16
 70
     0
102
RTVSPropertyOp17
 70
     0
102
RTVSPropertyOp18
 70
     0
102
RTVSPropertyOp19
 70
     0
102
RTVSPropertyOp20
 70
     0
102
RTVSPropertyOp21
 70
     0
102
RTVSPropertyOp22
 70
     0
102
RTVSPropertyOp23
 70
     0
102
RTVSPropertyOp24
 70
     0
102
RTVSPropertyOp25
 70
     0
102
RTVSPropertyOp26
 70
     0
102
RTVSPropertyOp27
 70
     0
  0
XRECORD
  5
3C5
102
{ACAD_REACTORS
330
3C4
102
}
330
3C4
100
AcDbXrecord
280
     1
102
RTVSPropertyOp0
 70
     1
102
RTVSPropertyOp1
 70
     1
102
RTVSPropertyOp2
 70
     1
102
RTVSPropertyOp3
 70
     1
102
RTVSPropertyOp4
 70
     1
102
RTVSPropertyOp5
 70
     1
102
RTVSPropertyOp6
 70
     1
102
RTVSPropertyOp7
 70
     1
102
RTVSPropertyOp8
 70
     1
102
RTVSPropertyOp9
 70
     1
102
RTVSPropertyOp10
 70
     1
102
RTVSPropertyOp11
 70
     1
102
RTVSPropertyOp12
 70
     1
102
RTVSPropertyOp13
 70
     1
102
RTVSPropertyOp14
 70
     1
102
RTVSPropertyOp15
 70
     1
102
RTVSPropertyOp16
 70
     1
102
RTVSPropertyOp17
 70
     1
102
RTVSPropertyOp18
 70
     1
102
RTVSPropertyOp19
 70
     1
102
RTVSPropertyOp20
 70
     1
102
RTVSPropertyOp21
 70
     1
102
RTVSPropertyOp22
 70
     1
102
RTVSPropertyOp23
 70
     1
102
RTVSPropertyOp24
 70
     1
102
RTVSPropertyOp25
 70
     1
102
RTVSPropertyOp26
 70
     1
102
RTVSPropertyOp27
 70
     1
  0
XRECORD
  5
3D1
102
{ACAD_REACTORS
330
3D0
102
}
330
3D0
100
AcDbXrecord
280
     1
102
RTVSPropertyOp0
 70
     0
102
RTVSPropertyOp1
 70
     0
102
RTVSPropertyOp2
 70
     0
102
RTVSPropertyOp3
 70
     0
102
RTVSPropertyOp4
 70
     0
102
RTVSPropertyOp5
 70
     0
102
RTVSPropertyOp6
 70
     0
102
RTVSPropertyOp7
 70
     0
102
RTVSPropertyOp8
 70
     0
102
RTVSPropertyOp9
 70
     0
102
RTVSPropertyOp10
 70
     0
102
RTVSPropertyOp11
 70
     0
102
RTVSPropertyOp12
 70
     0
102
RTVSPropertyOp13
 70
     0
102
RTVSPropertyOp14
 70
     2
102
RTVSPropertyOp15
 70
     0
102
RTVSPropertyOp16
 70
     0
102
RTVSPropertyOp17
 70
     0
102
RTVSPropertyOp18
 70
     0
102
RTVSPropertyOp19
 70
     0
102
RTVSPropertyOp20
 70
     0
102
RTVSPropertyOp21
 70
     0
102
RTVSPropertyOp22
 70
     0
102
RTVSPropertyOp23
 70
     0
102
RTVSPropertyOp24
 70
     0
102
RTVSPropertyOp25
 70
     0
102
RTVSPropertyOp26
 70
     0
102
RTVSPropertyOp27
 70
     0
  0
XRECORD
  5
3C7
102
{ACAD_REACTORS
330
3C6
102
}
330
3C6
100
AcDbXrecord
280
     1
102
RTVSPropertyOp0
 70
     1
102
RTVSPropertyOp1
 70
     1
102
RTVSPropertyOp2
 70
     1
102
RTVSPropertyOp3
 70
     1
102
RTVSPropertyOp4
 70
     1
102
RTVSPropertyOp5
 70
     1
102
RTVSPropertyOp6
 70
     1
102
RTVSPropertyOp7
 70
     1
102
RTVSPropertyOp8
 70
     1
102
RTVSPropertyOp9
 70
     1
102
RTVSPropertyOp10
 70
     1
102
RTVSPropertyOp11
 70
     1
102
RTVSPropertyOp12
 70
     1
102
RTVSPropertyOp13
 70
     1
102
RTVSPropertyOp14
 70
     1
102
RTVSPropertyOp15
 70
     1
102
RTVSPropertyOp16
 70
     1
102
RTVSPropertyOp17
 70
     1
102
RTVSPropertyOp18
 70
     1
102
RTVSPropertyOp19
 70
     1
102
RTVSPropertyOp20
 70
     1
102
RTVSPropertyOp21
 70
     1
102
RTVSPropertyOp22
 70
     1
102
RTVSPropertyOp23
 70
     1
102
RTVSPropertyOp24
 70
     1
102
RTVSPropertyOp25
 70
     1
102
RTVSPropertyOp26
 70
     1
102
RTVSPropertyOp27
 70
     1
  0
XRECORD
  5
3DD
102
{ACAD_REACTORS
330
3DC
102
}
330
3DC
100
AcDbXrecord
280
     1
102
RTVSPropertyOp0
 70
     1
102
RTVSPropertyOp1
 70
     1
102
RTVSPropertyOp2
 70
     1
102
RTVSPropertyOp3
 70
     1
102
RTVSPropertyOp4
 70
     1
102
RTVSPropertyOp5
 70
     1
102
RTVSPropertyOp6
 70
     1
102
RTVSPropertyOp7
 70
     1
102
RTVSPropertyOp8
 70
     1
102
RTVSPropertyOp9
 70
     1
102
RTVSPropertyOp10
 70
     1
102
RTVSPropertyOp11
 70
     1
102
RTVSPropertyOp12
 70
     1
102
RTVSPropertyOp13
 70
     1
102
RTVSPropertyOp14
 70
     1
102
RTVSPropertyOp15
 70
     1
102
RTVSPropertyOp16
 70
     1
102
RTVSPropertyOp17
 70
     1
102
RTVSPropertyOp18
 70
     1
102
RTVSPropertyOp19
 70
     1
102
RTVSPropertyOp20
 70
     1
102
RTVSPropertyOp21
 70
     1
102
RTVSPropertyOp22
 70
     1
102
RTVSPropertyOp23
 70
     1
102
RTVSPropertyOp24
 70
     1
102
RTVSPropertyOp25
 70
     1
102
RTVSPropertyOp26
 70
     1
102
RTVSPropertyOp27
 70
     1
  0
XRECORD
  5
3DB
102
{ACAD_REACTORS
330
3DA
102
}
330
3DA
100
AcDbXrecord
280
     1
102
RTVSPropertyOp0
 70
     1
102
RTVSPropertyOp1
 70
     1
102
RTVSPropertyOp2
 70
     1
102
RTVSPropertyOp3
 70
     1
102
RTVSPropertyOp4
 70
     1
102
RTVSPropertyOp5
 70
     1
102
RTVSPropertyOp6
 70
     1
102
RTVSPropertyOp7
 70
     1
102
RTVSPropertyOp8
 70
     1
102
RTVSPropertyOp9
 70
     1
102
RTVSPropertyOp10
 70
     1
102
RTVSPropertyOp11
 70
     1
102
RTVSPropertyOp12
 70
     1
102
RTVSPropertyOp13
 70
     1
102
RTVSPropertyOp14
 70
     1
102
RTVSPropertyOp15
 70
     1
102
RTVSPropertyOp16
 70
     1
102
RTVSPropertyOp17
 70
     1
102
RTVSPropertyOp18
 70
     1
102
RTVSPropertyOp19
 70
     1
102
RTVSPropertyOp20
 70
     1
102
RTVSPropertyOp21
 70
     1
102
RTVSPropertyOp22
 70
     1
102
RTVSPropertyOp23
 70
     1
102
RTVSPropertyOp24
 70
     1
102
RTVSPropertyOp25
 70
     1
102
RTVSPropertyOp26
 70
     1
102
RTVSPropertyOp27
 70
     1
  0
XRECORD
  5
3D5
102
{ACAD_REACTORS
330
3D4
102
}
330
3D4
100
AcDbXrecord
280
     1
102
RTVSPropertyOp0
 70
     1
102
RTVSPropertyOp1
 70
     1
102
RTVSPropertyOp2
 70
     1
102
RTVSPropertyOp3
 70
     1
102
RTVSPropertyOp4
 70
     1
102
RTVSPropertyOp5
 70
     1
102
RTVSPropertyOp6
 70
     1
102
RTVSPropertyOp7
 70
     1
102
RTVSPropertyOp8
 70
     1
102
RTVSPropertyOp9
 70
     1
102
RTVSPropertyOp10
 70
     1
102
RTVSPropertyOp11
 70
     1
102
RTVSPropertyOp12
 70
     1
102
RTVSPropertyOp13
 70
     1
102
RTVSPropertyOp14
 70
     1
102
RTVSPropertyOp15
 70
     1
102
RTVSPropertyOp16
 70
     1
102
RTVSPropertyOp17
 70
     1
102
RTVSPropertyOp18
 70
     1
102
RTVSPropertyOp19
 70
     1
102
RTVSPropertyOp20
 70
     1
102
RTVSPropertyOp21
 70
     1
102
RTVSPropertyOp22
 70
     1
102
RTVSPropertyOp23
 70
     1
102
RTVSPropertyOp24
 70
     1
102
RTVSPropertyOp25
 70
     1
102
RTVSPropertyOp26
 70
     1
102
RTVSPropertyOp27
 70
     1
  0
XRECORD
  5
3D7
102
{ACAD_REACTORS
330
3D6
102
}
330
3D6
100
AcDbXrecord
280
     1
102
RTVSPropertyOp0
 70
     1
102
RTVSPropertyOp1
 70
     1
102
RTVSPropertyOp2
 70
     1
102
RTVSPropertyOp3
 70
     1
102
RTVSPropertyOp4
 70
     1
102
RTVSPropertyOp5
 70
     1
102
RTVSPropertyOp6
 70
     1
102
RTVSPropertyOp7
 70
     1
102
RTVSPropertyOp8
 70
     1
102
RTVSPropertyOp9
 70
     1
102
RTVSPropertyOp10
 70
     1
102
RTVSPropertyOp11
 70
     1
102
RTVSPropertyOp12
 70
     1
102
RTVSPropertyOp13
 70
     1
102
RTVSPropertyOp14
 70
     1
102
RTVSPropertyOp15
 70
     1
102
RTVSPropertyOp16
 70
     1
102
RTVSPropertyOp17
 70
     1
102
RTVSPropertyOp18
 70
     1
102
RTVSPropertyOp19
 70
     1
102
RTVSPropertyOp20
 70
     1
102
RTVSPropertyOp21
 70
     1
102
RTVSPropertyOp22
 70
     1
102
RTVSPropertyOp23
 70
     1
102
RTVSPropertyOp24
 70
     1
102
RTVSPropertyOp25
 70
     1
102
RTVSPropertyOp26
 70
     1
102
RTVSPropertyOp27
 70
     1
  0
XRECORD
  5
3C9
102
{ACAD_REACTORS
330
3C8
102
}
330
3C8
100
AcDbXrecord
280
     1
102
RTVSPropertyOp0
 70
     1
102
RTVSPropertyOp1
 70
     1
102
RTVSPropertyOp2
 70
     1
102
RTVSPropertyOp3
 70
     1
102
RTVSPropertyOp4
 70
     1
102
RTVSPropertyOp5
 70
     1
102
RTVSPropertyOp6
 70
     1
102
RTVSPropertyOp7
 70
     1
102
RTVSPropertyOp8
 70
     1
102
RTVSPropertyOp9
 70
     1
102
RTVSPropertyOp10
 70
     1
102
RTVSPropertyOp11
 70
     1
102
RTVSPropertyOp12
 70
     1
102
RTVSPropertyOp13
 70
     1
102
RTVSPropertyOp14
 70
     1
102
RTVSPropertyOp15
 70
     1
102
RTVSPropertyOp16
 70
     1
102
RTVSPropertyOp17
 70
     1
102
RTVSPropertyOp18
 70
     1
102
RTVSPropertyOp19
 70
     1
102
RTVSPropertyOp20
 70
     1
102
RTVSPropertyOp21
 70
     1
102
RTVSPropertyOp22
 70
     1
102
RTVSPropertyOp23
 70
     1
102
RTVSPropertyOp24
 70
     1
102
RTVSPropertyOp25
 70
     1
102
RTVSPropertyOp26
 70
     1
102
RTVSPropertyOp27
 70
     1
  0
XRECORD
  5
3CB
102
{ACAD_REACTORS
330
3CA
102
}
330
3CA
100
AcDbXrecord
280
     1
102
RTVSPropertyOp0
 70
     1
102
RTVSPropertyOp1
 70
     1
102
RTVSPropertyOp2
 70
     1
102
RTVSPropertyOp3
 70
     1
102
RTVSPropertyOp4
 70
     1
102
RTVSPropertyOp5
 70
     1
102
RTVSPropertyOp6
 70
     1
102
RTVSPropertyOp7
 70
     1
102
RTVSPropertyOp8
 70
     1
102
RTVSPropertyOp9
 70
     1
102
RTVSPropertyOp10
 70
     1
102
RTVSPropertyOp11
 70
     1
102
RTVSPropertyOp12
 70
     1
102
RTVSPropertyOp13
 70
     1
102
RTVSPropertyOp14
 70
     1
102
RTVSPropertyOp15
 70
     1
102
RTVSPropertyOp16
 70
     1
102
RTVSPropertyOp17
 70
     1
102
RTVSPropertyOp18
 70
     1
102
RTVSPropertyOp19
 70
     1
102
RTVSPropertyOp20
 70
     1
102
RTVSPropertyOp21
 70
     1
102
RTVSPropertyOp22
 70
     1
102
RTVSPropertyOp23
 70
     1
102
RTVSPropertyOp24
 70
     1
102
RTVSPropertyOp25
 70
     1
102
RTVSPropertyOp26
 70
     1
102
RTVSPropertyOp27
 70
     1
  0
XRECORD
  5
3D9
102
{ACAD_REACTORS
330
3D8
102
}
330
3D8
100
AcDbXrecord
280
     1
102
RTVSPropertyOp0
 70
     1
102
RTVSPropertyOp1
 70
     1
102
RTVSPropertyOp2
 70
     1
102
RTVSPropertyOp3
 70
     1
102
RTVSPropertyOp4
 70
     1
102
RTVSPropertyOp5
 70
     1
102
RTVSPropertyOp6
 70
     1
102
RTVSPropertyOp7
 70
     1
102
RTVSPropertyOp8
 70
     1
102
RTVSPropertyOp9
 70
     1
102
RTVSPropertyOp10
 70
     1
102
RTVSPropertyOp11
 70
     1
102
RTVSPropertyOp12
 70
     1
102
RTVSPropertyOp13
 70
     1
102
RTVSPropertyOp14
 70
     1
102
RTVSPropertyOp15
 70
     1
102
RTVSPropertyOp16
 70
     1
102
RTVSPropertyOp17
 70
     1
102
RTVSPropertyOp18
 70
     1
102
RTVSPropertyOp19
 70
     1
102
RTVSPropertyOp20
 70
     1
102
RTVSPropertyOp21
 70
     1
102
RTVSPropertyOp22
 70
     1
102
RTVSPropertyOp23
 70
     1
102
RTVSPropertyOp24
 70
     1
102
RTVSPropertyOp25
 70
     1
102
RTVSPropertyOp26
 70
     1
102
RTVSPropertyOp27
 70
     1
  0
ENDSEC
  0
EOF
