  0
SECTION
  2
HEADER
  9
$ACADVER
  1
AC1018
  9
$ACADMAINTVER
 70
   104
  9
$DWGCODEPAGE
  3
ANSI_936
  9
$LASTSAVEDBY
  1
yuqin.cai
  9
$INSBASE
 10
0.0
 20
0.0
 30
0.0
  9
$EXTMIN
 10
48014.00008839736
 20
10862.00002932045
 30
-0.00000001
  9
$EXTMAX
 10
49388.00427326449
 20
12440.66666666666
 30
0.00000001
  9
$LIMMIN
 10
0.0
 20
0.0
  9
$LIMMAX
 10
297.0
 20
210.0
  9
$ORTHOMODE
 70
     1
  9
$REGENMODE
 70
     1
  9
$FILLMODE
 70
     1
  9
$QTEXTMODE
 70
     0
  9
$MIRRTEXT
 70
     0
  9
$LTSCALE
 40
16.335
  9
$ATTMODE
 70
     1
  9
$TEXTSIZE
 40
0.2
  9
$TRACEWID
 40
0.05
  9
$TEXTSTYLE
  7
STANDARD
  9
$CLAYER
  8
0
  9
$CELTYPE
  6
BYLAYER
  9
$CECOLOR
 62
   256
  9
$CELTSCALE
 40
1.0
  9
$DISPSILH
 70
     0
  9
$DIMSCALE
 40
1.0
  9
$DIMASZ
 40
3.5
  9
$DIMEXO
 40
1.0
  9
$DIMDLI
 40
11.286
  9
$DIMRND
 40
0.0
  9
$DIMDLE
 40
0.0
  9
$DIMEXE
 40
1.5
  9
$DIMTP
 40
0.01
  9
$DIMTM
 40
0.01
  9
$DIMTXT
 40
3.5
  9
$DIMCEN
 40
2.673
  9
$DIMTSZ
 40
0.0
  9
$DIMTOL
 70
     1
  9
$DIMLIM
 70
     0
  9
$DIMTIH
 70
     1
  9
$DIMTOH
 70
     1
  9
$DIMSE1
 70
     0
  9
$DIMSE2
 70
     0
  9
$DIMTAD
 70
     0
  9
$DIMZIN
 70
     0
  9
$DIMBLK
  1

  9
$DIMASO
 70
     1
  9
$DIMSHO
 70
     1
  9
$DIMPOST
  1

  9
$DIMAPOST
  1

  9
$DIMALT
 70
     0
  9
$DIMALTD
 70
     2
  9
$DIMALTF
 40
25.4
  9
$DIMLFAC
 40
1.0
  9
$DIMTOFL
 70
     0
  9
$DIMTVP
 40
0.0
  9
$DIMTIX
 70
     0
  9
$DIMSOXD
 70
     0
  9
$DIMSAH
 70
     0
  9
$DIMBLK1
  1

  9
$DIMBLK2
  1

  9
$DIMSTYLE
  2
STANDARD
  9
$DIMCLRD
 70
     0
  9
$DIMCLRE
 70
     0
  9
$DIMCLRT
 70
     0
  9
$DIMTFAC
 40
1.0
  9
$DIMGAP
 40
0.625
  9
$DIMJUST
 70
     0
  9
$DIMSD1
 70
     0
  9
$DIMSD2
 70
     0
  9
$DIMTOLJ
 70
     1
  9
$DIMTZIN
 70
     0
  9
$DIMALTZ
 70
     0
  9
$DIMALTTZ
 70
     0
  9
$DIMUPT
 70
     0
  9
$DIMDEC
 70
     4
  9
$DIMTDEC
 70
     4
  9
$DIMALTU
 70
     2
  9
$DIMALTTD
 70
     2
  9
$DIMTXSTY
  7
STANDARD
  9
$DIMAUNIT
 70
     0
  9
$DIMADEC
 70
     0
  9
$DIMALTRND
 40
0.0
  9
$DIMAZIN
 70
     0
  9
$DIMDSEP
 70
    44
  9
$DIMATFIT
 70
     3
  9
$DIMFRAC
 70
     0
  9
$DIMLDRBLK
  1

  9
$DIMLUNIT
 70
     2
  9
$DIMLWD
 70
    -2
  9
$DIMLWE
 70
    -2
  9
$DIMTMOVE
 70
     0
  9
$LUNITS
 70
     2
  9
$LUPREC
 70
     4
  9
$SKETCHINC
 40
0.1
  9
$FILLETRAD
 40
0.0
  9
$AUNITS
 70
     0
  9
$AUPREC
 70
     0
  9
$MENU
  1
.
  9
$ELEVATION
 40
0.0
  9
$PELEVATION
 40
0.0
  9
$THICKNESS
 40
0.0
  9
$LIMCHECK
 70
     0
  9
$CHAMFERA
 40
0.0
  9
$CHAMFERB
 40
0.0
  9
$CHAMFERC
 40
0.0
  9
$CHAMFERD
 40
0.0
  9
$SKPOLY
 70
     0
  9
$TDCREATE
 40
2458249.037099549
  9
$TDUCREATE
 40
2458248.703766215
  9
$TDUPDATE
 40
2458506.395034514
  9
$TDUUPDATE
 40
2458506.061701180
  9
$TDINDWG
 40
0.0949508102
  9
$TDUSRTIMER
 40
0.0949508102
  9
$USRTIMER
 70
     1
  9
$ANGBASE
 50
0.0
  9
$ANGDIR
 70
     0
  9
$PDMODE
 70
     3
  9
$PDSIZE
 40
8.0
  9
$PLINEWID
 40
0.0
  9
$SPLFRAME
 70
     0
  9
$SPLINETYPE
 70
     6
  9
$SPLINESEGS
 70
     8
  9
$HANDSEED
  5
65FC
  9
$SURFTAB1
 70
     6
  9
$SURFTAB2
 70
     6
  9
$SURFTYPE
 70
     6
  9
$SURFU
 70
     6
  9
$SURFV
 70
     6
  9
$UCSBASE
  2

  9
$UCSNAME
  2

  9
$UCSORG
 10
0.0
 20
0.0
 30
0.0
  9
$UCSXDIR
 10
1.0
 20
0.0
 30
0.0
  9
$UCSYDIR
 10
0.0
 20
1.0
 30
0.0
  9
$UCSORTHOREF
  2

  9
$UCSORTHOVIEW
 70
     0
  9
$UCSORGTOP
 10
0.0
 20
0.0
 30
0.0
  9
$UCSORGBOTTOM
 10
0.0
 20
0.0
 30
0.0
  9
$UCSORGLEFT
 10
0.0
 20
0.0
 30
0.0
  9
$UCSORGRIGHT
 10
0.0
 20
0.0
 30
0.0
  9
$UCSORGFRONT
 10
0.0
 20
0.0
 30
0.0
  9
$UCSORGBACK
 10
0.0
 20
0.0
 30
0.0
  9
$PUCSBASE
  2

  9
$PUCSNAME
  2

  9
$PUCSORG
 10
0.0
 20
0.0
 30
0.0
  9
$PUCSXDIR
 10
1.0
 20
0.0
 30
0.0
  9
$PUCSYDIR
 10
0.0
 20
1.0
 30
0.0
  9
$PUCSORTHOREF
  2

  9
$PUCSORTHOVIEW
 70
     0
  9
$PUCSORGTOP
 10
0.0
 20
0.0
 30
0.0
  9
$PUCSORGBOTTOM
 10
0.0
 20
0.0
 30
0.0
  9
$PUCSORGLEFT
 10
0.0
 20
0.0
 30
0.0
  9
$PUCSORGRIGHT
 10
0.0
 20
0.0
 30
0.0
  9
$PUCSORGFRONT
 10
0.0
 20
0.0
 30
0.0
  9
$PUCSORGBACK
 10
0.0
 20
0.0
 30
0.0
  9
$USERI1
 70
     0
  9
$USERI2
 70
     0
  9
$USERI3
 70
     0
  9
$USERI4
 70
     0
  9
$USERI5
 70
     0
  9
$USERR1
 40
0.0
  9
$USERR2
 40
0.0
  9
$USERR3
 40
0.0
  9
$USERR4
 40
0.0
  9
$USERR5
 40
0.0
  9
$WORLDVIEW
 70
     1
  9
$SHADEDGE
 70
     3
  9
$SHADEDIF
 70
    70
  9
$TILEMODE
 70
     1
  9
$MAXACTVP
 70
    64
  9
$PINSBASE
 10
0.0
 20
0.0
 30
0.0
  9
$PLIMCHECK
 70
     0
  9
$PEXTMIN
 10
1.000000000000000E+20
 20
1.000000000000000E+20
 30
1.000000000000000E+20
  9
$PEXTMAX
 10
-1.000000000000000E+20
 20
-1.000000000000000E+20
 30
-1.000000000000000E+20
  9
$PLIMMIN
 10
0.0
 20
0.0
  9
$PLIMMAX
 10
12.0
 20
9.0
  9
$UNITMODE
 70
     0
  9
$VISRETAIN
 70
     1
  9
$PLINEGEN
 70
     0
  9
$PSLTSCALE
 70
     1
  9
$TREEDEPTH
 70
  3020
  9
$CMLSTYLE
  2
Standard
  9
$CMLJUST
 70
     0
  9
$CMLSCALE
 40
1.0
  9
$PROXYGRAPHICS
 70
     1
  9
$MEASUREMENT
 70
     1
  9
$CELWEIGHT
370
    -1
  9
$ENDCAPS
280
     0
  9
$JOINSTYLE
280
     0
  9
$LWDISPLAY
290
     0
  9
$INSUNITS
 70
     4
  9
$HYPERLINKBASE
  1

  9
$STYLESHEET
  1

  9
$XEDIT
290
     1
  9
$CEPSNTYPE
380
     0
  9
$PSTYLEMODE
290
     1
  9
$FINGERPRINTGUID
  2
{F2F7998C-03D6-45F9-A96A-CF8146DB7140}
  9
$VERSIONGUID
  2
{927479F0-693E-4432-800D-24B826B7130D}
  9
$EXTNAMES
290
     1
  9
$PSVPSCALE
 40
0.0
  9
$OLESTARTUP
290
     0
  9
$SORTENTS
280
   127
  9
$INDEXCTL
280
     0
  9
$HIDETEXT
280
     1
  9
$XCLIPFRAME
290
     0
  9
$HALOGAP
280
     0
  9
$OBSCOLOR
 70
   257
  9
$OBSLTYPE
280
     0
  9
$INTERSECTIONDISPLAY
280
     0
  9
$INTERSECTIONCOLOR
 70
   257
  9
$DIMASSOC
280
     2
  9
$PROJECTNAME
  1

  0
ENDSEC
  0
SECTION
  2
CLASSES
  0
CLASS
  1
ACDBDICTIONARYWDFLT
  2
AcDbDictionaryWithDefault
  3
ObjectDBX Classes
 90
        0
 91
        1
280
     0
281
     0
  0
CLASS
  1
MATERIAL
  2
AcDbMaterial
  3
ObjectDBX Classes
 90
        0
 91
        3
280
     0
281
     0
  0
CLASS
  1
VISUALSTYLE
  2
AcDbVisualStyle
  3
ObjectDBX Classes
 90
     4095
 91
       26
280
     0
281
     0
  0
CLASS
  1
TABLESTYLE
  2
AcDbTableStyle
  3
ObjectDBX Classes
 90
     4095
 91
        1
280
     0
281
     0
  0
CLASS
  1
SCALE
  2
AcDbScale
  3
ObjectDBX Classes
 90
     1153
 91
       33
280
     0
281
     0
  0
CLASS
  1
MLEADERSTYLE
  2
AcDbMLeaderStyle
  3
ACDB_MLEADERSTYLE_CLASS
 90
     4095
 91
        1
280
     0
281
     0
  0
CLASS
  1
CELLSTYLEMAP
  2
AcDbCellStyleMap
  3
ObjectDBX Classes
 90
     1152
 91
        2
280
     0
281
     0
  0
CLASS
  1
DICTIONARYVAR
  2
AcDbDictionaryVar
  3
ObjectDBX Classes
 90
        0
 91
        4
280
     0
281
     0
  0
CLASS
  1
DIMASSOC
  2
AcDbDimAssoc
  3
"ZcDbDimAssoc|Product Desc:     ZwDim ZRX App For Dimension|Company:          ZwSoft.|WEB Address:      www.zwsoft.com"
 90
        0
 91
        0
280
     0
281
     0
  0
CLASS
  1
SORTENTSTABLE
  2
AcDbSortentsTable
  3
ObjectDBX Classes
 90
        0
 91
        1
280
     0
281
     0
  0
CLASS
  1
SUN
  2
AcDbSun
  3
SCENEOE
 90
     1024
 91
        1
280
     0
281
     0
  0
ENDSEC
  0
SECTION
  2
TABLES
  0
TABLE
  2
VPORT
  5
8
330
0
100
AcDbSymbolTable
 70
     3
  0
VPORT
  5
65F8
330
8
100
AcDbSymbolTableRecord
100
AcDbViewportTableRecord
  2
*Active
 70
     0
 10
0.0
 20
0.0
 11
1.0
 21
1.0
 12
51153.51291547076
 22
11118.09236094564
 13
0.0
 23
0.0
 14
1.0
 24
1.0
 15
0.0
 25
0.0
 16
0.0
 26
0.0
 36
1.0
 17
0.0
 27
0.0
 37
0.0
 40
3555.066618594812
 41
3.584
 42
50.0
 43
0.0
 44
0.0
 50
0.0
 51
0.0
 71
     0
 72
   100
 73
     1
 74
     1
 75
     1
 76
     0
 77
     0
 78
     0
281
     0
 65
     1
110
0.0
120
0.0
130
0.0
111
1.0
121
0.0
131
0.0
112
0.0
122
1.0
132
0.0
 79
     0
146
0.0
  0
ENDTAB
  0
TABLE
  2
LTYPE
  5
5
330
0
100
AcDbSymbolTable
 70
     1
  0
LTYPE
  5
14
330
5
100
AcDbSymbolTableRecord
100
AcDbLinetypeTableRecord
  2
BYBLOCK
 70
     0
  3

 72
    65
 73
     0
 40
0.0
  0
LTYPE
  5
15
330
5
100
AcDbSymbolTableRecord
100
AcDbLinetypeTableRecord
  2
BYLAYER
 70
     0
  3

 72
    65
 73
     0
 40
0.0
  0
LTYPE
  5
16
330
5
100
AcDbSymbolTableRecord
100
AcDbLinetypeTableRecord
  2
CONTINUOUS
 70
     0
  3
Solid line
 72
    65
 73
     0
 40
0.0
  0
ENDTAB
  0
TABLE
  2
LAYER
  5
2
102
{ACAD_XDICTIONARY
360
38E
102
}
330
0
100
AcDbSymbolTable
 70
     6
  0
LAYER
  5
10
330
2
100
AcDbSymbolTableRecord
100
AcDbLayerTableRecord
  2
0
 70
     0
 62
     7
  6
CONTINUOUS
370
    -3
390
F
  0
LAYER
  5
351
330
2
100
AcDbSymbolTableRecord
100
AcDbLayerTableRecord
  2
Defpoints
 70
     0
 62
     7
  6
CONTINUOUS
290
     0
370
    -3
390
F
  0
LAYER
  5
5D2B
330
2
100
AcDbSymbolTableRecord
100
AcDbLayerTableRecord
  2
02___PRT_ALL_AXES
 70
     0
 62
     7
  6
CONTINUOUS
370
    -3
390
F
  0
LAYER
  5
5D2C
330
2
100
AcDbSymbolTableRecord
100
AcDbLayerTableRecord
  2
06___PRT_ALL_SURFS
 70
     0
 62
     7
  6
CONTINUOUS
370
    -3
390
F
  0
LAYER
  5
5E8B
330
2
100
AcDbSymbolTableRecord
100
AcDbLayerTableRecord
  2
11111外轮廓线
 70
     0
 62
   255
  6
CONTINUOUS
370
     5
390
F
1001
AcAecLayerStandard
1000

1000

  0
LAYER
  5
5E8C
330
2
100
AcDbSymbolTableRecord
100
AcDbLayerTableRecord
  2
11111尺寸标注
 70
     0
 62
    -3
  6
CONTINUOUS
370
     5
390
F
1001
AcAecLayerStandard
1000

1000

  0
ENDTAB
  0
TABLE
  2
STYLE
  5
3
330
0
100
AcDbSymbolTable
 70
     2
  0
STYLE
  5
11
330
3
100
AcDbSymbolTableRecord
100
AcDbTextStyleTableRecord
  2
STANDARD
 70
     0
 40
0.0
 41
0.85
 50
0.0
 71
     0
 42
0.2
  3
txt
  4

  0
STYLE
  5
5E8D
330
3
100
AcDbSymbolTableRecord
100
AcDbTextStyleTableRecord
  2
TT宋体
 70
     0
 40
0.0
 41
1.0
 50
0.0
 71
     0
 42
2.5
  3
arial.ttf
  4

1001
ACAD
1000
Arial
1071
       34
  0
ENDTAB
  0
TABLE
  2
VIEW
  5
6
330
0
100
AcDbSymbolTable
 70
     0
  0
ENDTAB
  0
TABLE
  2
UCS
  5
7
330
0
100
AcDbSymbolTable
 70
     0
  0
ENDTAB
  0
TABLE
  2
APPID
  5
9
330
0
100
AcDbSymbolTable
 70
    10
  0
APPID
  5
1FF
330
9
100
AcDbSymbolTableRecord
100
AcDbRegAppTableRecord
  2
ACAD
 70
     0
  0
APPID
  5
343
330
9
100
AcDbSymbolTableRecord
100
AcDbRegAppTableRecord
  2
ACAD_MLEADERVER
 70
     0
  0
APPID
  5
389
330
9
100
AcDbSymbolTableRecord
100
AcDbRegAppTableRecord
  2
ACAD_DSTYLE_DIMJAG
 70
     0
  0
APPID
  5
38A
330
9
100
AcDbSymbolTableRecord
100
AcDbRegAppTableRecord
  2
ACAD_DSTYLE_DIMTALN
 70
     0
  0
APPID
  5
38B
330
9
100
AcDbSymbolTableRecord
100
AcDbRegAppTableRecord
  2
ACAD_PSEXT
 70
     0
  0
APPID
  5
38C
330
9
100
AcDbSymbolTableRecord
100
AcDbRegAppTableRecord
  2
AcAecLayerStandard
 70
     0
  0
APPID
  5
38D
330
9
100
AcDbSymbolTableRecord
100
AcDbRegAppTableRecord
  2
ACAD_DSTYLE_DIMBREAK
 70
     0
  0
APPID
  5
12E1
330
9
100
AcDbSymbolTableRecord
100
AcDbRegAppTableRecord
  2
ACAD_EXEMPT_FROM_CAD_STANDARDS
 70
     0
  0
APPID
  5
617A
330
9
100
AcDbSymbolTableRecord
100
AcDbRegAppTableRecord
  2
ACAD_SPLINE_DATA
 70
     0
  0
APPID
  5
617B
330
9
100
AcDbSymbolTableRecord
100
AcDbRegAppTableRecord
  2
ACAD_SPLINE_DATA2
 70
     0
  0
ENDTAB
  0
TABLE
  2
DIMSTYLE
  5
A
330
0
100
AcDbSymbolTable
 70
     2
100
AcDbDimStyleTable
 71
     1
340
202
  0
DIMSTYLE
105
202
330
A
100
AcDbSymbolTableRecord
100
AcDbDimStyleTableRecord
  2
STANDARD
 70
     0
 41
3.5
 42
1.0
 44
1.5
 47
0.01
 48
0.01
 71
     1
 73
     0
 74
     0
 77
     1
 78
     8
140
3.5
147
0.625
271
     2
272
     2
278
    44
284
     8
340
11
  0
DIMSTYLE
105
5E8E
330
A
100
AcDbSymbolTableRecord
100
AcDbDimStyleTableRecord
  2
新标注1比10
 70
     0
 40
12.0
 41
1.8
 42
1.0
 43
3.75
 44
1.0
 73
     0
 74
     0
 77
     1
 78
     8
140
2.5
141
1.0
143
0.03937007874016
147
1.0
171
     3
172
     1
176
   256
177
   256
178
     3
271
     0
272
     0
274
     3
284
     8
340
5E8D
1001
ACAD_DSTYLE_DIMJAG
1070
   388
1040
1.5
1001
ACAD_DSTYLE_DIMTALN
1070
   392
1070
     0
  0
ENDTAB
  0
TABLE
  2
BLOCK_RECORD
  5
1
330
0
100
AcDbSymbolTable
 70
     0
  0
BLOCK_RECORD
  5
200
102
{ACAD_XDICTIONARY
360
467B
102
}
330
1
100
AcDbSymbolTableRecord
100
AcDbBlockTableRecord
  2
*Model_Space
340
2EE
  0
BLOCK_RECORD
  5
201
330
1
100
AcDbSymbolTableRecord
100
AcDbBlockTableRecord
  2
*Paper_Space
340
2EF
  0
ENDTAB
  0
ENDSEC
  0
SECTION
  2
BLOCKS
  0
BLOCK
  5
20
330
200
100
AcDbEntity
  8
0
100
AcDbBlockBegin
  2
*Model_Space
 70
     0
 10
0.0
 20
0.0
 30
0.0
  3
*Model_Space
  1

  0
ENDBLK
  5
21
330
200
100
AcDbEntity
  8
0
100
AcDbBlockEnd
  0
BLOCK
  5
1C
330
201
100
AcDbEntity
 67
     1
  8
0
100
AcDbBlockBegin
  2
*Paper_Space
 70
     0
 10
0.0
 20
0.0
 30
0.0
  3
*Paper_Space
  1

  0
ENDBLK
  5
1D
330
201
100
AcDbEntity
 67
     1
  8
0
100
AcDbBlockEnd
  0
ENDSEC
  0
SECTION
  2
ENTITIES
  0
MTEXT
  5
399
330
200
100
AcDbEntity
  8
0
100
AcDbMText
 10
48343.07764527027
 20
12424.0
 30
0.0
 40
75.0
 41
29.92235472972973
 71
     1
 72
     5
  1
{\fSimSun|b0|i0|c134|p2;SCALE  1:1}
 73
     1
 44
1.0
  0
LINE
  5
658A
330
200
100
AcDbEntity
  8
11111外轮廓线
 62
     7
370
     9
100
AcDbLine
 10
48335.15096583445
 20
11634.6136197256
 30
0.0
 11
48335.15175323575
 21
11634.6136440435
 31
0.0
  0
LINE
  5
658B
330
200
100
AcDbEntity
  8
11111外轮廓线
 62
     7
370
     9
100
AcDbLine
 10
48049.31964510135
 20
11634.6136440435
 30
0.0
 11
48049.32043251715
 21
11634.61361970251
 31
0.0
  0
LWPOLYLINE
  5
658C
330
200
100
AcDbEntity
  8
11111外轮廓线
 62
     7
370
     9
100
AcDbPolyline
 90
        5
 70
     0
 43
0.0
 10
48014.00019144284
 20
12005.013422365
 10
48019.26848987845
 20
11923.0584904453
 10
48025.75012357925
 20
11844.15786296781
 10
48033.11068163035
 20
11769.63125378291
 10
48041.09686712895
 20
11699.4185034204
  0
LINE
  5
658D
330
200
100
AcDbEntity
  8
11111外轮廓线
 62
     7
370
     9
100
AcDbLine
 10
48014.00021202505
 20
12005.0130490469
 30
0.0
 11
48014.00020952124
 21
12005.013104641
 31
0.0
  0
LINE
  5
658E
330
200
100
AcDbEntity
  8
11111外轮廓线
 62
     7
370
     9
100
AcDbLine
 10
48041.09686712895
 20
11699.4185034204
 30
0.0
 11
48049.32046360276
 21
11634.6133747362
 31
0.0
  0
LWPOLYLINE
  5
658F
330
200
100
AcDbEntity
  8
11111外轮廓线
 62
     7
370
     9
100
AcDbPolyline
 90
        7
 70
     0
 43
0.0
 10
48370.47132712715
 20
12005.0135331924
 10
48370.45902747944
 20
12006.1917862625
 10
48369.85981159485
 20
12008.80466914621
 10
48368.51758405704
 20
12011.1251597539
 10
48366.55142366073
 20
12012.9473852364
 10
48364.13576360835
 20
12014.1096779458
 10
48361.48491500975
 20
12014.50891697851
  0
LINE
  5
6590
330
200
100
AcDbEntity
  8
11111外轮廓线
 62
     7
370
     9
100
AcDbLine
 10
48370.47118862715
 20
12005.0131018882
 30
0.0
 11
48370.47118602495
 21
12005.0130436285
 31
0.0
  0
LWPOLYLINE
  5
6591
330
200
100
AcDbEntity
  8
11111外轮廓线
 62
     7
370
     9
100
AcDbPolyline
 90
        6
 70
     0
 43
0.0
 10
48335.15093474593
 20
11634.6133747362
 10
48343.37452971815
 20
11699.4184909826
 10
48351.36071398255
 20
11769.631228121
 10
48358.72127116314
 20
11844.1578232493
 10
48365.20290445966
 20
11923.0584358245
 10
48370.47120684776
 20
12005.01342130991
  0
LINE
  5
6592
330
200
100
AcDbEntity
  8
11111外轮廓线
 62
     7
370
     9
100
AcDbLine
 10
48361.49375861364
 20
12014.50891697851
 30
0.0
 11
48022.97710968685
 21
12014.50891697851
 31
0.0
  0
LWPOLYLINE
  5
6593
330
200
100
AcDbEntity
  8
11111外轮廓线
 62
     7
370
     9
100
AcDbPolyline
 90
        7
 70
     0
 43
0.0
 10
48022.98649232075
 20
12014.50891697851
 10
48020.33564752005
 20
12014.10967838631
 10
48017.91998988385
 20
12012.9473863845
 10
48015.95383084435
 20
12011.1251613606
 10
48014.61160384425
 20
12008.8046707193
 10
48014.01238794605
 20
12006.19178716771
 10
48014.00008839736
 20
12005.0135303462
  0
LINE
  5
6594
330
200
100
AcDbEntity
  8
11111外轮廓线
 62
     7
370
     9
100
AcDbLine
 10
48365.33302318939
 20
11415.49368909935
 30
0.0
 11
48361.3390772214
 21
11415.49439430855
 31
0.0
  0
LINE
  5
6595
330
200
100
AcDbEntity
  8
11111外轮廓线
 62
     7
370
     9
100
AcDbLine
 10
48023.13233113761
 20
11410.49363819965
 30
0.0
 11
48361.33907708849
 21
11410.49363818315
 31
0.0
  0
LWPOLYLINE
  5
6596
330
200
100
AcDbEntity
  8
11111外轮廓线
 62
     7
370
     9
100
AcDbPolyline
 90
       10
 70
     0
 43
0.0
 10
48017.29058686748
 20
11006.60842930235
 10
48024.51578508949
 20
10980.22543406785
 10
48035.96244096079
 20
10954.67710582805
 10
48051.04663788928
 20
10931.53827738495
 10
48069.44536159318
 20
10911.09940207775
 10
48090.89480829008
 20
10893.69986180624
 10
48114.863411099
 20
10879.77326455635
 10
48140.54783330118
 20
10869.69022842945
 10
48167.11230341909
 20
10863.72866980485
 10
48192.24108585981
 20
10862.00008777085
  0
LINE
  5
6597
330
200
100
AcDbEntity
  8
11111外轮廓线
 62
     7
370
     9
100
AcDbLine
 10
48023.1323311384
 20
11415.49363816415
 30
0.0
 11
48023.1323311384
 21
11410.49363819965
 31
0.0
  0
LWPOLYLINE
  5
6598
330
200
100
AcDbEntity
  8
11111外轮廓线
 62
     7
370
     9
100
AcDbPolyline
 90
        4
 70
     0
 43
0.0
 10
48014.13233157809
 20
11410.48860723505
 10
48014.12253222329
 20
11293.33246523185
 10
48014.14846191341
 20
11185.05345988785
 10
48014.50717027578
 20
11088.25472666265
  0
LWPOLYLINE
  5
6599
330
200
100
AcDbEntity
  8
11111外轮廓线
 62
     7
370
     9
100
AcDbPolyline
 90
        4
 70
     0
 43
0.0
 10
48014.5071652135
 20
11088.25472663145
 10
48014.0922232701
 20
11058.68256936374
 10
48014.42107714559
 20
11030.53889128755
 10
48017.2905837962
 20
11006.60842870145
  0
LINE
  5
659A
330
200
100
AcDbEntity
  8
11111外轮廓线
 62
     7
370
     9
100
AcDbLine
 10
48361.3390770879
 20
11415.49363816415
 30
0.0
 11
48361.33907722469
 21
11410.49363820175
 31
0.0
  0
LWPOLYLINE
  5
659B
330
200
100
AcDbEntity
  8
11111外轮廓线
 62
     7
370
     9
100
AcDbPolyline
 90
        4
 70
     0
 43
0.0
 10
48369.964237972
 20
11088.25472671665
 10
48370.32312080141
 20
11185.16575174715
 10
48370.34881657889
 20
11293.44472625675
 10
48370.33907663561
 20
11410.48860722055
  0
LWPOLYLINE
  5
659C
330
200
100
AcDbEntity
  8
11111外轮廓线
 62
     7
370
     9
100
AcDbPolyline
 90
        4
 70
     0
 43
0.0
 10
48367.1808244967
 20
11006.60842924945
 10
48370.0567161744
 20
11030.65286028345
 10
48370.377239983
 20
11058.79465251765
 10
48369.96424279699
 20
11088.25472668685
  0
LWPOLYLINE
  5
659D
330
200
100
AcDbEntity
  8
11111外轮廓线
 62
     7
370
     9
100
AcDbPolyline
 90
       10
 70
     0
 43
0.0
 10
48192.24107267739
 20
10862.00002932045
 10
48217.5343564531
 20
10863.75398541866
 10
48244.1249999433
 20
10869.75238215215
 10
48269.80324751088
 20
10879.86679358145
 10
48293.74172182398
 20
10893.81457667445
 10
48315.1461972363
 20
10911.21331185425
 10
48333.4984306286
 20
10931.63597258055
 10
48348.55058584248
 20
10954.75126174875
 10
48359.97917657329
 20
10980.29504092025
 10
48367.18098150541
 20
11006.60839867485
  0
CIRCLE
  5
659E
330
200
100
AcDbEntity
  8
11111外轮廓线
 62
     7
370
     9
100
AcDbCircle
 10
48266.23570721308
 20
11321.74898203225
 30
0.0
 40
7.5
  0
CIRCLE
  5
659F
330
200
100
AcDbEntity
  8
11111外轮廓线
 62
     7
370
     9
100
AcDbCircle
 10
48118.23570721309
 20
11321.74898203225
 30
0.0
 40
7.5
  0
ARC
  5
65A0
330
200
100
AcDbEntity
  8
11111外轮廓线
 62
     7
370
     9
100
AcDbCircle
 10
48019.13259580579
 20
11410.49368643345
 30
0.0
 40
5.0
100
AcDbArc
 50
90.00129894239789
 51
180.0582002895489
  0
ARC
  5
65A1
330
200
100
AcDbEntity
  8
11111外轮廓线
 62
     7
370
     9
100
AcDbCircle
 10
48365.3388124189
 20
11410.49368643345
 30
0.0
 40
5.0
100
AcDbArc
 50
359.9417995441152
 51
89.99844401670607
  0
LINE
  5
65A2
330
200
100
AcDbEntity
  8
11111外轮廓线
 62
     7
370
     9
100
AcDbLine
 10
48335.18055917654
 20
11634.83158089701
 30
0.0
 11
48335.15175323575
 21
11634.6136439323
 31
0.0
  0
LINE
  5
65A3
330
200
100
AcDbEntity
  8
11111外轮廓线
 62
     7
370
     9
100
AcDbLine
 10
48049.31964510135
 20
11634.61364401991
 30
0.0
 11
48049.29084335785
 21
11634.8315485764
 31
0.0
  0
SPLINE
  5
65A4
330
200
100
AcDbEntity
  8
11111外轮廓线
 62
     7
370
     9
100
AcDbSpline
210
0.0
220
0.0
230
1.0
 70
     8
 71
     3
 72
    17
 73
    13
 74
    11
 42
0.0000000001
 43
0.0000000001
 44
0.0000000001
 12
-0.9999513579640876
 22
-0.0098631488773791
 32
0.0
 13
-0.9999999680069626
 23
0.0002529546876271
 33
0.0
 40
0.0
 40
0.0
 40
0.0
 40
0.0
 40
6.808682333215028
 40
16.95421032616054
 40
30.253198540043
 40
46.45447145716425
 40
65.31544104451036
 40
86.68701979360486
 40
109.9373339976936
 40
133.3540232881598
 40
155.2709285294906
 40
174.9238399773903
 40
174.9238399773903
 40
174.9238399773903
 40
174.9238399773903
 10
48367.15780082045
 20
12004.8595732679
 30
0.0
 10
48364.88835043876
 20
12004.83718825206
 30
0.0
 10
48359.23740349569
 20
12004.76461639971
 30
0.0
 10
48349.15349129301
 20
12004.66405069839
 30
0.0
 10
48335.93854506247
 20
12004.57048513425
 30
0.0
 10
48319.81834030691
 20
12004.48783822544
 30
0.0
 10
48301.00717794413
 20
12004.42074027644
 30
0.0
 10
48279.84626111034
 20
12004.37806688861
 30
0.0
 10
48257.16674748274
 20
12004.35205491201
 30
0.0
 10
48234.30544846748
 20
12004.33747472775
 30
0.0
 10
48212.6432802609
 20
12004.33156282768
 30
0.0
 10
48198.78667438648
 20
12004.33237212141
 30
0.0
 10
48192.23570411343
 20
12004.3340292201
 30
0.0
 11
48367.15780082045
 21
12004.8595732679
 31
0.0
 11
48360.34956595744
 21
12004.78151454131
 31
0.0
 11
48350.20455826895
 21
12004.67876603261
 31
0.0
 11
48336.90592766963
 21
12004.58123810909
 31
0.0
 11
48320.70487753064
 21
12004.4962761822
 31
0.0
 11
48301.84403045874
 21
12004.42829453211
 31
0.0
 11
48280.47250120923
 21
12004.3822970717
 31
0.0
 11
48257.22220412205
 21
12004.3540845433
 31
0.0
 11
48233.80551993345
 21
12004.33862694201
 31
0.0
 11
48211.88861551173
 21
12004.3326330284
 31
0.0
 11
48192.23570411343
 21
12004.3340292201
 31
0.0
  0
SPLINE
  5
65A5
330
200
100
AcDbEntity
  8
11111外轮廓线
 62
     7
370
     9
100
AcDbSpline
210
0.0
220
0.0
230
1.0
 70
     8
 71
     3
 72
     9
 73
     5
 74
     3
 42
0.0000000001
 43
0.0000000001
 44
0.0000000001
 12
0.8598017978340443
 22
-0.5106279158461132
 32
0.0
 13
-0.9998132147454967
 23
-0.0193270696246294
 33
0.0
 40
0.0
 40
0.0
 40
0.0
 40
0.0
 40
0.8462708526616376
 40
3.309758801130285
 40
3.309758801130285
 40
3.309758801130285
 40
3.309758801130285
 10
48370.46378923655
 20
12005.00058882181
 30
0.0
 10
48370.70633097008
 20
12004.8565456479
 30
0.0
 10
48368.32121167939
 20
12005.05561405396
 30
0.0
 10
48367.97881008886
 20
12004.8754439356
 30
0.0
 10
48367.15780082045
 20
12004.8595732679
 30
0.0
 11
48370.46378923655
 21
12005.00058882181
 31
0.0
 11
48369.62017773855
 21
12004.9335515449
 31
0.0
 11
48367.15780082045
 21
12004.8595732679
 31
0.0
  0
SPLINE
  5
65A6
330
200
100
AcDbEntity
  8
11111外轮廓线
 62
     7
370
     9
100
AcDbSpline
210
0.0
220
0.0
230
1.0
 70
     8
 71
     3
 72
    26
 73
    22
 74
    20
 42
0.0000000001
 43
0.0000000001
 44
0.0000000001
 12
-0.9999999679785666
 22
-0.0002530669200969
 32
0.0
 13
-0.9999513132901933
 23
0.0098676769919622
 33
0.0
 40
0.0
 40
0.0
 40
0.0
 40
0.0
 40
24.26267966558574
 40
46.81413549854034
 40
66.48828819988295
 40
83.22112298283144
 40
97.39635751174787
 40
109.4601573422093
 40
119.7018766471252
 40
128.3003018724753
 40
135.4802517023627
 40
141.5690579697217
 40
146.9035197059834
 40
151.7501409515061
 40
156.2372228128283
 40
160.3533171137668
 40
164.0515681159354
 40
167.3105872531718
 40
170.1671871430859
 40
172.699207138766
 40
174.9238607836437
 40
174.9238607836437
 40
174.9238607836437
 40
174.9238607836437
 10
48192.23570411305
 20
12004.3340292225
 30
0.0
 10
48184.1481444835
 20
12004.33198252863
 30
0.0
 10
48168.54343210194
 20
12004.33175472018
 30
0.0
 10
48146.38067029174
 20
12004.33943597493
 30
0.0
 10
48126.72786030605
 20
12004.35333863876
 30
0.0
 10
48109.86712952144
 20
12004.37214090887
 30
0.0
 10
48095.54319183273
 20
12004.39581592869
 30
0.0
 10
48083.38297325459
 20
12004.42459159235
 30
0.0
 10
48073.08171139211
 20
12004.45797576673
 30
0.0
 10
48064.40841465534
 20
12004.49251356309
 30
0.0
 10
48057.11943397711
 20
12004.52674800085
 30
0.0
 10
48050.91845227034
 20
12004.56043089917
 30
0.0
 10
48045.49525885247
 20
12004.59392955983
 30
0.0
 10
48040.6059864777
 20
12004.62766723021
 30
0.0
 10
48036.12285432383
 20
12004.66235414352
 30
0.0
 10
48032.0225323487
 20
12004.69796428554
 30
0.0
 10
48028.33159208351
 20
12004.73463277266
 30
0.0
 10
48025.06049906921
 20
12004.77056664463
 30
0.0
 10
48022.17814875286
 20
12004.80419984539
 30
0.0
 10
48019.64057054598
 20
12004.83436455647
 30
0.0
 10
48018.05511263962
 20
12004.85225588003
 30
0.0
 10
48017.31359752835
 20
12004.8595732679
 30
0.0
 11
48192.23570411305
 21
12004.3340292225
 31
0.0
 11
48167.97302445965
 21
12004.3332603236
 31
0.0
 11
48145.42157003034
 21
12004.34121700261
 31
0.0
 11
48125.74742249704
 21
12004.35547721101
 31
0.0
 11
48109.01459877316
 21
12004.37471516551
 31
0.0
 11
48094.83938470634
 21
12004.3988006359
 31
0.0
 11
48082.77562004525
 21
12004.42793053851
 31
0.0
 11
48072.53395453916
 21
12004.4611266497
 31
0.0
 11
48063.93559807035
 21
12004.4955125682
 31
0.0
 11
48056.75572824966
 21
12004.5294082541
 31
0.0
 11
48050.66701246626
 21
12004.5626026874
 31
0.0
 11
48045.33265283565
 21
12004.5956079443
 31
0.0
 11
48040.48614797864
 21
12004.62919616591
 31
0.0
 11
48035.99920148455
 21
12004.6640499943
 31
0.0
 11
48031.88326485476
 21
12004.7000771193
 31
0.0
 11
48028.18519593976
 21
12004.7367755518
 31
0.0
 11
48024.92637190445
 21
12004.7724356658
 31
0.0
 11
48022.06996421643
 21
12004.8055725177
 31
0.0
 11
48019.53811887396
 21
12004.8353117225
 31
0.0
 11
48017.31359752835
 21
12004.8595732679
 31
0.0
  0
SPLINE
  5
65A7
330
200
100
AcDbEntity
  8
11111外轮廓线
 62
     7
370
     9
100
AcDbSpline
210
0.0
220
0.0
230
1.0
 70
     8
 71
     3
 72
     9
 73
     5
 74
     3
 42
0.0000000001
 43
0.0000000001
 44
0.0000000001
 12
-0.9998132121937633
 22
0.0193272016284996
 32
0.0
 13
0.8666086362023914
 23
0.4989884484228383
 33
0.0
 40
0.0
 40
0.0
 40
0.0
 40
0.0
 40
2.471118936415585
 40
3.310658763576861
 40
3.310658763576861
 40
3.310658763576861
 40
3.310658763576861
 10
48017.31359752835
 20
12004.8595732679
 30
0.0
 10
48016.4900450745
 20
12004.87549320587
 30
0.0
 10
48016.15236610134
 20
12005.0497281997
 30
0.0
 10
48013.76427399943
 20
12004.86198206595
 30
0.0
 10
48014.00679148764
 20
12005.0016222912
 30
0.0
 11
48017.31359752835
 21
12004.8595732679
 31
0.0
 11
48014.84359738284
 21
12004.93392432111
 31
0.0
 11
48014.00679148764
 21
12005.0016222912
 31
0.0
  0
SPLINE
  5
65A8
330
200
100
AcDbEntity
  8
11111外轮廓线
 62
     7
370
     9
100
AcDbSpline
210
0.0
220
0.0
230
1.0
 70
     8
 71
     3
 72
    16
 73
    12
 74
    10
 42
0.0000000001
 43
0.0000000001
 44
0.0000000001
 12
-0.9999539491609485
 22
-0.0095968514327919
 32
0.0
 13
-0.19631462019729
 23
0.9805409577864628
 33
0.0
 40
0.0
 40
0.0
 40
0.0
 40
0.0
 40
18.93696191583806
 40
39.03662303220063
 40
59.56888968143605
 40
79.8851265100539
 40
99.7944275958639
 40
119.748835531675
 40
139.8827587235514
 40
160.0322442799738
 40
181.047264664611
 40
181.047264664611
 40
181.047264664611
 40
181.047264664611
 10
48192.2360409426
 20
10908.14531815515
 30
0.0
 10
48185.92401099165
 20
10908.08473975178
 30
0.0
 10
48172.88343553585
 20
10909.03115423029
 30
0.0
 10
48153.46069704381
 20
10913.49604507483
 30
0.0
 10
48134.49708789021
 20
10921.00250165027
 30
0.0
 10
48116.94305965578
 20
10931.2605681496
 30
0.0
 10
48101.31781743981
 20
10943.96818818831
 30
0.0
 10
48087.89370451798
 20
10958.89943359492
 30
0.0
 10
48076.85787771864
 20
10975.7690894806
 30
0.0
 10
48068.38938838808
 20
10994.44981999243
 30
0.0
 10
48064.7173213035
 20
11007.73643821209
 30
0.0
 10
48063.34213605508
 20
11014.60513428405
 30
0.0
 11
48192.2360409426
 21
10908.14531815515
 31
0.0
 11
48173.34538414038
 21
10909.46880301815
 31
0.0
 11
48153.7500161119
 21
10913.94294302725
 31
0.0
 11
48134.6592447593
 21
10921.50048382555
 31
0.0
 11
48117.12588682789
 21
10931.76356516235
 31
0.0
 11
48101.68647643568
 21
10944.33356422624
 31
0.0
 11
48088.33653210319
 21
10959.16452449144
 31
0.0
 11
48077.3140951792
 21
10976.01328549495
 31
0.0
 11
48068.9917246191
 21
10994.36376005145
 31
0.0
 11
48063.34213605508
 21
11014.60513428405
 31
0.0
  0
SPLINE
  5
65A9
330
200
100
AcDbEntity
  8
11111外轮廓线
 62
     7
370
     9
100
AcDbSpline
210
0.0
220
0.0
230
1.0
 70
     8
 71
     3
 72
    15
 73
    11
 74
     9
 42
0.0000000001
 43
0.0000000001
 44
0.0000000001
 12
-0.1962927558089856
 22
0.9805453350135904
 32
0.0
 13
-0.0064268265701452
 23
0.9999793477368609
 33
0.0
 40
0.0
 40
0.0
 40
0.0
 40
0.0
 40
6.432126901995185
 40
13.48476012746794
 40
21.2339030786274
 40
29.75089146860476
 40
39.12125784036619
 40
49.43953416633586
 40
60.71539838112602
 40
73.03462694643633
 40
73.03462694643633
 40
73.03462694643633
 40
73.03462694643633
 10
48063.3421360681
 20
11014.60513427635
 30
0.0
 10
48062.92127609633
 20
11016.70746495233
 30
0.0
 10
48062.19841206741
 20
11021.14757583727
 30
0.0
 10
48061.46373387679
 20
11028.19018804469
 30
0.0
 10
48061.01922127253
 20
11035.95268680963
 30
0.0
 10
48060.84467642741
 20
11044.49791466767
 30
0.0
 10
48060.92288392918
 20
11053.90020568508
 30
0.0
 10
48061.15097950726
 20
11064.21917986794
 30
0.0
 10
48061.38756780076
 20
11075.52116620275
 30
0.0
 10
48061.43859472541
 20
11083.38673810183
 30
0.0
 10
48061.41220354358
 20
11087.49306281695
 30
0.0
 11
48063.3421360681
 21
11014.60513427635
 31
0.0
 11
48062.2899889047
 21
11020.95062423615
 31
0.0
 11
48061.540042418
 21
11027.96327107455
 31
0.0
 11
48061.07909599369
 21
11035.69869251565
 31
0.0
 11
48060.8893415725
 21
11044.21356682445
 31
0.0
 11
48060.94074126069
 21
11053.58379222265
 31
0.0
 11
48061.14200223478
 21
11063.90010553504
 31
0.0
 11
48061.3543500856
 21
11075.17397009785
 31
0.0
 11
48061.41220354358
 21
11087.49306281695
 31
0.0
  0
SPLINE
  5
65AA
330
200
100
AcDbEntity
  8
11111外轮廓线
 62
     7
370
     9
100
AcDbSpline
210
0.0
220
0.0
230
1.0
 70
     8
 71
     3
 72
    10
 73
     6
 74
     4
 42
0.0000000001
 43
0.0000000001
 44
0.0000000001
 12
-0.0064315240915339
 22
0.9999793175350479
 32
0.0
 13
-0.0026415016126759
 23
0.9999965112285293
 33
0.0
 40
0.0
 40
0.0
 40
0.0
 40
0.0
 40
23.26465154321898
 40
46.77828011906629
 40
70.53623045544513
 40
70.53623045544513
 40
70.53623045544513
 40
70.53623045544513
 10
48061.4122035501
 20
11087.49306283865
 30
0.0
 10
48061.36232782781
 20
11095.24778629628
 30
0.0
 10
48061.27368698334
 20
11110.84030066449
 30
0.0
 10
48061.17152194667
 20
11134.3521611296
 30
0.0
 10
48061.12179285245
 20
11150.10927948664
 30
0.0
 10
48061.10087396441
 20
11158.02856863675
 30
0.0
 11
48061.4122035501
 21
11087.49306283865
 31
0.0
 11
48061.27932507228
 21
11110.75733490415
 31
0.0
 11
48061.1765123475
 21
11134.27073870595
 31
0.0
 11
48061.10087396441
 21
11158.02856863675
 31
0.0
  0
SPLINE
  5
65AB
330
200
100
AcDbEntity
  8
11111外轮廓线
 62
     7
370
     9
100
AcDbSpline
210
0.0
220
0.0
230
1.0
 70
     8
 71
     3
 72
    58
 73
    54
 74
    52
 42
0.0000000001
 43
0.0000000001
 44
0.0000000001
 12
-0.0026266707651972
 22
0.9999965502943954
 32
0.0
 13
-0.0026238307267595
 23
-0.9999965577502342
 33
0.0
 40
0.0
 40
0.0
 40
0.0
 40
0.0
 40
8.561100178411209
 40
15.8916616739831
 40
22.6119283267073
 40
29.2834136995857
 40
36.10310268999416
 40
42.9252021033978
 40
49.71263959347957
 40
56.49851135213232
 40
63.27405543365141
 40
70.01438020037382
 40
76.7184272543608
 40
83.38785425149144
 40
90.01711282988457
 40
96.65023682335259
 40
103.4236524659832
 40
110.4204252576806
 40
117.597267271581
 40
124.8923193323199
 40
132.2369637102635
 40
139.5545616218144
 40
146.7615087024587
 40
153.7705553528813
 40
160.5861526045739
 40
167.3753777438992
 40
174.2296490520708
 40
181.1154766097706
 40
187.9690091391387
 40
194.7552566009038
 40
201.5720380214114
 40
208.5897801561876
 40
215.8090783518652
 40
223.1418662597544
 40
230.5031039409474
 40
237.8139228772813
 40
245.0021614536423
 40
252.0021501999632
 40
258.7701451747374
 40
265.4031547462735
 40
272.0439212494544
 40
278.7071762796613
 40
285.3614722369437
 40
292.0285246219128
 40
298.7340749897518
 40
305.4682166643079
 40
312.2244411513744
 40
319.0169405816301
 40
325.8044231758513
 40
332.4593284779471
 40
339.1728600029032
 40
346.4864777719051
 40
355.0102655251141
 40
355.0102655251141
 40
355.0102655251141
 40
355.0102655251141
 10
48061.1008739564
 20
11158.02856864085
 30
0.0
 10
48061.09337822587
 20
11160.88225885589
 30
0.0
 10
48061.39789354253
 20
11166.18654916074
 30
0.0
 10
48062.680429899
 20
11173.62673648308
 30
0.0
 10
48064.52260329633
 20
11180.29456165744
 30
0.0
 10
48066.9062304191
 20
11186.60550527238
 30
0.0
 10
48069.85343302859
 20
11192.7111718403
 30
0.0
 10
48073.32830281766
 20
11198.5766491392
 30
0.0
 10
48077.25527795841
 20
11204.13464316184
 30
0.0
 10
48081.58077797071
 20
11209.36738986409
 30
0.0
 10
48086.25888345189
 20
11214.26490888
 30
0.0
 10
48091.2396399588
 20
11218.81317517257
 30
0.0
 10
48096.47909162683
 20
11223.00382700549
 30
0.0
 10
48101.94302731932
 20
11226.83276258841
 30
0.0
 10
48107.61505647374
 20
11230.30061970487
 30
0.0
 10
48113.5174384341
 20
11233.4340303808
 30
0.0
 10
48119.70504765732
 20
11236.26602979031
 30
0.0
 10
48126.21307444397
 20
11238.80575721099
 30
0.0
 10
48133.01576293849
 20
11241.03824472954
 30
0.0
 10
48140.03654586338
 20
11242.94544482246
 30
0.0
 10
48147.18612082103
 20
11244.52355565824
 30
0.0
 10
48154.36832928014
 20
11245.78306717098
 30
0.0
 10
48161.48288091161
 20
11246.74639285457
 30
0.0
 10
48168.45941692941
 20
11247.44804107334
 30
0.0
 10
48175.31465177262
 20
11247.93031809305
 30
0.0
 10
48182.12851182708
 20
11248.22914946874
 30
0.0
 10
48188.97078825194
 20
11248.36672406657
 30
0.0
 10
48195.83578607764
 20
11248.36348682873
 30
0.0
 10
48202.67667780441
 20
11248.2184261975
 30
0.0
 10
48209.48932949097
 20
11247.91127318049
 30
0.0
 10
48216.3462014891
 20
11247.41943009454
 30
0.0
 10
48223.32903241928
 20
11246.70624065366
 30
0.0
 10
48230.45385829714
 20
11245.72867243354
 30
0.0
 10
48237.64799031748
 20
11244.45186676961
 30
0.0
 10
48244.80930997798
 20
11242.85332585829
 30
0.0
 10
48251.83902666741
 20
11240.9232955762
 30
0.0
 10
48258.64456642243
 20
11238.66697740339
 30
0.0
 10
48265.14699316017
 20
11236.10447536341
 30
0.0
 10
48271.32382193932
 20
11233.25083649435
 30
0.0
 10
48277.21635270462
 20
11230.09467469053
 30
0.0
 10
48282.87636819935
 20
11226.60387370824
 30
0.0
 10
48288.31308021237
 20
11222.7619979119
 30
0.0
 10
48293.50319524218
 20
11218.57881558064
 30
0.0
 10
48298.42151210447
 20
11214.05784145317
 30
0.0
 10
48303.041604251
 20
11209.19503721288
 30
0.0
 10
48307.32348004568
 20
11203.99255024987
 30
0.0
 10
48311.21889222067
 20
11198.45829487603
 30
0.0
 10
48314.66888103283
 20
11192.61422329336
 30
0.0
 10
48317.59726698759
 20
11186.5286192371
 30
0.0
 10
48319.96861701807
 20
11180.23289466024
 30
0.0
 10
48321.80199215158
 20
11173.57659039131
 30
0.0
 10
48323.07603103845
 20
11166.15564768779
 30
0.0
 10
48323.37798844287
 20
11160.86953219252
 30
0.0
 10
48323.37053345081
 20
11158.02827938845
 30
0.0
 11
48061.1008739564
 21
11158.02856864085
 31
0.0
 11
48061.59468849748
 21
11166.57541504545
 31
0.0
 11
48062.8381119398
 21
11173.79975099995
 31
0.0
 11
48064.62486173309
 21
11180.27813884415
 31
0.0
 11
48066.9783324514
 21
11186.52072586065
 31
0.0
 11
48069.9383332682
 21
11192.66454821244
 31
0.0
 11
48073.41096840318
 21
11198.53667266835
 31
0.0
 11
48077.32354697621
 21
11204.08293596824
 31
0.0
 11
48081.64362246528
 21
11209.31600421674
 31
0.0
 11
48086.32100646669
 21
11214.21805241154
 31
0.0
 11
48091.2964304391
 21
11218.76526411275
 31
0.0
 11
48096.53068672158
 21
11222.95415514396
 31
0.0
 11
48101.9921712318
 21
11226.78213678115
 31
0.0
 11
48107.6471597025
 21
11230.24164175955
 31
0.0
 11
48113.50457362959
 21
11233.35436339815
 31
0.0
 11
48119.66204893471
 21
11236.17653584765
 31
0.0
 11
48126.17846099789
 21
11238.72431984975
 31
0.0
 11
48132.99590323101
 21
11240.96698404455
 31
0.0
 11
48140.03440974239
 21
11242.88458949355
 31
0.0
 11
48147.2052437484
 21
11244.47296624255
 31
0.0
 11
48154.4119552251
 21
11245.74204026985
 31
0.0
 11
48161.55310260939
 21
11246.71368848755
 31
0.0
 11
48168.52656351991
 21
11247.41908049015
 31
0.0
 11
48175.32510692649
 21
11247.90092428855
 31
0.0
 11
48182.1076754906
 21
11248.20149319185
 31
0.0
 11
48188.9604846682
 21
11248.34306134325
 31
0.0
 11
48195.8463113734
 21
11248.33963493755
 31
0.0
 11
48202.69822287979
 21
11248.19058179365
 31
0.0
 11
48209.4774423879
 21
11247.88181412495
 31
0.0
 11
48216.27649941749
 21
11247.39055813945
 31
0.0
 11
48223.25750886788
 21
11246.67347256314
 31
0.0
 11
48230.4091542789
 21
11245.68745311445
 31
0.0
 11
48237.62819720808
 21
11244.40090824985
 31
0.0
 11
48244.8114320316
 21
11242.79188442485
 31
0.0
 11
48251.8599258389
 21
11240.85105765045
 31
0.0
 11
48258.68134271101
 21
11238.58411131505
 31
0.0
 11
48265.1922311663
 21
11236.01347443455
 31
0.0
 11
48271.3347543004
 21
11233.17179086215
 31
0.0
 11
48277.1805356933
 21
11230.03751967375
 31
0.0
 11
48282.83189287771
 21
11226.55012211625
 31
0.0
 11
48288.27318842029
 21
11222.70418004495
 31
0.0
 11
48293.45294753538
 21
11218.52689023016
 31
0.0
 11
48298.35951515271
 21
11214.01300257975
 31
0.0
 11
48302.9756115591
 21
11209.14925302795
 31
0.0
 11
48307.25169272811
 21
11203.94696565325
 31
0.0
 11
48311.1364356968
 21
11198.41927704165
 31
0.0
 11
48314.58503930078
 21
11192.56733875654
 31
0.0
 11
48317.5236810995
 21
11186.44898077865
 31
0.0
 11
48319.865631413
 21
11180.21977269825
 31
0.0
 11
48321.6454950635
 21
11173.74647439504
 31
0.0
 11
48322.8812458521
 21
11166.53801236355
 31
0.0
 11
48323.37053345081
 21
11158.02827938845
 31
0.0
  0
SPLINE
  5
65AC
330
200
100
AcDbEntity
  8
11111外轮廓线
 62
     7
370
     9
100
AcDbSpline
210
0.0
220
0.0
230
1.0
 70
     8
 71
     3
 72
    10
 73
     6
 74
     4
 42
0.0000000001
 43
0.0000000001
 44
0.0000000001
 12
-0.0026415072516595
 22
-0.999996511213634
 32
0.0
 13
-0.0064318479329945
 23
-0.9999793154521581
 33
0.0
 40
0.0
 40
0.0
 40
0.0
 40
0.0
 40
23.75780402161802
 40
47.27142547886532
 40
70.53727642917886
 40
70.53727642917886
 40
70.53727642917886
 40
70.53727642917886
 10
48323.3705334303
 20
11158.02827938265
 30
0.0
 10
48323.34961462643
 20
11150.10903900407
 30
0.0
 10
48323.29988693388
 20
11134.35197178819
 30
0.0
 10
48323.19772269469
 20
11110.83976265724
 30
0.0
 10
48323.10907686889
 20
11095.24685087831
 30
0.0
 10
48323.05919606378
 20
11087.49172764275
 30
0.0
 11
48323.3705334303
 21
11158.02827938265
 31
0.0
 11
48323.294896807
 21
11134.27059576175
 31
0.0
 11
48323.19208542389
 21
11110.75719907275
 31
0.0
 11
48323.05919606378
 21
11087.49172764275
 31
0.0
  0
SPLINE
  5
65AD
330
200
100
AcDbEntity
  8
11111外轮廓线
 62
     7
370
     9
100
AcDbSpline
210
0.0
220
0.0
230
1.0
 70
     8
 71
     3
 72
    15
 73
    11
 74
     9
 42
0.0000000001
 43
0.0000000001
 44
0.0000000001
 12
-0.0064290885980909
 22
-0.9999793331963406
 32
0.0
 13
-0.1962928965146879
 23
-0.9805453068460804
 33
0.0
 40
0.0
 40
0.0
 40
0.0
 40
0.0
 40
12.44950036788474
 40
23.79989568426198
 40
34.12898588788249
 40
43.4782962198904
 40
51.95373401617425
 40
59.64967215480342
 40
66.64736129177454
 40
73.03323565010508
 40
73.03323565010508
 40
73.03323565010508
 40
73.03323565010508
 10
48323.05919606818
 20
11087.49172763535
 30
0.0
 10
48323.03251642122
 20
11083.34197994318
 30
0.0
 10
48323.08519943111
 20
11075.40813177305
 30
0.0
 10
48323.32481599082
 20
11064.03433017694
 30
0.0
 10
48323.5522270532
 20
11053.69389776595
 30
0.0
 10
48323.62568164909
 20
11044.30881275627
 30
0.0
 10
48323.44608647225
 20
11035.80229835357
 30
0.0
 10
48322.99897779366
 20
11028.08995326126
 30
0.0
 10
48322.26565672349
 20
11021.09899311024
 30
0.0
 10
48321.54712214565
 20
11016.69242744611
 30
0.0
 10
48321.12928822079
 20
11014.60521440205
 30
0.0
 11
48323.05919606818
 21
11087.49172763535
 31
0.0
 11
48323.11893875471
 21
11075.04237061495
 31
0.0
 11
48323.3338175148
 21
11063.69400945765
 31
0.0
 11
48323.5338175945
 21
11053.36685571605
 31
0.0
 11
48323.58065785109
 21
11044.01766272015
 31
0.0
 11
48323.386140326
 21
11035.54445737795
 31
0.0
 11
48322.92306292949
 21
11027.86246394145
 31
0.0
 11
48322.17522343358
 21
11020.90485017335
 31
0.0
 11
48321.12928822079
 21
11014.60521440205
 31
0.0
  0
SPLINE
  5
65AE
330
200
100
AcDbEntity
  8
11111外轮廓线
 62
     7
370
     9
100
AcDbSpline
210
0.0
220
0.0
230
1.0
 70
     8
 71
     3
 72
    16
 73
    12
 74
    10
 42
0.0000000001
 43
0.0000000001
 44
0.0000000001
 12
-0.1962799466307349
 22
-0.9805478991618084
 32
0.0
 13
-0.9999542877162673
 23
0.0095615102286363
 33
0.0
 40
0.0
 40
0.0
 40
0.0
 40
0.0
 40
20.99696606967067
 40
41.188528662073
 40
61.33014531407571
 40
81.24779976140064
 40
101.1908362412122
 40
121.5066697483478
 40
142.0344087754198
 40
162.1161235894579
 40
181.0467262081651
 40
181.0467262081651
 40
181.0467262081651
 40
181.0467262081651
 10
48321.12928821909
 20
11014.60521441385
 30
0.0
 10
48319.75552709257
 20
11007.74237075772
 30
0.0
 10
48316.08434439168
 20
10994.44712557115
 30
0.0
 10
48307.60675027027
 20
10975.75844766708
 30
0.0
 10
48296.56730968552
 20
10958.88607112823
 30
0.0
 10
48283.14011932731
 20
10943.95578101694
 30
0.0
 10
48267.51458363479
 20
10931.24989069934
 30
0.0
 10
48249.94990889099
 20
10920.99099013943
 30
0.0
 10
48230.99213753462
 20
10913.49070510576
 30
0.0
 10
48211.57838911107
 20
10909.03020536111
 30
0.0
 10
48198.5459531067
 20
10908.08497664305
 30
0.0
 10
48192.23604068749
 20
10908.14531169324
 30
0.0
 11
48321.12928821909
 21
11014.60521441385
 31
0.0
 11
48315.48702796909
 21
10994.38053930145
 31
0.0
 11
48307.1450153423
 21
10975.99277094155
 31
0.0
 11
48296.1155874313
 21
10959.13939023285
 31
0.0
 11
48282.78866673898
 21
10944.33715582235
 31
0.0
 11
48267.3219773772
 21
10931.74723031735
 31
0.0
 11
48249.7867243984
 21
10921.48818581705
 31
0.0
 11
48230.69876300579
 21
10913.93584846775
 31
0.0
 11
48211.12038357069
 21
10909.46792629204
 31
0.0
 11
48192.23604068749
 21
10908.14531169324
 31
0.0
  0
SPLINE
  5
65AF
330
200
100
AcDbEntity
  8
11111外轮廓线
 62
     7
370
     9
100
AcDbSpline
210
0.0
220
0.0
230
1.0
 70
     8
 71
     3
 72
    11
 73
     7
 74
     5
 42
0.0000000001
 43
0.0000000001
 44
0.0000000001
 12
-0.0010155574681486
 22
-0.9999994843213816
 32
0.0
 13
-0.0062961429276535
 23
-0.9999801790956832
 33
0.0
 40
0.0
 40
0.0
 40
0.0
 40
0.0
 40
79.35108103263458
 40
159.5010057534303
 40
240.4461576686919
 40
322.1829536604539
 40
322.1829536604539
 40
322.1829536604539
 40
322.1829536604539
 10
48361.33907708849
 20
11410.49363818315
 30
0.0
 10
48361.31221522751
 20
11384.04329147882
 30
0.0
 10
48361.32151082138
 20
11330.87626607082
 30
0.0
 10
48361.38132829441
 20
11250.72757462581
 30
0.0
 10
48361.33804414977
 20
11169.78358728289
 30
0.0
 10
48361.13595854402
 20
11115.55645057406
 30
0.0
 10
48360.96441636068
 20
11088.31139194255
 30
0.0
 11
48361.33907708849
 21
11410.49363818315
 31
0.0
 11
48361.3289845138
 21
11331.14255779235
 31
0.0
 11
48361.36410195069
 21
11250.99264076485
 31
0.0
 11
48361.2953333808
 21
11170.04751806145
 31
0.0
 11
48360.96441636068
 21
11088.31139194255
 31
0.0
  0
SPLINE
  5
65B0
330
200
100
AcDbEntity
  8
11111外轮廓线
 62
     7
370
     9
100
AcDbSpline
210
0.0
220
0.0
230
1.0
 70
     8
 71
     3
 72
     9
 73
     5
 74
     3
 42
0.0000000001
 43
0.0000000001
 44
0.0000000001
 12
0.0601844315472474
 22
-0.9981872741120952
 32
0.0
 13
0.014427263365766
 23
-0.9998959216197327
 33
0.0
 40
0.0
 40
0.0
 40
0.0
 40
0.0
 40
1.194340819979023
 40
2.328169961897783
 40
2.328169961897783
 40
2.328169961897783
 40
2.328169961897783
 10
48239.5516758893
 20
11127.33185461435
 30
0.0
 10
48239.5756361304
 20
11126.93446267853
 30
0.0
 10
48239.61372436803
 20
11126.15926548293
 30
0.0
 10
48239.63409786812
 20
11125.38339965255
 30
0.0
 10
48239.639550552
 20
11125.00549594095
 30
0.0
 11
48239.5516758893
 21
11127.33185461435
 31
0.0
 11
48239.61005243408
 21
11126.13894130095
 31
0.0
 11
48239.639550552
 21
11125.00549594095
 31
0.0
  0
SPLINE
  5
65B1
330
200
100
AcDbEntity
  8
11111外轮廓线
 62
     7
370
     9
100
AcDbSpline
210
0.0
220
0.0
230
1.0
 70
     8
 71
     3
 72
    26
 73
    22
 74
    20
 42
0.0000000001
 43
0.0000000001
 44
0.0000000001
 12
0.0143737882966768
 22
-0.9998966917687059
 32
0.0
 13
-0.2505950324464274
 23
-0.9680920047770118
 33
0.0
 40
0.0
 40
0.0
 40
0.0
 40
0.0
 40
0.6536908523049613
 40
1.316048334519609
 40
1.975116406450686
 40
2.62601081674587
 40
3.26760684082508
 40
3.890116731992261
 40
4.492054394294504
 40
5.082129677389359
 40
5.667518514974948
 40
6.255416976726499
 40
6.850623059629834
 40
7.451879499847944
 40
8.057687835528813
 40
8.665801706349531
 40
9.273520048113052
 40
9.885977842116314
 40
10.51002366068796
 40
11.15216171382009
 40
11.81930420796748
 40
11.81930420796748
 40
11.81930420796748
 40
11.81930420796748
 10
48239.639550552
 20
11125.00549594095
 30
0.0
 10
48239.64268255664
 20
11124.78762150073
 30
0.0
 10
48239.6455218772
 20
11124.34892474822
 30
0.0
 10
48239.63892628897
 20
11123.69055997953
 30
0.0
 10
48239.62225274011
 20
11123.03330127287
 30
0.0
 10
48239.59464752355
 20
11122.38334078687
 30
0.0
 10
48239.55846357794
 20
11121.74601105395
 30
0.0
 10
48239.51368664762
 20
11121.12558720145
 30
0.0
 10
48239.46182811833
 20
11120.52295592628
 30
0.0
 10
48239.40322049928
 20
11119.93337711635
 30
0.0
 10
48239.33736887267
 20
11119.34927353531
 30
0.0
 10
48239.26383257059
 20
11118.76436394416
 30
0.0
 10
48239.18197738548
 20
11118.17521969866
 30
0.0
 10
48239.09163722315
 20
11117.58127657197
 30
0.0
 10
48238.99275364816
 20
11116.98433526337
 30
0.0
 10
48238.8860353844
 20
11116.38655571565
 30
0.0
 10
48238.77083383291
 20
11115.78809517609
 30
0.0
 10
48238.64691208443
 20
11115.18595638682
 30
0.0
 10
48238.51222496643
 20
11114.57437720089
 30
0.0
 10
48238.36481571706
 20
11113.9469994257
 30
0.0
 10
48238.25868328665
 20
11113.52365324203
 30
0.0
 10
48238.20295575499
 20
11113.30836813715
 30
0.0
 11
48239.639550552
 21
11125.00549594095
 31
0.0
 11
48239.64371840639
 21
11124.35181837565
 31
0.0
 11
48239.63721729659
 21
11123.68949279875
 31
0.0
 11
48239.62029641569
 21
11123.03064197555
 31
0.0
 11
48239.5929590687
 21
11122.38032189835
 31
0.0
 11
48239.55644196369
 21
11121.73976592175
 31
0.0
 11
48239.51174222161
 21
11121.11886295215
 31
0.0
 11
48239.46015346121
 21
11120.51914005856
 31
0.0
 11
48239.40177134028
 21
11119.93196004555
 31
0.0
 11
48239.3362251055
 21
11119.35025240225
 31
0.0
 11
48239.2628824939
 21
11118.76694676825
 31
0.0
 11
48239.1809959071
 21
11118.17740044434
 31
0.0
 11
48239.09056252749
 21
11117.58298383055
 31
0.0
 11
48238.9916373817
 21
11116.98530703234
 31
0.0
 11
48238.8846657318
 21
11116.38667563825
 31
0.0
 11
48238.7698660448
 21
11115.78989878315
 31
0.0
 11
48238.6463258372
 21
11115.19003015875
 31
0.0
 11
48238.51212186508
 21
11114.58058575805
 31
0.0
 11
48238.3652057295
 21
11113.95548022425
 31
0.0
 11
48238.20295575499
 21
11113.30836813715
 31
0.0
  0
SPLINE
  5
65B2
330
200
100
AcDbEntity
  8
11111外轮廓线
 62
     7
370
     9
100
AcDbSpline
210
0.0
220
0.0
230
1.0
 70
     8
 71
     3
 72
    40
 73
    36
 74
    34
 42
0.0000000001
 43
0.0000000001
 44
0.0000000001
 12
-0.2506043493303037
 22
-0.9680895930112745
 32
0.0
 13
-0.9999995253204579
 23
-0.0009743504803636
 33
0.0
 40
0.0
 40
0.0
 40
0.0
 40
0.0
 40
2.831323030364045
 40
5.553416111694165
 40
8.307955967296432
 40
11.25536766296866
 40
14.18461547728205
 40
16.91193205375087
 40
19.34609772182545
 40
21.45767797452216
 40
23.34291947455941
 40
25.14663063197211
 40
26.94003228604734
 40
28.69086604968205
 40
30.37065573348914
 40
31.99239034966572
 40
33.58082103979877
 40
35.16250084266285
 40
36.74580510974132
 40
38.31133538085162
 40
39.88058067411325
 40
41.54227970377966
 40
43.43545364777607
 40
45.43953229925701
 40
47.26432305665595
 40
48.88799667969294
 40
50.42469181059501
 40
51.95825069378101
 40
53.50363760240975
 40
55.04943275205545
 40
56.58700055203505
 40
58.12655098903205
 40
59.71564471009903
 40
61.41375583729325
 40
63.2802477574041
 40
63.2802477574041
 40
63.2802477574041
 40
63.2802477574041
 10
48238.20295575499
 20
11113.30836813715
 30
0.0
 10
48237.96644179974
 20
11112.3947100171
 30
0.0
 10
48237.45442765198
 20
11110.61468332639
 30
0.0
 10
48236.54838845745
 20
11107.9965056407
 30
0.0
 10
48235.4898487024
 20
11105.39418131461
 30
0.0
 10
48234.25734272642
 20
11102.79265309059
 30
0.0
 10
48232.87873032091
 20
11100.27584992033
 30
0.0
 10
48231.4502916507
 20
11097.9866886846
 30
0.0
 10
48230.0601830975
 20
11095.99924150534
 30
0.0
 10
48228.75064636243
 20
11094.30121397779
 30
0.0
 10
48227.50706327529
 20
11092.82004095507
 30
0.0
 10
48226.27876252544
 20
11091.4663669148
 30
0.0
 10
48225.03163744847
 20
11090.19199482771
 30
0.0
 10
48223.76789083254
 20
11088.99341595607
 30
0.0
 10
48222.50460495329
 20
11087.8791669991
 30
0.0
 10
48221.24518417068
 20
11086.84391700319
 30
0.0
 10
48219.97741626455
 20
11085.87178969804
 30
0.0
 10
48218.68807894358
 20
11084.95031805605
 30
0.0
 10
48217.37466910209
 20
11084.07720380265
 30
0.0
 10
48216.03605497267
 20
11083.25112342605
 30
0.0
 10
48214.64765825441
 20
11082.45767343839
 30
0.0
 10
48213.13582440707
 20
11081.66206580731
 30
0.0
 10
48211.46365174244
 20
11080.86249337869
 30
0.0
 10
48209.70921427239
 20
11080.1126628474
 30
0.0
 10
48208.00937053588
 20
11079.46799839413
 30
0.0
 10
48206.434521364
 20
11078.93669667638
 30
0.0
 10
48204.93549672149
 20
11078.48733258351
 30
0.0
 10
48203.44762771793
 20
11078.09460023103
 30
0.0
 10
48201.94456711265
 20
11077.75085604477
 30
0.0
 10
48200.42959747508
 20
11077.45703455853
 30
0.0
 10
48198.90769745737
 20
11077.21359126817
 30
0.0
 10
48197.36431970065
 20
11077.01833647037
 30
0.0
 10
48195.76199339473
 20
11076.86946935749
 30
0.0
 10
48194.04663116231
 20
11076.77002917445
 30
0.0
 10
48192.85831454904
 20
11076.74572727291
 30
0.0
 10
48192.23615087101
 20
11076.74512106715
 30
0.0
 11
48238.20295575499
 21
11113.30836813715
 31
0.0
 11
48237.42002113998
 21
11110.58744853325
 31
0.0
 11
48236.5294672967
 21
11108.01515294455
 31
0.0
 11
48235.49127694109
 21
11105.46375125105
 31
0.0
 11
48234.228978343
 21
11102.80032527065
 31
0.0
 11
48232.82161471379
 21
11100.23131371505
 31
0.0
 11
48231.37752576519
 21
11097.91768824475
 31
0.0
 11
48229.98223635019
 21
11095.92311311505
 31
0.0
 11
48228.6925513317
 21
11094.25114310435
 31
0.0
 11
48227.4802817044
 21
11092.80735022995
 31
0.0
 11
48226.26817638738
 21
11091.47162022735
 31
0.0
 11
48225.0138034797
 21
11090.18988776645
 31
0.0
 11
48223.7434414718
 21
11088.98506444465
 31
0.0
 11
48222.48366718499
 21
11087.87391093225
 31
0.0
 11
48221.2308592752
 21
11086.84410730705
 31
0.0
 11
48219.97031621349
 21
11085.87759644475
 31
0.0
 11
48218.68345931579
 21
11084.95797134525
 31
0.0
 11
48217.36489873798
 21
11084.08147239785
 31
0.0
 11
48216.0326198414
 21
11083.25933009175
 31
0.0
 11
48214.67016655558
 21
11082.48070833865
 31
0.0
 11
48213.1996418542
 21
11081.70688615765
 31
0.0
 11
48211.49167584899
 21
11080.89021014645
 31
0.0
 11
48209.64884883661
 21
11080.10260628425
 31
0.0
 11
48207.94265966408
 21
11079.45547429165
 31
0.0
 11
48206.4041691756
 21
11078.93647231575
 31
0.0
 11
48204.9321879817
 21
11078.49522035806
 31
0.0
 11
48203.4494159347
 21
11078.10382553845
 31
0.0
 11
48201.94292951021
 21
11077.75926879394
 31
0.0
 11
48200.42542270429
 21
11077.46489532595
 31
0.0
 11
48198.90716081249
 21
11077.22200529435
 31
0.0
 11
48197.3797885849
 21
11077.02874477995
 31
0.0
 11
48195.7975125911
 21
11076.88170215425
 31
0.0
 11
48194.10225081028
 21
11076.78337161555
 31
0.0
 11
48192.23615087101
 21
11076.74512106715
 31
0.0
  0
SPLINE
  5
65B3
330
200
100
AcDbEntity
  8
11111外轮廓线
 62
     7
370
     9
100
AcDbSpline
210
0.0
220
0.0
230
1.0
 70
     8
 71
     3
 72
    39
 73
    35
 74
    33
 42
0.0000000001
 43
0.0000000001
 44
0.0000000001
 12
-0.9999995262822372
 22
0.0009733628827058
 32
0.0
 13
-0.2506067796818839
 23
0.9680889638754674
 33
0.0
 40
0.0
 40
0.0
 40
0.0
 40
0.0
 40
3.432684790786151
 40
6.864573829885113
 40
10.09888240661033
 40
13.09222803633603
 40
15.82200925866493
 40
18.28352651308272
 40
20.65310048911
 40
23.06598047616916
 40
25.51732757255311
 40
27.95733286329568
 40
30.34575999031167
 40
32.65990886726353
 40
34.89048130470439
 40
37.01077224686992
 40
38.94876266710768
 40
40.66234833311134
 40
42.2460771386721
 40
43.83698870691097
 40
45.46072799255844
 40
47.08490905389675
 40
48.68159319035783
 40
50.22265666302957
 40
51.67816047895799
 40
53.03698393409909
 40
54.3259290936697
 40
55.58503717629737
 40
56.83949917665164
 40
58.09972997445846
 40
59.3607372349461
 40
60.6185619927042
 40
61.90497840643669
 40
63.27814229856232
 40
63.27814229856232
 40
63.27814229856232
 40
63.27814229856232
 10
48192.23615087101
 20
11076.74512106715
 30
0.0
 10
48191.09192314945
 20
11076.74623481647
 30
0.0
 10
48188.80294306427
 20
11076.83049918375
 30
0.0
 10
48185.45391197575
 20
11077.19817044818
 30
0.0
 10
48182.28371596827
 20
11077.7761849416
 30
0.0
 10
48179.38681440192
 20
11078.50792926758
 30
0.0
 10
48176.78654772529
 20
11079.33883855045
 30
0.0
 10
48174.43139283807
 20
11080.2394121283
 30
0.0
 10
48172.22313656805
 20
11081.21883117232
 30
0.0
 10
48170.07143496381
 20
11082.30954293135
 30
0.0
 10
48167.95942761673
 20
11083.52318297204
 30
0.0
 10
48165.921005009
 20
11084.84173239946
 30
0.0
 10
48163.99040577197
 20
11086.23678514577
 30
0.0
 10
48162.18626641611
 20
11087.68256295505
 30
0.0
 10
48160.52033517875
 20
11089.1536590278
 30
0.0
 10
48159.0137606748
 20
11090.61227984583
 30
0.0
 10
48157.68941422314
 20
11092.0086159659
 30
0.0
 10
48156.53750460826
 20
11093.32001770164
 30
0.0
 10
48155.50462859975
 20
11094.58060813326
 30
0.0
 10
48154.53194438736
 20
11095.85067696953
 30
0.0
 10
48153.5938494883
 20
11097.16312767983
 30
0.0
 10
48152.69869038012
 20
11098.50753692179
 30
0.0
 10
48151.86227442675
 20
11099.85691810521
 30
0.0
 10
48151.09696337611
 20
11101.18329216159
 30
0.0
 10
48150.40944912406
 20
11102.46221164399
 30
0.0
 10
48149.79580878702
 20
11103.6847750751
 30
0.0
 10
48149.24237332454
 20
11104.86377545631
 30
0.0
 10
48148.73276526305
 20
11106.02446412815
 30
0.0
 10
48148.25562327889
 20
11107.18853035438
 30
0.0
 10
48147.8068994996
 20
11108.36452082945
 30
0.0
 10
48147.38664032853
 20
11109.55216861675
 30
0.0
 10
48146.9925442977
 20
11110.75793964769
 30
0.0
 10
48146.61713738791
 20
11112.00874266215
 30
0.0
 10
48146.38380480361
 20
11112.86413638703
 30
0.0
 10
48146.26909674329
 20
11113.30725132355
 30
0.0
 11
48192.23615087101
 21
11076.74512106715
 31
0.0
 11
48188.80580922889
 21
11076.87193230975
 31
0.0
 11
48185.3944510685
 21
11077.24676277575
 31
0.0
 11
48182.2126722156
 21
11077.82731019045
 31
0.0
 11
48179.31051031168
 21
11078.56050480475
 31
0.0
 11
48176.7102314276
 21
11079.39132081735
 31
0.0
 11
48174.4110959075
 21
11080.27054948725
 31
0.0
 11
48172.2450137374
 21
11081.23126217075
 31
0.0
 11
48170.0928144219
 21
11082.32214618765
 31
0.0
 11
48167.9673729105
 21
11083.54345735545
 31
0.0
 11
48165.91854423968
 21
11084.86857127375
 31
0.0
 11
48163.98255050918
 21
11086.26732515365
 31
0.0
 11
48162.17661710289
 21
11087.71435298916
 31
0.0
 11
48160.50465059639
 21
11089.19082899634
 31
0.0
 11
48158.9812923701
 21
11090.66562165765
 31
0.0
 11
48157.64761511441
 21
11092.07171975045
 31
0.0
 11
48156.5167055901
 21
11093.35912779865
 31
0.0
 11
48155.51293126979
 21
11094.58413148985
 31
0.0
 11
48154.5455612499
 21
11095.84714172835
 31
0.0
 11
48153.6013169501
 21
11097.16810045975
 31
0.0
 11
48152.7010856786
 21
11098.51996871435
 31
0.0
 11
48151.8598417214
 21
11099.87706445015
 31
0.0
 11
48151.08965251599
 21
11101.21186226805
 31
0.0
 11
48150.4004391007
 21
11102.49384363545
 31
0.0
 11
48149.79086216411
 21
11103.70826413125
 31
0.0
 11
48149.2431268726
 21
11104.87503989155
 31
0.0
 11
48148.73692551489
 21
11106.02791167505
 31
0.0
 11
48148.26110254791
 21
11107.18863016565
 31
0.0
 11
48147.81180307999
 21
11108.36604753085
 31
0.0
 11
48147.39111005488
 21
11109.55481020255
 31
0.0
 11
48147.00031598349
 21
11110.75038668065
 31
0.0
 11
48146.63048903099
 21
11111.98249674665
 31
0.0
 11
48146.26909674329
 21
11113.30725132355
 31
0.0
  0
SPLINE
  5
65B4
330
200
100
AcDbEntity
  8
11111外轮廓线
 62
     7
370
     9
100
AcDbSpline
210
0.0
220
0.0
230
1.0
 70
     8
 71
     3
 72
    33
 73
    29
 74
    27
 42
0.0000000001
 43
0.0000000001
 44
0.0000000001
 12
-0.2506070652707671
 22
0.9680888899457391
 32
0.0
 13
0.0144009849035821
 23
0.9998963004401042
 33
0.0
 40
0.0
 40
0.0
 40
0.0
 40
0.0
 40
0.5836274317923373
 40
1.106840054771082
 40
1.577424219346576
 40
2.002803687396297
 40
2.390577055857456
 40
2.748475662260568
 40
3.084346274208915
 40
3.406082339783768
 40
3.72052190593525
 40
4.032149082470561
 40
4.34391109197504
 40
4.653009754021494
 40
4.96113657405788
 40
5.280276195075155
 40
5.623107575985377
 40
6.001539050001272
 40
6.423255016660575
 40
6.893303930280974
 40
7.41200075158104
 40
7.968722049260111
 40
8.551855498816181
 40
9.155994807215444
 40
9.780264654662127
 40
10.43134907274702
 40
11.11276188475225
 40
11.81938096880996
 40
11.81938096880996
 40
11.81938096880996
 40
11.81938096880996
 10
48146.26909674329
 20
11113.30725132355
 30
0.0
 10
48146.22034302399
 20
11113.49558573441
 30
0.0
 10
48146.13028069025
 20
11113.85338482391
 30
0.0
 10
48146.00834234902
 20
11114.36487000037
 30
0.0
 10
48145.9037649416
 20
11114.82623373339
 30
0.0
 10
48145.81331216814
 20
11115.24448316372
 30
0.0
 10
48145.73420618551
 20
11115.62673877888
 30
0.0
 10
48145.6640026221
 20
11115.98035521048
 30
0.0
 10
48145.60059106002
 20
11116.31286737501
 30
0.0
 10
48145.54208406599
 20
11116.63155940231
 30
0.0
 10
48145.48721553296
 20
11116.94269505459
 30
0.0
 10
48145.43490445558
 20
11117.25089905544
 30
0.0
 10
48145.38498498261
 20
11117.5576960189
 30
0.0
 10
48145.33727247823
 20
11117.86366295923
 30
0.0
 10
48145.29124763271
 20
11118.17237501101
 30
0.0
 10
48145.24574175405
 20
11118.4925255976
 30
0.0
 10
48145.19940714388
 20
11118.83622049933
 30
0.0
 10
48145.15150678088
 20
11119.21419464726
 30
0.0
 10
48145.10192482386
 20
11119.63468643106
 30
0.0
 10
48145.05152183678
 20
11120.10213928215
 30
0.0
 10
48145.00186663079
 20
11120.61490800439
 30
0.0
 10
48144.95529028643
 20
11121.16580715787
 30
0.0
 10
48144.91368976997
 20
11121.74566675589
 30
0.0
 10
48144.87917769556
 20
11122.3485465487
 30
0.0
 10
48144.85188473155
 20
11122.97447306048
 30
0.0
 10
48144.83419019672
 20
11123.62651798637
 30
0.0
 10
48144.82641344108
 20
11124.30620703689
 30
0.0
 10
48144.82908780229
 20
11124.76890503442
 30
0.0
 10
48144.83247980588
 20
11125.00442030375
 30
0.0
 11
48146.26909674329
 21
11113.30725132355
 31
0.0
 11
48146.12661629618
 21
11113.87321978674
 31
0.0
 11
48146.00526939588
 21
11114.38216612835
 31
0.0
 11
48145.9012317769
 21
11114.84110580825
 31
0.0
 11
48145.81130981189
 21
11115.25687224754
 31
0.0
 11
48145.73272060909
 21
11115.63659836265
 31
0.0
 11
48145.6630282989
 21
11115.98764592975
 31
0.0
 11
48145.6000950867
 21
11116.31756785805
 31
0.0
 11
48145.5420190155
 21
11116.63401890615
 31
0.0
 11
48145.48738615521
 21
11116.94367596055
 31
0.0
 11
48145.43526174558
 21
11117.25091290995
 31
0.0
 11
48145.3851827367
 21
11117.55862648365
 31
0.0
 11
48145.33756419429
 21
11117.86403515624
 31
0.0
 11
48145.29212860869
 21
11118.16879365865
 31
0.0
 11
48145.2472182489
 21
11118.48475751304
 31
0.0
 11
48145.20142067328
 21
11118.82451615945
 31
0.0
 11
48145.15383505819
 21
11119.19994390184
 31
0.0
 11
48145.104469568
 21
11119.61876057405
 31
0.0
 11
48145.0540659668
 21
11120.08609927155
 31
0.0
 11
48145.0041008226
 21
11120.60238395735
 31
0.0
 11
48144.9571819042
 21
11121.15712463405
 31
0.0
 11
48144.91556627618
 21
11121.73877122735
 31
0.0
 11
48144.8809070872
 21
11122.34191552565
 31
0.0
 11
48144.85394825838
 21
11122.96560299865
 31
0.0
 11
48144.83612794909
 21
11123.61644349835
 31
0.0
 11
48144.82842988571
 21
11124.29781282565
 31
0.0
 11
48144.83247980588
 21
11125.00442030375
 31
0.0
  0
SPLINE
  5
65B5
330
200
100
AcDbEntity
  8
11111外轮廓线
 62
     7
370
     9
100
AcDbSpline
210
0.0
220
0.0
230
1.0
 70
     8
 71
     3
 72
     9
 73
     5
 74
     3
 42
0.0000000001
 43
0.0000000001
 44
0.0000000001
 12
0.0144335509086925
 22
0.9998958308784802
 32
0.0
 13
0.060240256173342
 23
0.9981839066705946
 33
0.0
 40
0.0
 40
0.0
 40
0.0
 40
0.0
 40
1.140041146656703
 40
2.327414813728734
 40
2.327414813728734
 40
2.327414813728734
 40
2.327414813728734
 10
48144.83247980588
 20
11125.00442030375
 30
0.0
 10
48144.83796475319
 20
11125.3843944336
 30
0.0
 10
48144.85840054052
 20
11126.16000815319
 30
0.0
 10
48144.89656383758
 20
11126.93494858089
 30
0.0
 10
48144.9204064022
 20
11127.33002100945
 30
0.0
 11
48144.83247980588
 21
11125.00442030375
 31
0.0
 11
48144.8622383876
 21
11126.14407298895
 31
0.0
 11
48144.9204064022
 21
11127.33002100945
 31
0.0
  0
SPLINE
  5
65B6
330
200
100
AcDbEntity
  8
11111外轮廓线
 62
     7
370
     9
100
AcDbSpline
210
0.0
220
0.0
230
1.0
 70
     8
 71
     3
 72
    11
 73
     7
 74
     5
 42
0.0000000001
 43
0.0000000001
 44
0.0000000001
 12
-0.0062935700380412
 22
-0.9999801952919749
 32
0.0
 13
-0.1919721795573021
 23
-0.9814003679824148
 33
0.0
 40
0.0
 40
0.0
 40
0.0
 40
0.0
 40
22.97506705938419
 40
43.87829129464452
 40
62.93686391784229
 40
80.15203510105912
 40
80.15203510105912
 40
80.15203510105912
 40
80.15203510105912
 10
48360.96441636068
 20
11088.31139194255
 30
0.0
 10
48360.91621796279
 20
11080.65318792758
 30
0.0
 10
48361.24294189923
 20
11066.02849552389
 30
0.0
 10
48361.65408217609
 20
11045.05218282399
 30
0.0
 10
48361.00750427779
 20
11025.9886053673
 30
0.0
 10
48359.44987787986
 20
11013.96806728914
 30
0.0
 10
48358.3482665687
 20
11008.33640884445
 30
0.0
 11
48360.96441636068
 21
11088.31139194255
 31
0.0
 11
48361.24737907448
 21
11065.33806744465
 31
0.0
 11
48361.4710585014
 21
11044.43604000845
 31
0.0
 11
48360.6699044435
 21
11025.39431365265
 31
0.0
 11
48358.3482665687
 21
11008.33640884445
 31
0.0
  0
SPLINE
  5
65B7
330
200
100
AcDbEntity
  8
11111外轮廓线
 62
     7
370
     9
100
AcDbSpline
210
0.0
220
0.0
230
1.0
 70
     8
 71
     3
 72
    17
 73
    13
 74
    11
 42
0.0000000001
 43
0.0000000001
 44
0.0000000001
 12
-0.1919878207251269
 22
-0.9813973082769365
 32
0.0
 13
-0.9999761418656227
 23
0.0069076551408033
 33
0.0
 40
0.0
 40
0.0
 40
0.0
 40
0.0
 40
24.82018946232232
 40
49.13338886731816
 40
73.25753342485327
 40
97.32157139208855
 40
121.4320111408642
 40
145.8553425143482
 40
170.3738653049065
 40
193.7201375497066
 40
214.8338610084669
 40
233.4674275462573
 40
233.4674275462573
 40
233.4674275462573
 40
233.4674275462573
 10
48358.3482665687
 20
11008.33640884445
 30
0.0
 10
48356.75987520708
 20
11000.21691980136
 30
0.0
 10
48352.48887051993
 20
10984.33781657476
 30
0.0
 10
48342.79099630203
 20
10961.83823236842
 30
0.0
 10
48330.0878672136
 20
10941.1810222155
 30
0.0
 10
48314.63332646799
 20
10922.58361469954
 30
0.0
 10
48296.59455248186
 20
10906.32488978911
 30
0.0
 10
48276.26128557575
 20
10892.77380216725
 30
0.0
 10
48254.45506531707
 20
10882.33543899989
 30
0.0
 10
48232.47494893656
 20
10875.34290222642
 30
0.0
 10
48211.71269882277
 20
10871.65820854511
 30
0.0
 10
48198.44674478044
 20
10870.95735274949
 30
0.0
 10
48192.2357041219
 20
10871.00025750005
 30
0.0
 11
48358.3482665687
 21
11008.33640884445
 31
0.0
 11
48351.8748923968
 21
10984.37524794235
 31
0.0
 11
48342.2432494668
 21
10962.05119992734
 31
0.0
 11
48329.61179202658
 21
10941.49832583225
 31
0.0
 11
48314.2259484414
 21
10922.99552224845
 31
0.0
 11
48296.31461360571
 21
10906.85559073425
 31
0.0
 11
48276.00357715069
 21
10893.29237159195
 31
0.0
 11
48253.8880039756
 21
10882.70656113795
 31
0.0
 11
48231.635811538
 21
10875.64339191665
 31
0.0
 11
48210.84398824
 21
10871.97059975844
 31
0.0
 11
48192.2357041219
 21
10871.00025750005
 31
0.0
  0
SPLINE
  5
65B8
330
200
100
AcDbEntity
  8
11111外轮廓线
 62
     7
370
     9
100
AcDbSpline
210
0.0
220
0.0
230
1.0
 70
     8
 71
     3
 72
    22
 73
    18
 74
    16
 42
0.0000000001
 43
0.0000000001
 44
0.0000000001
 12
-0.706596338961044
 22
0.7076168552026228
 32
0.0
 13
-0.9999999922925544
 23
-0.0001241567205568
 33
0.0
 40
0.0
 40
0.0
 40
0.0
 40
0.0
 40
2.440517654849502
 40
4.726331829375089
 40
6.928331655683874
 40
9.109108327293034
 40
11.32516925458118
 40
13.56531895244397
 40
15.9083763377308
 40
18.48340346840647
 40
21.26570662515936
 40
24.27305893598894
 40
27.57019762054105
 40
31.18385170608635
 40
35.16809904911794
 40
39.61233495782153
 40
44.63379811519168
 40
44.63379811519168
 40
44.63379811519168
 40
44.63379811519168
 10
48233.92298786958
 20
11196.23247929555
 30
0.0
 10
48233.34816758955
 20
11196.80812977155
 30
0.0
 10
48232.23435578775
 20
11197.92231916133
 30
0.0
 10
48230.58387524939
 20
11199.5379201438
 30
0.0
 10
48228.93561569327
 20
11201.03092534823
 30
0.0
 10
48227.1986843477
 20
11202.38542965663
 30
0.0
 10
48225.30224693005
 20
11203.53869340586
 30
0.0
 10
48223.19636153684
 20
11204.40341388787
 30
0.0
 10
48220.86440022467
 20
11204.94944899369
 30
0.0
 10
48218.3028516264
 20
11205.18923794359
 30
0.0
 10
48215.51329179599
 20
11205.1921552676
 30
0.0
 10
48212.4853361407
 20
11205.12248998079
 30
0.0
 10
48209.18069332144
 20
11205.02227472414
 30
0.0
 10
48205.55217736801
 20
11204.86921382262
 30
0.0
 10
48201.54336677701
 20
11204.66378511022
 30
0.0
 10
48197.06469930552
 20
11204.46000806304
 30
0.0
 10
48193.90949341325
 20
11204.38730176338
 30
0.0
 10
48192.23567237369
 20
11204.38709394725
 30
0.0
 11
48233.92298786958
 21
11196.23247929555
 31
0.0
 11
48232.19467085899
 21
11197.95557149696
 31
0.0
 11
48230.55349381858
 21
11199.54663540595
 31
0.0
 11
48228.9126131984
 21
11201.01507472215
 31
0.0
 11
48227.18361340091
 21
11202.34411444755
 31
0.0
 11
48225.28269790449
 21
11203.48316945455
 31
0.0
 11
48223.2106598155
 21
11204.33459697735
 31
0.0
 11
48220.93229133651
 21
11204.88136473855
 31
0.0
 11
48218.37076184571
 21
11205.14467328655
 31
0.0
 11
48215.58870056421
 21
11205.18135955195
 31
0.0
 11
48212.58194973779
 21
11205.12121481544
 31
0.0
 11
48209.2863875167
 21
11205.01926800545
 31
0.0
 11
48205.67584887728
 21
11204.86924606275
 31
0.0
 11
48201.69632839658
 21
11204.67522638815
 31
0.0
 11
48197.2561938064
 21
11204.48433994745
 31
0.0
 11
48192.23567237369
 21
11204.38709394725
 31
0.0
  0
SPLINE
  5
65B9
330
200
100
AcDbEntity
  8
11111外轮廓线
 62
     7
370
     9
100
AcDbSpline
210
0.0
220
0.0
230
1.0
 70
     8
 71
     3
 72
    22
 73
    18
 74
    16
 42
0.0000000001
 43
0.0000000001
 44
0.0000000001
 12
-0.9999999974625538
 22
0.0000712382811876
 32
0.0
 13
-0.7069205793900061
 23
-0.7072929339636431
 33
0.0
 40
0.0
 40
0.0
 40
0.0
 40
0.0
 40
5.230722547782049
 40
9.829906358934024
 40
13.90764892497193
 40
17.55920188113495
 40
20.84832254724827
 40
23.81878205592631
 40
26.56214758855935
 40
29.10011864195327
 40
31.40577084307804
 40
33.5621256907933
 40
35.66625732465792
 40
37.75837609980765
 40
39.88131725593581
 40
42.08048905335192
 40
44.42224527675387
 40
44.42224527675387
 40
44.42224527675387
 40
44.42224527675387
 10
48192.23567237369
 20
11204.38709262755
 30
0.0
 10
48190.49209819553
 20
11204.38721683677
 30
0.0
 10
48187.21551011424
 20
11204.46558809551
 30
0.0
 10
48182.58463179635
 20
11204.67990668531
 30
0.0
 10
48178.48038269415
 20
11204.88816803856
 30
0.0
 10
48174.81046795689
 20
11205.03579185248
 30
0.0
 10
48171.50797293291
 20
11205.12922963437
 30
0.0
 10
48168.50788178439
 20
11205.19486050623
 30
0.0
 10
48165.75552772977
 20
11205.16306600108
 30
0.0
 10
48163.23618330637
 20
11204.87719519795
 30
0.0
 10
48160.96831210864
 20
11204.29117757075
 30
0.0
 10
48158.95391891697
 20
11203.41245181981
 30
0.0
 10
48157.15276846018
 20
11202.28789887661
 30
0.0
 10
48155.49384547771
 20
11200.98581480917
 30
0.0
 10
48153.90592454874
 20
11199.55259120709
 30
0.0
 10
48152.31933126439
 20
11197.99769812691
 30
0.0
 10
48151.24732100804
 20
11196.92913289054
 30
0.0
 10
48150.6955091193
 20
11196.37703034725
 30
0.0
 11
48192.23567237369
 21
11204.38709262755
 31
0.0
 11
48187.0059884326
 21
11204.49132433175
 31
0.0
 11
48182.41116538288
 21
11204.69155637354
 31
0.0
 11
48178.3381500927
 21
11204.88784921795
 31
0.0
 11
48174.68948398221
 21
11205.03302017165
 31
0.0
 11
48171.4017505942
 21
11205.12853941404
 31
0.0
 11
48168.43172497028
 21
11205.17930836105
 31
0.0
 11
48165.6891352084
 21
11205.11407153355
 31
0.0
 11
48163.1697825203
 21
11204.80721798405
 31
0.0
 11
48160.9404315253
 21
11204.21897805545
 31
0.0
 11
48158.96327865939
 21
11203.35831971785
 31
0.0
 11
48157.17152755448
 21
11202.25514343515
 31
0.0
 11
48155.51747085449
 21
11200.97410580785
 31
0.0
 11
48153.93467458028
 21
11199.55931426605
 31
0.0
 11
48152.35542145289
 21
11198.02885154055
 31
0.0
 11
48150.6955091193
 21
11196.37703034725
 31
0.0
  0
SPLINE
  5
65BA
330
200
100
AcDbEntity
  8
11111外轮廓线
 62
     7
370
     9
100
AcDbSpline
210
0.0
220
0.0
230
1.0
 70
     8
 71
     3
 72
    26
 73
    22
 74
    20
 42
0.0000000001
 43
0.0000000001
 44
0.0000000001
 12
-0.999976195192471
 22
-0.0068999310423542
 32
0.0
 13
-0.1919964520254586
 23
0.9813956197220548
 33
0.0
 40
0.0
 40
0.0
 40
0.0
 40
0.0
 40
23.02843193248946
 40
44.88921322085763
 40
64.6440194275997
 40
82.20293083021452
 40
97.83998923269257
 40
111.9055512975642
 40
124.5983187593291
 40
135.9741828606328
 40
146.1269160100582
 40
155.3340755881837
 40
163.9793289635386
 40
172.4358816776765
 40
180.9296772268838
 40
189.4716622258021
 40
197.9960360430159
 40
206.4672479600119
 40
214.9915200882044
 40
223.9018662976718
 40
233.5763136917503
 40
233.5763136917503
 40
233.5763136917503
 40
233.5763136917503
 10
48192.2357041219
 20
10871.00025750005
 30
0.0
 10
48184.55974287354
 20
10870.94729263593
 30
0.0
 10
48169.5679119726
 20
10871.95125693915
 30
0.0
 10
48148.41190923176
 20
10876.33981782086
 30
0.0
 10
48129.69301480983
 20
10882.69797614588
 30
0.0
 10
48113.662195316
 20
10890.1544677609
 30
0.0
 10
48100.059425236
 20
10898.14368109123
 30
0.0
 10
48088.52772720934
 20
10906.34076591942
 30
0.0
 10
48078.78208683526
 20
10914.52109615755
 30
0.0
 10
48070.59062260356
 20
10922.47234148328
 30
0.0
 10
48063.70638586243
 20
10930.06833530677
 30
0.0
 10
48057.84198122544
 20
10937.33733858556
 30
0.0
 10
48052.70238509605
 20
10944.44778270987
 30
0.0
 10
48048.05806922622
 20
10951.60902570282
 30
0.0
 10
48043.79470108899
 20
10958.96366273328
 30
0.0
 10
48039.89629524331
 20
10966.54362755582
 30
0.0
 10
48036.39107399927
 20
10974.30501801522
 30
0.0
 10
48033.28512243258
 20
10982.22814694221
 30
0.0
 10
48030.53696239983
 20
10990.41824430201
 30
0.0
 10
48028.09698333253
 20
10999.1227938238
 30
0.0
 10
48026.74229486676
 20
11005.17158874585
 30
0.0
 10
48026.1231416751
 20
11008.33640884445
 30
0.0
 11
48192.2357041219
 21
10871.00025750005
 31
0.0
 11
48169.25715471288
 21
10872.51516486575
 31
0.0
 11
48147.84826626159
 21
10876.93707099525
 31
0.0
 11
48129.1404532934
 21
10883.28294384405
 31
0.0
 11
48113.21902496739
 21
10890.68723244625
 31
0.0
 11
48099.73731457731
 21
10898.60942156545
 31
0.0
 11
48088.27588653829
 21
10906.76268493095
 31
0.0
 11
48078.5539383642
 21
10914.92295879515
 31
0.0
 11
48070.39032965779
 21
10922.84544432305
 31
0.0
 11
48063.5722064932
 21
10930.36815573025
 31
0.0
 11
48057.79102796059
 21
10937.53403057365
 31
0.0
 11
48052.72629313769
 21
10944.54037534805
 31
0.0
 11
48048.1247727072
 21
10951.63539427225
 31
0.0
 11
48043.86510767479
 21
10958.98385102475
 31
0.0
 11
48039.9588579753
 21
10966.58034501915
 31
0.0
 11
48036.45026223489
 21
10974.34917407545
 31
0.0
 11
48033.35755310579
 21
10982.23565501345
 31
0.0
 11
48030.644921781
 21
10990.31679643105
 31
0.0
 11
48028.23886684488
 21
10998.89614193155
 31
0.0
 11
48026.1231416751
 21
11008.33640884445
 31
0.0
  0
SPLINE
  5
65BB
330
200
100
AcDbEntity
  8
11111外轮廓线
 62
     7
370
     9
100
AcDbSpline
210
0.0
220
0.0
230
1.0
 70
     8
 71
     3
 72
    11
 73
     7
 74
     5
 42
0.0000000001
 43
0.0000000001
 44
0.0000000001
 12
-0.1919735201352474
 22
0.9814001057503926
 32
0.0
 13
-0.0062940062283777
 23
0.9999801925466309
 33
0.0
 40
0.0
 40
0.0
 40
0.0
 40
0.0
 40
17.30224269131202
 40
36.46867558865495
 40
57.38627768773838
 40
80.15191640989014
 40
80.15191640989014
 40
80.15191640989014
 40
80.15191640989014
 10
48026.1231416751
 20
11008.33640884445
 30
0.0
 10
48025.01595086321
 20
11013.9965497801
 30
0.0
 10
48023.45390710169
 20
11026.0824591678
 30
0.0
 10
48022.81685842938
 20
11045.21620630506
 30
0.0
 10
48023.23331993956
 20
11066.16323012259
 30
0.0
 10
48023.5547542404
 20
11080.7229960116
 30
0.0
 10
48023.5069918831
 20
11088.31139194255
 30
0.0
 11
48026.1231416751
 21
11008.33640884445
 31
0.0
 11
48023.7942349118
 21
11025.48119800725
 31
0.0
 11
48022.9987616791
 21
11044.63111634505
 31
0.0
 11
48023.2284060974
 21
11065.54745782765
 31
0.0
 11
48023.5069918831
 21
11088.31139194255
 31
0.0
  0
SPLINE
  5
65BC
330
200
100
AcDbEntity
  8
11111外轮廓线
 62
     7
370
     9
100
AcDbSpline
210
0.0
220
0.0
230
1.0
 70
     8
 71
     3
 72
    10
 73
     6
 74
     4
 42
0.0000000001
 43
0.0000000001
 44
0.0000000001
 12
-0.006296138915619
 22
0.9999801791209439
 32
0.0
 13
-0.0010155589371748
 23
0.9999994843198896
 33
0.0
 40
0.0
 40
0.0
 40
0.0
 40
0.0
 40
108.8264016307789
 40
216.2235615242363
 40
322.1828924180547
 40
322.1828924180547
 40
322.1828924180547
 40
322.1828924180547
 10
48023.5069918831
 20
11088.31139194255
 30
0.0
 10
48023.27859650232
 20
11124.58614014116
 30
0.0
 10
48023.07135829977
 20
11196.66076975256
 30
0.0
 10
48023.12738122644
 20
11304.05501302335
 30
0.0
 10
48023.16820045276
 20
11375.17387944875
 30
0.0
 10
48023.13233113761
 20
11410.49363819965
 30
0.0
 11
48023.5069918831
 21
11088.31139194255
 31
0.0
 11
48023.1320093972
 21
11197.13714753395
 31
0.0
 11
48023.12857372738
 21
11304.53430737245
 31
0.0
 11
48023.13233113761
 21
11410.49363819965
 31
0.0
  0
SPLINE
  5
65BD
330
200
100
AcDbEntity
  8
11111外轮廓线
 62
     7
370
     9
100
AcDbSpline
210
0.0
220
0.0
230
1.0
 70
     8
 71
     3
 72
    44
 73
    40
 74
    38
 42
0.0000000001
 43
0.0000000001
 44
0.0000000001
 12
0.0024825840411516
 22
-0.9999969183834911
 32
0.0
 13
-0.000055285771651
 23
-0.9999999984717417
 33
0.0
 40
0.0
 40
0.0
 40
0.0
 40
0.0
 40
3.759286517526215
 40
7.203025030657478
 40
10.34602646347777
 40
13.16822052741848
 40
15.68745712176501
 40
17.94758038226129
 40
19.98941223674765
 40
21.84102502437216
 40
23.51629158696399
 40
25.02846109363999
 40
26.39060791578258
 40
27.61770046337395
 40
28.73435956342847
 40
29.77435013768515
 40
30.77073356417154
 40
31.74945918797561
 40
32.71964426448875
 40
33.69061914050501
 40
34.68033234472989
 40
35.6929662568967
 40
36.70667063600655
 40
37.7021924143156
 40
38.66232107989521
 40
39.5739610043638
 40
40.43998126707047
 40
41.26312894036291
 40
42.04735101709353
 40
42.80479199033827
 40
43.55753819856267
 40
44.31879106447566
 40
45.09223291213329
 40
45.89265782314035
 40
46.74580160385883
 40
47.67700073214577
 40
48.70613461249061
 40
49.83747554362571
 40
51.0719451983614
 40
51.0719451983614
 40
51.0719451983614
 40
51.0719451983614
 10
48239.4872289633
 20
11178.40365926845
 30
0.0
 10
48239.4903398782
 20
11177.15056762417
 30
0.0
 10
48239.49594910457
 20
11174.74956580133
 30
0.0
 10
48239.50329645971
 20
11171.30089812594
 30
0.0
 10
48239.50949591386
 20
11168.16459290622
 30
0.0
 10
48239.51474380755
 20
11165.33645373948
 30
0.0
 10
48239.51919505087
 20
11162.80260633955
 30
0.0
 10
48239.52299933853
 20
11160.52887895008
 30
0.0
 10
48239.52628186551
 20
11158.47769227413
 30
0.0
 10
48239.52913148092
 20
11156.62145739201
 30
0.0
 10
48239.5316108602
 20
11154.94177626874
 30
0.0
 10
48239.53376771503
 20
11153.42525017137
 30
0.0
 10
48239.53564427087
 20
11152.05811516662
 30
0.0
 10
48239.53728294634
 20
11150.82281676316
 30
0.0
 10
48239.53872985232
 20
11149.6949036169
 30
0.0
 10
48239.54003351516
 20
11148.64389339152
 30
0.0
 10
48239.54123763541
 20
11147.63886090436
 30
0.0
 10
48239.54237102089
 20
11146.65709684931
 30
0.0
 10
48239.54345023657
 20
11145.68380225519
 30
0.0
 10
48239.54449017437
 20
11144.70684508947
 30
0.0
 10
48239.54550028607
 20
11143.71573827297
 30
0.0
 10
48239.54646088079
 20
11142.71038823242
 30
0.0
 10
48239.547332268
 20
11141.70310191764
 30
0.0
 10
48239.54807826241
 20
11140.71331725569
 30
0.0
 10
48239.548699131
 20
11139.75755399984
 30
0.0
 10
48239.54921640224
 20
11138.84495786135
 30
0.0
 10
48239.54964769082
 20
11137.97802201455
 30
0.0
 10
48239.5500096057
 20
11137.15355875601
 30
0.0
 10
48239.55031547405
 20
11136.36528857396
 30
0.0
 10
48239.55057744644
 20
11135.60048553253
 30
0.0
 10
48239.5508051383
 20
11134.8433388841
 30
0.0
 10
48239.55100422294
 20
11134.08085860263
 30
0.0
 10
48239.55117770458
 20
11133.30248541359
 30
0.0
 10
48239.5513277174
 20
11132.49348191418
 30
0.0
 10
48239.55145487673
 20
11131.63189265002
 30
0.0
 10
48239.55155671447
 20
11130.69406705881
 30
0.0
 10
48239.55162363988
 20
11129.66350908084
 30
0.0
 10
48239.55165146887
 20
11128.5318609251
 30
0.0
 10
48239.55161510993
 20
11127.74325739683
 30
0.0
 10
48239.55159236041
 20
11127.33176751255
 30
0.0
 11
48239.4872289633
 21
11178.40365926845
 31
0.0
 11
48239.4960602985
 21
11174.64438312425
 31
0.0
 11
48239.50341771749
 21
11171.20065247055
 31
0.0
 11
48239.5096404571
 21
11168.05765719785
 31
0.0
 11
48239.51488204588
 21
11165.23546800144
 31
0.0
 11
48239.51930979208
 21
11162.71623529815
 31
0.0
 11
48239.52309225151
 21
11160.45611520275
 31
0.0
 11
48239.52636008188
 21
11158.41428596325
 31
0.0
 11
48239.5292025841
 21
11156.56267535745
 31
0.0
 11
48239.53167529948
 21
11154.88741061974
 31
0.0
 11
48239.5338256805
 21
11153.37524264204
 31
0.0
 11
48239.5356950573
 21
11152.01309710265
 31
0.0
 11
48239.537322414
 21
11150.78600563415
 31
0.0
 11
48239.53875445949
 21
11149.66934745235
 31
0.0
 11
48239.5400440563
 21
11148.62935767765
 31
0.0
 11
48239.54123737328
 21
11147.63297496575
 31
0.0
 11
48239.5423668348
 21
11146.65424999365
 31
0.0
 11
48239.54344277448
 21
11145.68406551375
 31
0.0
 11
48239.5444762663
 21
11144.71309118775
 31
0.0
 11
48239.54548211338
 21
11143.72337849464
 31
0.0
 11
48239.54644529109
 21
11142.71074504055
 31
0.0
 11
48239.5473185214
 21
11141.69704103755
 31
0.0
 11
48239.5480695713
 21
11140.70151954255
 31
0.0
 11
48239.5486960388
 21
11139.74139108135
 31
0.0
 11
48239.5492142177
 21
11138.82975130414
 31
0.0
 11
48239.54964613998
 21
11137.96373114915
 31
0.0
 11
48239.55000814288
 21
11137.14058355546
 31
0.0
 11
48239.55031288909
 21
11136.35636153794
 31
0.0
 11
48239.5505726877
 21
11135.59892060925
 31
0.0
 11
48239.55079934259
 21
11134.84617443515
 31
0.0
 11
48239.5509983509
 21
11134.08492159525
 31
0.0
 11
48239.55117095538
 21
11133.31147976685
 31
0.0
 11
48239.55131957151
 21
11132.51105486964
 31
0.0
 11
48239.5514457342
 21
11131.65791109825
 31
0.0
 11
48239.5515467338
 21
11130.72671197544
 31
0.0
 11
48239.55161483399
 21
11129.69757809735
 31
0.0
 11
48239.55163787418
 21
11128.56623716645
 31
0.0
 11
48239.55159236041
 21
11127.33176751255
 31
0.0
  0
SPLINE
  5
65BE
330
200
100
AcDbEntity
  8
11111外轮廓线
 62
     7
370
     9
100
AcDbSpline
210
0.0
220
0.0
230
1.0
 70
     8
 71
     3
 72
    41
 73
    37
 74
    35
 42
0.0000000001
 43
0.0000000001
 44
0.0000000001
 12
-0.0000560705691419
 22
0.9999999984280456
 32
0.0
 13
0.0024666278246546
 23
0.9999969578689601
 33
0.0
 40
0.0
 40
0.0
 40
0.0
 40
0.0
 40
1.201232800447418
 40
2.300258795509113
 40
3.299278822433478
 40
4.203830291142835
 40
5.03442318294153
 40
5.815219279211903
 40
6.570340820950565
 40
7.316327971215696
 40
8.063063854018643
 40
8.80960085007096
 40
9.550300182775453
 40
10.30085534836777
 40
11.08940597460533
 40
11.93476465448009
 40
12.83798901098917
 40
13.79982792299904
 40
14.83763262537486
 40
15.98735290738575
 40
17.28053249265693
 40
18.7130622129724
 40
20.25709564996147
 40
21.90084135370268
 40
23.66970361744391
 40
25.58936524667234
 40
27.61464062910421
 40
29.67059240056938
 40
31.73615861175974
 40
33.83573416732068
 40
36.03720063004308
 40
38.43393274767736
 40
41.12136258484125
 40
44.12238663144807
 40
47.37177247484734
 40
50.8537409844248
 40
50.8537409844248
 40
50.8537409844248
 40
50.8537409844248
 10
48144.91973103869
 20
11127.33047702445
 30
0.0
 10
48144.91970858743
 20
11127.7308879573
 30
0.0
 10
48144.91976384092
 20
11128.49764088978
 30
0.0
 10
48144.91975409294
 20
11129.59740049723
 30
0.0
 10
48144.91982283774
 20
11130.5982663259
 30
0.0
 10
48144.91991513435
 20
11131.50965445043
 30
0.0
 10
48144.92003389235
 20
11132.3483012612
 30
0.0
 10
48144.9201740214
 20
11133.13713809218
 30
0.0
 10
48144.92033685477
 20
11133.89777300435
 30
0.0
 10
48144.92052496857
 20
11134.64705450585
 30
0.0
 10
48144.92074117347
 20
11135.39347448443
 30
0.0
 10
48144.92098720402
 20
11136.13813184786
 30
0.0
 10
48144.92126582019
 20
11136.88406229419
 30
0.0
 10
48144.9215847584
 20
11137.64399726907
 30
0.0
 10
48144.9219592155
 20
11138.43881867182
 30
0.0
 10
48144.92240843066
 20
11139.28452977401
 30
0.0
 10
48144.92295411733
 20
11140.18800359293
 30
0.0
 10
48144.92362421618
 20
11141.15562601955
 30
0.0
 10
48144.92447017737
 20
11142.20541364655
 30
0.0
 10
48144.92553503226
 20
11143.36564801647
 30
0.0
 10
48144.92683582445
 20
11144.65745722525
 30
0.0
 10
48144.92836037113
 20
11146.08070399052
 30
0.0
 10
48144.93011534763
 20
11147.62080594561
 30
0.0
 10
48144.93211623994
 20
11149.27301853687
 30
0.0
 10
48144.93439022347
 20
11151.05044028249
 30
0.0
 10
48144.93695659185
 20
11152.95503831342
 30
0.0
 10
48144.93978907243
 20
11154.95533257061
 30
0.0
 10
48144.94283165723
 20
11157.00426143487
 30
0.0
 10
48144.94605399191
 20
11159.07795677899
 30
0.0
 10
48144.94949998186
 20
11161.20015672614
 30
0.0
 10
48144.95328920165
 20
11163.43274489135
 30
0.0
 10
48144.9576088867
 20
11165.86128385852
 30
0.0
 10
48144.96266037263
 20
11168.55634112966
 30
0.0
 10
48144.96859431058
 20
11171.53561513837
 30
0.0
 10
48144.97553603293
 20
11174.77973385734
 30
0.0
 10
48144.9807720369
 20
11177.02351255716
 30
0.0
 10
48144.9836349437
 20
11178.18416519615
 30
0.0
 11
48144.91973103869
 21
11127.33047702445
 31
0.0
 11
48144.91974937439
 21
11128.53170982476
 31
0.0
 11
48144.91976867929
 21
11129.63073581965
 31
0.0
 11
48144.91983069538
 21
11130.62975584465
 31
0.0
 11
48144.9199239712
 21
11131.53430730855
 31
0.0
 11
48144.9200413852
 21
11132.36490019205
 31
0.0
 11
48144.92018036238
 21
11133.14569627595
 31
0.0
 11
48144.9203421894
 21
11133.90081780035
 31
0.0
 11
48144.92052970231
 21
11134.64680492705
 31
0.0
 11
48144.9207462635
 21
11135.39354077845
 31
0.0
 11
48144.92099323318
 21
11136.14007773365
 31
0.0
 11
48144.9212702559
 21
11136.88077701455
 31
0.0
 11
48144.92158571757
 21
11137.63133211385
 31
0.0
 11
48144.9219579117
 21
11138.41988265225
 31
0.0
 11
48144.92240810531
 21
11139.26524121225
 31
0.0
 11
48144.92295522529
 21
11140.16846540305
 31
0.0
 11
48144.9236241559
 21
11141.13030408245
 31
0.0
 11
48144.9244584888
 21
11142.16810844945
 31
0.0
 11
48144.92550722531
 21
11143.31782825314
 31
0.0
 11
48144.92680218539
 21
11144.61100719005
 31
0.0
 11
48144.92833626411
 21
11146.04353608895
 31
0.0
 11
48144.9300953017
 21
11147.58756852395
 31
0.0
 11
48144.9320837672
 21
11149.23131302495
 31
0.0
 11
48144.93434516619
 21
11151.00017384315
 31
0.0
 11
48144.9369305071
 21
11152.91983373145
 31
0.0
 11
48144.9397976855
 21
11154.94510708435
 31
0.0
 11
48144.94285046789
 21
11157.00105658935
 31
0.0
 11
48144.94606023401
 21
11159.06662030665
 31
0.0
 11
48144.9494699257
 21
11161.16619309355
 31
0.0
 11
48144.9532073597
 21
11163.36765638374
 31
0.0
 11
48144.9574725478
 21
11165.76438470624
 31
0.0
 11
48144.96251412399
 21
11168.45180981445
 31
0.0
 11
48144.9685005263
 21
11171.45282789025
 31
0.0
 11
48144.97547145758
 21
11174.70220625624
 31
0.0
 11
48144.9836349437
 21
11178.18416519615
 31
0.0
  0
LINE
  5
65BF
330
200
100
AcDbEntity
  8
11111外轮廓线
 62
     7
370
     9
100
AcDbLine
 10
48361.3390770879
 20
11410.49363820175
 30
0.0
 11
48370.33907641079
 21
11410.48860311925
 31
0.0
  0
LINE
  5
65C0
330
200
100
AcDbEntity
  8
11111外轮廓线
 62
     7
370
     9
100
AcDbLine
 10
48014.13233180289
 20
11410.48860312895
 30
0.0
 11
48023.1323311383
 21
11410.49363823475
 31
0.0
  0
SPLINE
  5
65C1
330
200
100
AcDbEntity
  8
11111外轮廓线
 62
     7
370
     9
100
AcDbSpline
210
0.0
220
0.0
230
1.0
 70
     8
 71
     3
 72
    57
 73
    53
 74
    51
 42
0.0000000001
 43
0.0000000001
 44
0.0000000001
 12
0.7820782458875031
 22
-0.6231802446399649
 32
0.0
 13
-0.0057080311741561
 23
-0.9999837090573599
 33
0.0
 40
0.0
 40
0.0
 40
0.0
 40
0.0
 40
0.3247085892149792
 40
0.6350292036219109
 40
0.9388375214932869
 40
1.243221350803495
 40
1.552493340842598
 40
1.866939770868995
 40
2.182703741713625
 40
2.500606485737088
 40
2.831697806002205
 40
3.190012146102847
 40
3.589106810267433
 40
4.033415521799013
 40
4.511271997284666
 40
5.006671050972892
 40
5.504326125328904
 40
5.990617210260688
 40
6.458175131747529
 40
6.904723700531904
 40
7.329987951814606
 40
7.743308600882297
 40
8.158736831763489
 40
8.571124750585394
 40
8.963146867663699
 40
9.326855211507675
 40
9.659578922781751
 40
9.960950302694625
 40
10.23802142941381
 40
10.49930340468581
 40
10.75279203272843
 40
11.00353156191912
 40
11.25400701983772
 40
11.50468662629032
 40
11.75505139036286
 40
12.00548690605717
 40
12.25646980094189
 40
12.50612714458865
 40
12.75384847159324
 40
13.00847023605628
 40
13.28138861474901
 40
13.57807918966885
 40
13.89561177544941
 40
14.23452712066089
 40
14.60546581476827
 40
15.02107645534947
 40
15.48932661284581
 40
15.99753823799149
 40
16.54741547478523
 40
17.14496079483724
 40
17.79606284312012
 40
18.50674458089662
 40
18.50674458089662
 40
18.50674458089662
 40
18.50674458089662
 10
48233.92292765031
 20
11196.23247822945
 30
0.0
 10
48234.00757682493
 20
11196.16502757009
 30
0.0
 10
48234.16653069068
 20
11196.02467564118
 30
0.0
 10
48234.38337924137
 20
11195.79871012145
 30
0.0
 10
48234.58124589293
 20
11195.5648557431
 30
0.0
 10
48234.76683826657
 20
11195.32165703625
 30
0.0
 10
48234.94414810104
 20
11195.06805070653
 30
0.0
 10
48235.11449696314
 20
11194.80521328795
 30
0.0
 10
48235.2787831994
 20
11194.53519030961
 30
0.0
 10
48235.43917410661
 20
11194.25642509785
 30
0.0
 10
48235.60036082255
 20
11193.96184840216
 30
0.0
 10
48235.76822594033
 20
11193.64015724208
 30
0.0
 10
48235.9469219086
 20
11193.28162688865
 30
0.0
 10
48236.1362760499
 20
11192.88396564556
 30
0.0
 10
48236.33232734598
 20
11192.45401298396
 30
0.0
 10
48236.52892480188
 20
11192.00483132043
 30
0.0
 10
48236.72033316482
 20
11191.55036479044
 30
0.0
 10
48236.90242345898
 20
11191.10208946659
 30
0.0
 10
48237.07305035519
 20
11190.66758165863
 30
0.0
 10
48237.2317106788
 20
11190.25025895727
 30
0.0
 10
48237.37974615402
 20
11189.84826466014
 30
0.0
 10
48237.52026739068
 20
11189.45458075502
 30
0.0
 10
48237.65550297952
 20
11189.06358865646
 30
0.0
 10
48237.78457936652
 20
11188.67799989398
 30
0.0
 10
48237.90459080849
 20
11188.30757710926
 30
0.0
 10
48238.01321179692
 20
11187.96139519407
 30
0.0
 10
48238.11007590476
 20
11187.64320759023
 30
0.0
 10
48238.19623052736
 20
11187.35195816032
 30
0.0
 10
48238.27367343875
 20
11187.0829740296
 30
0.0
 10
48238.34495051436
 20
11186.82883081453
 30
0.0
 10
48238.41221501893
 20
11186.5826841064
 30
0.0
 10
48238.47690465171
 20
11186.33957389584
 30
0.0
 10
48238.53973402033
 20
11186.09694327355
 30
0.0
 10
48238.60083893714
 20
11185.85400141249
 30
0.0
 10
48238.6602732797
 20
11185.61065909165
 30
0.0
 10
48238.71797485312
 20
11185.3667961183
 30
0.0
 10
48238.77390759997
 20
11185.12276335835
 30
0.0
 10
48238.82790410582
 20
11184.87922144763
 30
0.0
 10
48238.88042054596
 20
11184.6341154899
 30
0.0
 10
48238.93272405072
 20
11184.38104097289
 30
0.0
 10
48238.98624914666
 20
11184.11155864411
 30
0.0
 10
48239.0413957092
 20
11183.82102833524
 30
0.0
 10
48239.0977269673
 20
11183.50834408221
 30
0.0
 10
48239.15499918385
 20
11183.17069825434
 30
0.0
 10
48239.21353323994
 20
11182.80012876082
 30
0.0
 10
48239.27341748108
 20
11182.38615766373
 30
0.0
 10
48239.33288891426
 20
11181.92593941219
 30
0.0
 10
48239.38927313728
 20
11181.42026421581
 30
0.0
 10
48239.43953474631
 20
11180.87063869854
 30
0.0
 10
48239.48053725718
 20
11180.27247350065
 30
0.0
 10
48239.50810161021
 20
11179.61986592841
 30
0.0
 10
48239.51335131374
 20
11179.16586692031
 30
0.0
 10
48239.5119991159
 20
11178.92897686695
 30
0.0
 11
48233.92292765031
 21
11196.23247822945
 31
0.0
 11
48234.166922069
 21
11196.01822979525
 31
0.0
 11
48234.38244432651
 21
11195.79496080895
 31
0.0
 11
48234.57912895778
 21
11195.56341243425
 31
0.0
 11
48234.7641520085
 21
11195.32171844125
 31
0.0
 11
48234.9416684114
 21
11195.06846542444
 31
0.0
 11
48235.11299584731
 21
11194.80479239384
 31
0.0
 11
48235.27730688229
 21
11194.53514675775
 31
0.0
 11
48235.43601095389
 21
11194.25969227455
 31
0.0
 11
48235.59508236078
 21
11193.96931708645
 31
0.0
 11
48235.76100183199
 21
11193.65173261675
 31
0.0
 11
48235.9391812012
 21
11193.29462106085
 31
0.0
 11
48236.1303953198
 21
11192.89356321965
 31
0.0
 11
48236.32881146781
 21
11192.45884740055
 31
0.0
 11
48236.52756805611
 21
11192.00506767314
 31
0.0
 11
48236.72081236169
 21
11191.54646412825
 31
0.0
 11
48236.9038791159
 21
11191.09594711105
 31
0.0
 11
48237.0748011444
 21
11190.66075052315
 31
0.0
 11
48237.2334844943
 21
11190.24334757785
 31
0.0
 11
48237.3804461717
 21
11189.84428373735
 31
0.0
 11
48237.51939299408
 21
11189.45501809605
 31
0.0
 11
48237.65517823619
 21
11189.06240762365
 31
0.0
 11
48237.7860842117
 21
11188.67134826605
 31
0.0
 11
48237.90690079979
 21
11188.29840766445
 31
0.0
 11
48238.0157878926
 21
11187.95138120955
 31
0.0
 11
48238.1126790021
 21
11187.63307761085
 31
0.0
 11
48238.1981623655
 21
11187.34408400675
 31
0.0
 11
48238.27481445239
 21
11187.07782686255
 31
0.0
 11
48238.3453675022
 21
11186.82625075525
 31
0.0
 11
48238.41218213679
 21
11186.58172613655
 31
0.0
 11
48238.4766571134
 21
11186.33941788475
 31
0.0
 11
48238.5394349221
 21
11186.09693716025
 31
0.0
 11
48238.60058626729
 21
11185.85383064435
 31
0.0
 11
48238.65997520091
 21
11185.61061166965
 31
0.0
 11
48238.71764730938
 21
11185.36690718585
 31
0.0
 11
48238.77371475338
 21
11185.12226692905
 31
0.0
 11
48238.82775340201
 21
11184.87852810635
 31
0.0
 11
48238.8796491296
 21
11184.63630364575
 31
0.0
 11
48238.93117920301
 21
11184.38695069415
 31
0.0
 11
48238.9843422115
 21
11184.11926032085
 31
0.0
 11
48239.03966141119
 21
11183.82777261375
 31
0.0
 11
48239.09594787619
 21
11183.51526857075
 31
0.0
 11
48239.1526093713
 21
11183.18112326375
 31
0.0
 11
48239.21046037009
 21
11182.81472351385
 31
0.0
 11
48239.2699276422
 21
11182.40338928465
 31
0.0
 11
48239.32988368499
 21
11181.93899345895
 31
0.0
 11
48239.3861270906
 21
11181.43390363005
 31
0.0
 11
48239.43609544059
 21
11180.88630145735
 31
0.0
 11
48239.47681998199
 21
11180.29014550355
 31
0.0
 11
48239.50408396628
 21
11179.63961452625
 31
0.0
 11
48239.5119991159
 21
11178.92897686695
 31
0.0
  0
SPLINE
  5
65C2
330
200
100
AcDbEntity
  8
11111外轮廓线
 62
     7
370
     9
100
AcDbSpline
210
0.0
220
0.0
230
1.0
 70
     8
 71
     3
 72
     9
 73
     5
 74
     3
 42
0.0000000001
 43
0.0000000001
 44
0.0000000001
 12
-0.0053776194267086
 22
-0.9999855405001122
 32
0.0
 13
-0.0854135483162487
 23
-0.9963455855093794
 33
0.0
 40
0.0
 40
0.0
 40
0.0
 40
0.0
 40
0.2636476387102989
 40
0.5260062447035894
 40
0.5260062447035894
 40
0.5260062447035894
 40
0.5260062447035894
 10
48239.5119991159
 20
11178.92897686695
 30
0.0
 10
48239.51152651701
 20
11178.84109559144
 30
0.0
 10
48239.50656205688
 20
11178.66576885192
 30
0.0
 10
48239.49469852131
 20
11178.49079193708
 30
0.0
 10
48239.48722886148
 20
11178.40365865744
 30
0.0
 11
48239.5119991159
 21
11178.92897686695
 31
0.0
 11
48239.50481665829
 21
11178.66542708095
 31
0.0
 11
48239.48722886148
 21
11178.40365865744
 31
0.0
  0
SPLINE
  5
65C3
330
200
100
AcDbEntity
  8
11111外轮廓线
 62
     7
370
     9
100
AcDbSpline
210
0.0
220
0.0
230
1.0
 70
     8
 71
     3
 72
    10
 73
     6
 74
     4
 42
0.0000000001
 43
0.0000000001
 44
0.0000000001
 12
-0.083329709898653
 22
0.9965220315919795
 32
0.0
 13
-0.0003493009333203
 23
0.9999999389944271
 33
0.0
 40
0.0
 40
0.0
 40
0.0
 40
0.0
 40
0.1849518998773096
 40
0.3714905375209586
 40
0.55794096556593
 40
0.55794096556593
 40
0.55794096556593
 40
0.55794096556593
 10
48144.98363512121
 20
11178.18416457955
 30
0.0
 10
48144.97849779181
 20
11178.24560079389
 30
0.0
 10
48144.96965799964
 20
11178.36913251437
 30
0.0
 10
48144.96152475641
 20
11178.55495396792
 30
0.0
 10
48144.95933880529
 20
11178.67928644366
 30
0.0
 10
48144.95931709618
 20
11178.74143658255
 30
0.0
 11
48144.98363512121
 21
11178.18416457955
 31
0.0
 11
48144.97054457969
 21
11178.36865263605
 31
0.0
 11
48144.9623366557
 21
11178.55501060695
 31
0.0
 11
48144.95931709618
 21
11178.74143658255
 31
0.0
  0
SPLINE
  5
65C4
330
200
100
AcDbEntity
  8
11111外轮廓线
 62
     7
370
     9
100
AcDbSpline
210
0.0
220
0.0
230
1.0
 70
     8
 71
     3
 72
    56
 73
    52
 74
    50
 42
0.0000000001
 43
0.0000000001
 44
0.0000000001
 12
-0.0007933189082857
 22
0.9999996853225054
 32
0.0
 13
0.7975248175001043
 23
0.6032861389684215
 33
0.0
 40
0.0
 40
0.0
 40
0.0
 40
0.0
 40
0.7337818949592978
 40
1.417526811479905
 40
2.049170537351653
 40
2.626613742855036
 40
3.147798030663708
 40
3.613281204154505
 40
4.031489991863521
 40
4.415427929011865
 40
4.776652690783192
 40
5.118078673281758
 40
5.432238443284076
 40
5.718650244271184
 40
5.988798710406361
 40
6.253553986112621
 40
6.517714593073597
 40
6.782249392697186
 40
7.047143687241701
 40
7.312077132270003
 40
7.577274727214621
 40
7.842964312241027
 40
8.109421132284065
 40
8.379237943529048
 40
8.659193826413538
 40
8.956601909321436
 40
9.278103123221628
 40
9.627482283370015
 40
10.00652093689359
 40
10.41358856360526
 40
10.8340173899856
 40
11.25203079762483
 40
11.66880633470445
 40
12.09169507760345
 40
12.52955398177139
 40
12.99160402082069
 40
13.48301834069558
 40
13.99250748381349
 40
14.50089583090011
 40
14.98915043828108
 40
15.43963244631478
 40
15.84696152281045
 40
16.22170408911477
 40
16.57469459937764
 40
16.91558921833741
 40
17.2496010891098
 40
17.57855626439089
 40
17.90272362512907
 40
18.22272924333688
 40
18.54423533888275
 40
18.87313896549228
 40
18.87313896549228
 40
18.87313896549228
 40
18.87313896549228
 10
48144.95931709618
 20
11178.74143658255
 30
0.0
 10
48144.95912305517
 20
11178.98603047057
 30
0.0
 10
48144.96709799942
 20
11179.45858117385
 30
0.0
 10
48145.00000099545
 20
11180.14093399535
 30
0.0
 10
48145.0474719459
 20
11180.77015817576
 30
0.0
 10
48145.10429996813
 20
11181.34415357591
 30
0.0
 10
48145.16606352248
 20
11181.86188254979
 30
0.0
 10
48145.22949376721
 20
11182.3258784601
 30
0.0
 10
48145.2928661285
 20
11182.7436556397
 30
0.0
 10
48145.35593908547
 20
11183.12629194597
 30
0.0
 10
48145.41896491403
 20
11183.48296985947
 30
0.0
 10
48145.48145810129
 20
11183.81610151038
 30
0.0
 10
48145.54230595706
 20
11184.12415300706
 30
0.0
 10
48145.60098969249
 20
11184.40840170843
 30
0.0
 10
48145.65843871648
 20
11184.67608068867
 30
0.0
 10
48145.71625122439
 20
11184.93608808329
 30
0.0
 10
48145.77553537091
 20
11185.19384405898
 30
0.0
 10
48145.83666091903
 20
11185.45121719344
 30
0.0
 10
48145.8997068417
 20
11185.70839194981
 30
0.0
 10
48145.96463448132
 20
11185.96532585067
 30
0.0
 10
48146.03141130375
 20
11186.22205921614
 30
0.0
 10
48146.10007253944
 20
11186.4788206394
 30
0.0
 10
48146.17085766291
 20
11186.7366016903
 30
0.0
 10
48146.24463839087
 20
11186.99848544738
 30
0.0
 10
48146.32302645096
 20
11187.26978353885
 30
0.0
 10
48146.40817501897
 20
11187.55705409554
 30
0.0
 10
48146.5021403458
 20
11187.86583929872
 30
0.0
 10
48146.60662152579
 20
11188.19985635747
 30
0.0
 10
48146.72260532774
 20
11188.56014777402
 30
0.0
 10
48146.84927614646
 20
11188.94186300238
 30
0.0
 10
48146.98366135869
 20
11189.33468826414
 30
0.0
 10
48147.12275184636
 20
11189.72930489876
 30
0.0
 10
48147.26572708394
 20
11190.12340296323
 30
0.0
 10
48147.41464044741
 20
11190.52236503
 30
0.0
 10
48147.57281974637
 20
11190.93395608691
 30
0.0
 10
48147.74363290651
 20
11191.3651378635
 30
0.0
 10
48147.92834649431
 20
11191.81646477346
 30
0.0
 10
48148.12483467842
 20
11192.27962217833
 30
0.0
 10
48148.32751696662
 20
11192.73895614519
 30
0.0
 10
48148.52937121637
 20
11193.17709242396
 30
0.0
 10
48148.72439425229
 20
11193.58120960249
 30
0.0
 10
48148.91003241235
 20
11193.94775994725
 30
0.0
 10
48149.08799081369
 20
11194.28168475055
 30
0.0
 10
48149.2629071122
 20
11194.59203214355
 30
0.0
 10
48149.439111313
 20
11194.88593986239
 30
0.0
 10
48149.62014086059
 20
11195.16743830318
 30
0.0
 10
48149.80825355129
 20
11195.43752015817
 30
0.0
 10
48150.00557515366
 20
11195.69514016494
 30
0.0
 10
48150.21527006527
 20
11195.9396429804
 30
0.0
 10
48150.44265733139
 20
11196.17009652934
 30
0.0
 10
48150.60810284194
 20
11196.31090397208
 30
0.0
 10
48150.6955391102
 20
11196.37704497175
 30
0.0
 11
48144.95931709618
 21
11178.74143658255
 31
0.0
 11
48144.9713415519
 21
11179.47511994874
 31
0.0
 11
48145.0040443222
 21
11180.15808234865
 31
0.0
 11
48145.05139324869
 21
11180.78794890245
 31
0.0
 11
48145.1081643681
 21
11181.36259461555
 31
0.0
 11
48145.16982183961
 21
11181.88011893195
 31
0.0
 11
48145.23281561079
 21
11182.34131993975
 31
0.0
 11
48145.29550017059
 21
11182.75480420315
 31
0.0
 11
48145.35791978498
 21
11183.13363415355
 31
0.0
 11
48145.42075521031
 21
11183.48935179135
 31
0.0
 11
48145.48369123479
 21
11183.82492705615
 31
0.0
 11
48145.54455884499
 21
11184.13313395925
 31
0.0
 11
48145.60246174949
 21
11184.41363168365
 31
0.0
 11
48145.65914377021
 21
11184.67776676705
 31
0.0
 11
48145.71660788738
 21
11184.93621063185
 31
0.0
 11
48145.77581193979
 21
11185.19365131715
 31
0.0
 11
48145.83694286408
 21
11185.45102588914
 31
0.0
 11
48145.9000084328
 21
11185.70830340725
 31
0.0
 11
48145.96490975191
 21
11185.96516436004
 31
0.0
 11
48146.03166187207
 21
11186.22182350915
 31
0.0
 11
48146.1002919889
 21
11186.47849618525
 31
0.0
 11
48146.17084273948
 21
11186.73544331705
 31
0.0
 11
48146.244004749
 21
11186.99515167654
 31
0.0
 11
48146.32171038648
 21
11187.26410730535
 31
0.0
 11
48146.4062233697
 21
11187.54925485215
 31
0.0
 11
48146.4998156817
 21
11187.85683168755
 31
0.0
 11
48146.604110919
 21
11188.19028078565
 31
0.0
 11
48146.7202618323
 21
11188.55108442505
 31
0.0
 11
48146.84845580639
 21
11188.93743964725
 31
0.0
 11
48146.9845363232
 21
11189.33523669475
 31
0.0
 11
48147.12349019139
 21
11189.72947904595
 31
0.0
 11
48147.26562836109
 21
11190.12126800575
 31
0.0
 11
48147.41352193099
 21
11190.51745278695
 31
0.0
 11
48147.57060679548
 21
11190.92616388945
 31
0.0
 11
48147.74080939148
 21
11191.35572333225
 31
0.0
 11
48147.9270113255
 21
11191.81049456435
 31
0.0
 11
48148.1260964295
 21
11192.27947676904
 31
0.0
 11
48148.331500998
 21
11192.74452265355
 31
0.0
 11
48148.53601063809
 21
11193.18788296835
 31
0.0
 11
48148.73200170699
 21
11193.59349551805
 31
0.0
 11
48148.91624938921
 21
11193.95677195295
 31
0.0
 11
48149.09273269939
 21
11194.28735572785
 31
0.0
 11
48149.26627670098
 21
11194.59473949425
 31
0.0
 11
48149.44182553399
 21
11194.88695815975
 31
0.0
 11
48149.62277446329
 21
11195.16770967764
 31
0.0
 11
48149.81118826939
 21
11195.43736083195
 31
0.0
 11
48150.0087643968
 21
11195.69435918145
 31
0.0
 11
48150.21768536769
 21
11195.93675477465
 31
0.0
 11
48150.44411065328
 21
11196.16500411095
 31
0.0
 11
48150.6955391102
 21
11196.37704497175
 31
0.0
  0
LINE
  5
65C5
330
200
100
AcDbEntity
  8
11111外轮廓线
 62
     7
370
     9
100
AcDbLine
 10
49324.27180110246
 20
11634.6132322101
 30
0.0
 11
49339.66747692658
 21
11710.46133663591
 31
0.0
  0
LINE
  5
65C6
330
200
100
AcDbEntity
  8
11111外轮廓线
 62
     7
370
     9
100
AcDbLine
 10
49339.66747692658
 20
11710.46133663591
 30
0.0
 11
49339.66970031467
 21
11710.47270528411
 31
0.0
  0
LINE
  5
65C7
330
200
100
AcDbEntity
  8
11111外轮廓线
 62
     7
370
     9
100
AcDbLine
 10
49356.74093186587
 20
11802.17527835071
 30
0.0
 11
49339.66747692658
 21
11710.46133663591
 31
0.0
  0
LINE
  5
65C8
330
200
100
AcDbEntity
  8
11111外轮廓线
 62
     7
370
     9
100
AcDbLine
 10
49373.78106850376
 20
11905.2690719941
 30
0.0
 11
49356.74215784599
 21
11802.1822233529
 31
0.0
  0
LINE
  5
65C9
330
200
100
AcDbEntity
  8
11111外轮廓线
 62
     7
370
     9
100
AcDbLine
 10
49387.92725306828
 20
12004.3337643553
 30
0.0
 11
49373.78106850376
 21
11905.2690719941
 31
0.0
  0
LINE
  5
65CA
330
200
100
AcDbEntity
  8
11111外轮廓线
 62
     7
370
     9
100
AcDbLine
 10
48839.51220600368
 20
12005.0138134198
 30
0.0
 11
49161.74601325207
 21
12005.01757934401
 31
0.0
  0
LINE
  5
65CB
330
200
100
AcDbEntity
  8
11111外轮廓线
 62
     7
370
     9
100
AcDbLine
 10
48839.50718623737
 20
12014.50891697851
 30
0.0
 11
49379.00427325457
 21
12014.50891697851
 31
0.0
  0
LINE
  5
65CC
330
200
100
AcDbEntity
  8
11111外轮廓线
 62
     7
370
     9
100
AcDbLine
 10
48834.50718625637
 20
12009.5089773451
 30
0.0
 11
48834.50266131548
 21
11634.61364829161
 31
0.0
  0
ARC
  5
65CD
330
200
100
AcDbEntity
  8
11111外轮廓线
 62
     7
370
     9
100
AcDbCircle
 10
49379.00427325449
 20
12005.5089169785
 30
0.0
 40
9.0
100
AcDbArc
 50
352.4973718383587
 51
89.99999999916623
  0
CIRCLE
  5
65CE
330
200
100
AcDbEntity
  8
11111外轮廓线
 62
     7
370
     9
100
AcDbCircle
 10
48949.50716140857
 20
11674.50891697851
 30
0.0
 40
5.0
  0
ARC
  5
65CF
330
200
100
AcDbEntity
  8
11111外轮廓线
 62
     7
370
     9
100
AcDbCircle
 10
48839.50718625289
 20
12009.50865647921
 30
0.0
 40
5.0
100
AcDbArc
 50
90.00000039186877
 51
179.996323147709
  0
SPLINE
  5
65D0
330
200
100
AcDbEntity
  8
11111外轮廓线
 62
     7
370
     9
100
AcDbSpline
210
0.0
220
0.0
230
1.0
 70
     8
 71
     3
 72
    11
 73
     7
 74
     5
 42
0.0000000001
 43
0.0000000001
 44
0.0000000001
 12
0.9999963753810378
 22
0.0026924384462061
 32
0.0
 13
0.9999928292845956
 23
-0.0037870013717399
 33
0.0
 40
0.0
 40
0.0
 40
0.0
 40
0.0
 40
22.72818666440664
 40
43.89302749552789
 40
63.60956637012012
 40
226.2349921538657
 40
226.2349921538657
 40
226.2349921538657
 40
226.2349921538657
 10
49161.74601325207
 20
12005.01757934401
 30
0.0
 10
49169.32204801319
 20
12005.03797742521
 30
0.0
 10
49183.95307945272
 20
12005.05060603841
 30
0.0
 10
49205.15625876667
 20
12005.01482418235
 30
0.0
 10
49272.99128513304
 20
12004.71780854514
 30
0.0
 10
49333.77273129505
 20
12005.06486083807
 30
0.0
 10
49387.98081784275
 20
12004.8595732679
 30
0.0
 11
49161.74601325207
 21
12005.01757934401
 31
0.0
 11
49184.47418779827
 21
12005.04104952661
 31
0.0
 11
49205.63899651769
 21
12005.0041811512
 31
0.0
 11
49225.35540888536
 21
12004.9335515449
 31
0.0
 11
49387.98081784275
 21
12004.8595732679
 31
0.0
  0
SPLINE
  5
65D1
330
200
100
AcDbEntity
  8
11111外轮廓线
 62
     7
370
     9
100
AcDbSpline
210
0.0
220
0.0
230
1.0
 70
     8
 71
     3
 72
    10
 73
     6
 74
     4
 42
0.0000000001
 43
0.0000000001
 44
0.0000000001
 12
-0.0000224546986817
 22
-0.9999999997478933
 32
0.0
 13
-0.0000266822985278
 23
-0.9999999996440276
 33
0.0
 40
0.0
 40
0.0
 40
0.0
 40
0.0
 40
119.7715085083542
 40
241.8769321147426
 40
370.4001695990863
 40
370.4001695990863
 40
370.4001695990863
 40
370.4001695990863
 10
48839.51220600368
 20
12005.0138134198
 30
0.0
 10
48839.51130952598
 20
11965.08997726041
 30
0.0
 10
48839.5094475438
 20
11884.46433324364
 30
0.0
 10
48839.50643041576
 20
11760.99761008077
 30
0.0
 10
48839.50426701204
 20
11677.4547230785
 30
0.0
 10
48839.50312391357
 20
11634.6136439323
 30
0.0
 11
48839.51220600368
 21
12005.0138134198
 31
0.0
 11
48839.50943896809
 21
11885.24230494341
 31
0.0
 11
48839.50645376189
 21
11763.13688137351
 31
0.0
 11
48839.50312391357
 21
11634.6136439323
 31
0.0
  0
SPLINE
  5
65D2
330
200
100
AcDbEntity
  8
11111外轮廓线
 62
     7
370
     9
100
AcDbSpline
210
0.0
220
0.0
230
1.0
 70
     8
 71
     3
 72
    11
 73
     7
 74
     5
 42
0.0000000001
 43
0.0000000001
 44
0.0000000001
 12
0.0002073419959813
 22
-0.9999999785046481
 32
0.0
 13
0.9999999990415892
 23
0.0000437815221958
 33
0.0
 40
0.0
 40
0.0
 40
0.0
 40
0.0
 40
0.3953927279841096
 40
1.48423890572447
 40
3.109162159225618
 40
5.024229148940373
 40
5.024229148940373
 40
5.024229148940373
 40
5.024229148940373
 10
48834.50713532147
 20
12005.2889511371
 30
0.0
 10
48834.50716264865
 20
12005.15715356394
 30
0.0
 10
48835.27449504475
 20
12005.22898899695
 30
0.0
 10
48836.06290259829
 20
12005.03131334042
 30
0.0
 10
48837.72888718709
 20
12005.04388487528
 30
0.0
 10
48838.87385027706
 20
12005.01383331481
 30
0.0
 10
48839.51220593968
 20
12005.013861263
 30
0.0
 11
48834.50713532147
 21
12005.2889511371
 31
0.0
 11
48834.88824331128
 21
12005.1836320531
 31
0.0
 11
48835.97342361359
 21
12005.0943588194
 31
0.0
 11
48837.59725275967
 21
12005.0347393251
 31
0.0
 11
48839.51220593968
 21
12005.013861263
 31
0.0
  0
SPLINE
  5
65D3
330
200
100
AcDbEntity
  8
11111外轮廓线
 62
     7
370
     9
100
AcDbSpline
210
0.0
220
0.0
230
1.0
 70
     8
 71
     3
 72
    12
 73
     8
 74
     6
 42
0.0000000001
 43
0.0000000001
 44
0.0000000001
 12
0.0044302998153121
 22
-0.9999901861736177
 32
0.0
 13
-0.0000365356157462
 23
-0.9999999993325744
 33
0.0
 40
0.0
 40
0.0
 40
0.0
 40
0.0
 40
0.4719213360472666
 40
1.83706592726086
 40
3.952893243104622
 40
6.596919311166951
 40
9.495107524948613
 40
9.495107524948613
 40
9.495107524948613
 40
9.495107524948613
 10
48839.50718621869
 20
12014.508917013
 30
0.0
 10
48839.50788313636
 20
12014.35161144476
 30
0.0
 10
48839.50992440551
 20
12013.73925899607
 30
0.0
 10
48839.51022167074
 20
12012.42162648759
 30
0.0
 10
48839.51166130273
 20
12010.37996168484
 30
0.0
 10
48839.51209920185
 20
12007.82728083009
 30
0.0
 10
48839.51224129658
 20
12005.97987615699
 30
0.0
 10
48839.51220600089
 20
12005.01381341971
 30
0.0
 11
48839.50718621869
 21
12014.508917013
 31
0.0
 11
48839.50880630387
 21
12014.0369984578
 31
0.0
 11
48839.51025079208
 21
12012.6718546308
 31
0.0
 11
48839.51136987298
 21
12010.55602761091
 31
0.0
 11
48839.51204488057
 21
12007.91200162901
 31
0.0
 11
48839.51220600089
 21
12005.01381341971
 31
0.0
  0
LINE
  5
65D8
330
200
100
AcDbEntity
  8
0
100
AcDbLine
 10
48049.31964510135
 20
11634.61364401991
 30
0.0
 11
48335.15175323575
 21
11634.6136439323
 31
0.0
  0
LINE
  5
65D9
330
200
100
AcDbEntity
  8
0
100
AcDbLine
 10
48834.50266131548
 20
11634.61364829161
 30
0.0
 11
49324.27180110246
 21
11634.6132322101
 31
0.0
  0
LINE
  5
65DA
330
200
100
AcDbEntity
  8
0
100
AcDbLine
 10
48019.13248245168
 20
11415.49368643216
 30
0.0
 11
48363.3360502054
 21
11415.49404170395
 31
0.0
  0
ENDSEC
  0
SECTION
  2
OBJECTS
  0
DICTIONARY
  5
C
330
0
100
AcDbDictionary
281
     1
  3
ACAD_COLOR
350
31C
  3
ACAD_DETAILVIEWSTYLE
350
3E0
  3
ACAD_GROUP
350
D
  3
ACAD_LAYOUT
350
1A
  3
ACAD_MATERIAL
350
2F2
  3
ACAD_MLEADERSTYLE
350
341
  3
ACAD_MLINESTYLE
350
17
  3
ACAD_PLOTSETTINGS
350
19
  3
ACAD_PLOTSTYLENAME
350
E
  3
ACAD_SCALELIST
350
31F
  3
ACAD_SECTIONVIEWSTYLE
350
3E1
  3
ACAD_TABLESTYLE
350
31D
  3
ACAD_VISUALSTYLE
350
30B
  3
ACDB_RECOMPOSE_DATA
350
3DE
  3
ACDBHEADERROUNDTRIPXREC
350
65F9
  3
AcDbVariableDictionary
350
347
  0
DICTIONARY
  5
38E
330
2
100
AcDbDictionary
280
     1
281
     1
  3
ACAD_LAYERSTATES
360
38F
  0
DICTIONARY
  5
467B
330
200
100
AcDbDictionary
280
     1
281
     1
  3
ACAD_SORTENTS
360
467C
  0
DICTIONARY
  5
31C
102
{ACAD_REACTORS
330
C
102
}
330
C
100
AcDbDictionary
281
     1
  0
DICTIONARY
  5
3E0
102
{ACAD_REACTORS
330
C
102
}
330
C
100
AcDbDictionary
281
     1
  0
DICTIONARY
  5
D
102
{ACAD_REACTORS
330
C
102
}
330
C
100
AcDbDictionary
281
     1
  0
DICTIONARY
  5
1A
102
{ACAD_REACTORS
330
C
102
}
330
C
100
AcDbDictionary
281
     1
  3
Layout1
350
2EF
  3
Model
350
2EE
  0
DICTIONARY
  5
2F2
102
{ACAD_REACTORS
330
C
102
}
330
C
100
AcDbDictionary
281
     1
  3
ByBlock
350
2FB
  3
ByLayer
350
2F3
  3
Global
350
303
  0
DICTIONARY
  5
341
102
{ACAD_REACTORS
330
C
102
}
330
C
100
AcDbDictionary
281
     1
  3
Standard
350
342
  0
DICTIONARY
  5
17
102
{ACAD_REACTORS
330
C
102
}
330
C
100
AcDbDictionary
281
     1
  3
Standard
350
18
  0
DICTIONARY
  5
19
102
{ACAD_REACTORS
330
C
102
}
330
C
100
AcDbDictionary
281
     1
  0
ACDBDICTIONARYWDFLT
  5
E
102
{ACAD_REACTORS
330
C
102
}
330
C
100
AcDbDictionary
281
     1
  3
Normal
350
F
100
AcDbDictionaryWithDefault
340
F
  0
DICTIONARY
  5
31F
102
{ACAD_REACTORS
330
C
102
}
330
C
100
AcDbDictionary
281
     1
  3
A0
350
320
  3
A1
350
321
  3
A2
350
322
  3
A3
350
323
  3
A4
350
324
  3
A5
350
325
  3
A6
350
326
  3
A7
350
327
  3
A8
350
328
  3
A9
350
329
  3
B0
350
32A
  3
B1
350
32B
  3
B2
350
32C
  3
B3
350
32D
  3
B4
350
32E
  3
B5
350
32F
  3
B6
350
330
  3
B7
350
331
  3
B8
350
332
  3
B9
350
333
  3
C0
350
334
  3
C1
350
335
  3
C2
350
336
  3
C3
350
337
  3
C4
350
338
  3
C5
350
339
  3
C6
350
33A
  3
C7
350
33B
  3
C8
350
33C
  3
C9
350
33D
  3
D0
350
33E
  3
D1
350
33F
  3
D2
350
340
  0
DICTIONARY
  5
3E1
102
{ACAD_REACTORS
330
C
102
}
330
C
100
AcDbDictionary
281
     1
  0
DICTIONARY
  5
31D
102
{ACAD_REACTORS
330
C
102
}
330
C
100
AcDbDictionary
281
     1
  3
Standard
350
31E
  0
DICTIONARY
  5
30B
102
{ACAD_REACTORS
330
C
102
}
330
C
100
AcDbDictionary
281
     1
  3
2dWireframe
350
311
  3
3D Hidden
350
313
  3
3dWireframe
350
312
  3
Basic
350
310
  3
Brighten
350
317
  3
ColorChange
350
31B
  3
Conceptual
350
314
  3
Dim
350
316
  3
EdgeColorOff
350
39F
  3
Facepattern
350
31A
  3
Flat
350
30C
  3
FlatWithEdges
350
30D
  3
Gouraud
350
30E
  3
GouraudWithEdges
350
30F
  3
Hidden
350
39C
  3
JitterOff
350
39D
  3
Linepattern
350
319
  3
OverhangOff
350
39E
  3
Realistic
350
315
  3
Shaded
350
3A4
  3
Shaded with edges
350
3A3
  3
Shades of Gray
350
3A0
  3
Sketchy
350
3A1
  3
Thicken
350
318
  3
Wireframe
350
39B
  3
X-Ray
350
3A2
  0
XRECORD
  5
3DE
102
{ACAD_REACTORS
330
C
102
}
330
C
100
AcDbXrecord
280
     1
 90
        1
330
31E
  0
DICTIONARY
  5
65F9
102
{ACAD_REACTORS
330
C
102
}
330
C
100
AcDbDictionary
281
     1
  0
DICTIONARY
  5
347
102
{ACAD_REACTORS
330
C
102
}
330
C
100
AcDbDictionary
281
     1
  3
CANNOSCALE
350
34A
  3
CMLEADERSTYLE
350
349
  3
CTABLESTYLE
350
348
  3
XCLIPFRAME
350
3DF
  0
DICTIONARY
  5
38F
102
{ACAD_REACTORS
330
38E
102
}
330
38E
100
AcDbDictionary
281
     1
  0
SORTENTSTABLE
  5
467C
102
{ACAD_REACTORS
330
467B
102
}
330
467B
100
AcDbSortentsTable
330
200
331
399
  5
399
  0
LAYOUT
  5
2EF
102
{ACAD_REACTORS
330
1A
102
}
330
1A
100
AcDbPlotSettings
  1

  2
none_device
  4
ISO_A4_(297.00_x_210.00_MM)
  6

 40
0.0
 41
0.0
 42
0.0
 43
0.0
 44
297.0
 45
210.0
 46
0.0
 47
0.0
 48
0.0
 49
0.0
140
0.0
141
0.0
142
1.0
143
1.0
 70
     0
 72
     1
 73
     0
 74
     0
  7

 75
     0
147
1.0
 76
     0
 77
     2
 78
   300
148
0.0
149
0.0
100
AcDbLayout
  1
Layout1
 70
     1
 71
     1
 10
0.0
 20
0.0
 11
12.0
 21
9.0
 12
0.0
 22
0.0
 32
0.0
 14
1.000000000000000E+20
 24
1.000000000000000E+20
 34
1.000000000000000E+20
 15
-1.000000000000000E+20
 25
-1.000000000000000E+20
 35
-1.000000000000000E+20
146
0.0
 13
0.0
 23
0.0
 33
0.0
 16
1.0
 26
0.0
 36
0.0
 17
0.0
 27
1.0
 37
0.0
 76
     0
330
201
  0
LAYOUT
  5
2EE
102
{ACAD_REACTORS
330
1A
102
}
330
1A
100
AcDbPlotSettings
  1

  2
none_device
  4
ISO_A4_(297.00_x_210.00_MM)
  6

 40
0.0
 41
0.0
 42
0.0
 43
0.0
 44
297.0
 45
210.0
 46
0.0
 47
0.0
 48
0.0
 49
0.0
140
0.0
141
0.0
142
1.0
143
1.0
 70
  1024
 72
     1
 73
     0
 74
     0
  7

 75
     0
147
1.0
 76
     0
 77
     2
 78
   300
148
0.0
149
0.0
100
AcDbLayout
  1
Model
 70
     0
 71
     0
 10
0.0
 20
0.0
 11
297.0
 21
210.0
 12
0.0
 22
0.0
 32
0.0
 14
0.0
 24
0.0
 34
0.0
 15
0.0
 25
0.0
 35
0.0
146
0.0
 13
0.0
 23
0.0
 33
0.0
 16
1.0
 26
0.0
 36
0.0
 17
0.0
 27
1.0
 37
0.0
 76
     0
330
200
331
39A
  0
MATERIAL
  5
2FB
102
{ACAD_REACTORS
330
2F2
102
}
330
2F2
100
AcDbMaterial
  1
ByBlock
  2

 72
     0
 73
     2
 43
0.0008202099737533
 43
0.0
 43
0.0
 43
0.0
 43
0.0
 43
0.0008202099737533
 43
0.0
 43
0.0
 43
0.0
 43
0.0
 43
1.0
 43
0.0
 43
0.0
 43
0.0
 43
0.0
 43
1.0
 77
     0
 78
     2
 47
0.0008202099737533
 47
0.0
 47
0.0
 47
0.0
 47
0.0
 47
0.0008202099737533
 47
0.0
 47
0.0
 47
0.0
 47
0.0
 47
1.0
 47
0.0
 47
0.0
 47
0.0
 47
0.0
 47
1.0
171
     0
172
     2
 49
0.0008202099737533
 49
0.0
 49
0.0
 49
0.0
 49
0.0
 49
0.0008202099737533
 49
0.0
 49
0.0
 49
0.0
 49
0.0
 49
1.0
 49
0.0
 49
0.0
 49
0.0
 49
0.0
 49
1.0
175
     0
176
     2
142
0.0008202099737533
142
0.0
142
0.0
142
0.0
142
0.0
142
0.0008202099737533
142
0.0
142
0.0
142
0.0
142
0.0
142
1.0
142
0.0
142
0.0
142
0.0
142
0.0
142
1.0
179
     0
270
     2
144
0.0008202099737533
144
0.0
144
0.0
144
0.0
144
0.0
144
0.0008202099737533
144
0.0
144
0.0
144
0.0
144
0.0
144
1.0
144
0.0
144
0.0
144
0.0
144
0.0
144
1.0
274
     2
147
0.0008202099737533
147
0.0
147
0.0
147
0.0
147
0.0
147
0.0008202099737533
147
0.0
147
0.0
147
0.0
147
0.0
147
1.0
147
0.0
147
0.0
147
0.0
147
0.0
147
1.0
  0
MATERIAL
  5
2F3
102
{ACAD_REACTORS
330
2F2
102
}
330
2F2
100
AcDbMaterial
  1
ByLayer
  2

 72
     0
 73
     2
 43
0.0008202099737533
 43
0.0
 43
0.0
 43
0.0
 43
0.0
 43
0.0008202099737533
 43
0.0
 43
0.0
 43
0.0
 43
0.0
 43
1.0
 43
0.0
 43
0.0
 43
0.0
 43
0.0
 43
1.0
 77
     0
 78
     2
 47
0.0008202099737533
 47
0.0
 47
0.0
 47
0.0
 47
0.0
 47
0.0008202099737533
 47
0.0
 47
0.0
 47
0.0
 47
0.0
 47
1.0
 47
0.0
 47
0.0
 47
0.0
 47
0.0
 47
1.0
171
     0
172
     2
 49
0.0008202099737533
 49
0.0
 49
0.0
 49
0.0
 49
0.0
 49
0.0008202099737533
 49
0.0
 49
0.0
 49
0.0
 49
0.0
 49
1.0
 49
0.0
 49
0.0
 49
0.0
 49
0.0
 49
1.0
175
     0
176
     2
142
0.0008202099737533
142
0.0
142
0.0
142
0.0
142
0.0
142
0.0008202099737533
142
0.0
142
0.0
142
0.0
142
0.0
142
1.0
142
0.0
142
0.0
142
0.0
142
0.0
142
1.0
179
     0
270
     2
144
0.0008202099737533
144
0.0
144
0.0
144
0.0
144
0.0
144
0.0008202099737533
144
0.0
144
0.0
144
0.0
144
0.0
144
1.0
144
0.0
144
0.0
144
0.0
144
0.0
144
1.0
274
     2
147
0.0008202099737533
147
0.0
147
0.0
147
0.0
147
0.0
147
0.0008202099737533
147
0.0
147
0.0
147
0.0
147
0.0
147
1.0
147
0.0
147
0.0
147
0.0
147
0.0
147
1.0
  0
MATERIAL
  5
303
102
{ACAD_REACTORS
330
2F2
102
}
330
2F2
100
AcDbMaterial
  1
Global
  2

 72
     0
 73
     2
 43
0.0008202099737533
 43
0.0
 43
0.0
 43
0.0
 43
0.0
 43
0.0008202099737533
 43
0.0
 43
0.0
 43
0.0
 43
0.0
 43
1.0
 43
0.0
 43
0.0
 43
0.0
 43
0.0
 43
1.0
 77
     0
 78
     2
 47
0.0008202099737533
 47
0.0
 47
0.0
 47
0.0
 47
0.0
 47
0.0008202099737533
 47
0.0
 47
0.0
 47
0.0
 47
0.0
 47
1.0
 47
0.0
 47
0.0
 47
0.0
 47
0.0
 47
1.0
171
     0
172
     2
 49
0.0008202099737533
 49
0.0
 49
0.0
 49
0.0
 49
0.0
 49
0.0008202099737533
 49
0.0
 49
0.0
 49
0.0
 49
0.0
 49
1.0
 49
0.0
 49
0.0
 49
0.0
 49
0.0
 49
1.0
175
     0
176
     2
142
0.0008202099737533
142
0.0
142
0.0
142
0.0
142
0.0
142
0.0008202099737533
142
0.0
142
0.0
142
0.0
142
0.0
142
1.0
142
0.0
142
0.0
142
0.0
142
0.0
142
1.0
179
     0
270
     2
144
0.0008202099737533
144
0.0
144
0.0
144
0.0
144
0.0
144
0.0008202099737533
144
0.0
144
0.0
144
0.0
144
0.0
144
1.0
144
0.0
144
0.0
144
0.0
144
0.0
144
1.0
274
     2
147
0.0008202099737533
147
0.0
147
0.0
147
0.0
147
0.0
147
0.0008202099737533
147
0.0
147
0.0
147
0.0
147
0.0
147
1.0
147
0.0
147
0.0
147
0.0
147
0.0
147
1.0
  0
MLEADERSTYLE
  5
342
102
{ACAD_REACTORS
330
341
102
}
330
341
100
AcDbMLeaderStyle
170
     2
171
     1
172
     0
 90
        2
 40
0.0
 41
0.0
173
     1
 91
-1056964608
340
14
 92
       -2
290
     1
 42
2.0
291
     1
 43
0.36
  3
Standard
341
0
 44
4.0
300

342
11
174
     1
178
     6
175
     1
176
     0
 93
-1056964608
 45
4.0
292
     0
297
     0
 46
4.0
343
0
 94
-1056964608
 47
1.0
 49
1.0
140
1.0
293
     1
141
0.0
294
     1
177
     0
142
1.0
295
     0
296
     0
143
0.125
1001
ACAD_MLEADERVER
1070
     2
  0
MLINESTYLE
  5
18
102
{ACAD_REACTORS
330
17
102
}
330
17
100
AcDbMlineStyle
  2
STANDARD
 70
     0
  3

 62
   256
 51
90.0
 52
90.0
 71
     2
 49
0.5
 62
   256
  6
BYLAYER
 49
-0.5
 62
   256
  6
BYLAYER
  0
ACDBPLACEHOLDER
  5
F
102
{ACAD_REACTORS
330
E
102
}
330
E
  0
SCALE
  5
320
102
{ACAD_REACTORS
330
31F
102
}
330
31F
100
AcDbScale
 70
     0
300
1:1
140
1.0
141
1.0
290
     1
  0
SCALE
  5
321
102
{ACAD_REACTORS
330
31F
102
}
330
31F
100
AcDbScale
 70
     0
300
1:2
140
1.0
141
2.0
290
     0
  0
SCALE
  5
322
102
{ACAD_REACTORS
330
31F
102
}
330
31F
100
AcDbScale
 70
     0
300
1:4
140
1.0
141
4.0
290
     0
  0
SCALE
  5
323
102
{ACAD_REACTORS
330
31F
102
}
330
31F
100
AcDbScale
 70
     0
300
1:5
140
1.0
141
5.0
290
     0
  0
SCALE
  5
324
102
{ACAD_REACTORS
330
31F
102
}
330
31F
100
AcDbScale
 70
     0
300
1:8
140
1.0
141
8.0
290
     0
  0
SCALE
  5
325
102
{ACAD_REACTORS
330
31F
102
}
330
31F
100
AcDbScale
 70
     0
300
1:10
140
1.0
141
10.0
290
     0
  0
SCALE
  5
326
102
{ACAD_REACTORS
330
31F
102
}
330
31F
100
AcDbScale
 70
     0
300
1:16
140
1.0
141
16.0
290
     0
  0
SCALE
  5
327
102
{ACAD_REACTORS
330
31F
102
}
330
31F
100
AcDbScale
 70
     0
300
1:20
140
1.0
141
20.0
290
     0
  0
SCALE
  5
328
102
{ACAD_REACTORS
330
31F
102
}
330
31F
100
AcDbScale
 70
     0
300
1:30
140
1.0
141
30.0
290
     0
  0
SCALE
  5
329
102
{ACAD_REACTORS
330
31F
102
}
330
31F
100
AcDbScale
 70
     0
300
1:40
140
1.0
141
40.0
290
     0
  0
SCALE
  5
32A
102
{ACAD_REACTORS
330
31F
102
}
330
31F
100
AcDbScale
 70
     0
300
1:50
140
1.0
141
50.0
290
     0
  0
SCALE
  5
32B
102
{ACAD_REACTORS
330
31F
102
}
330
31F
100
AcDbScale
 70
     0
300
1:100
140
1.0
141
100.0
290
     0
  0
SCALE
  5
32C
102
{ACAD_REACTORS
330
31F
102
}
330
31F
100
AcDbScale
 70
     0
300
2:1
140
2.0
141
1.0
290
     0
  0
SCALE
  5
32D
102
{ACAD_REACTORS
330
31F
102
}
330
31F
100
AcDbScale
 70
     0
300
4:1
140
4.0
141
1.0
290
     0
  0
SCALE
  5
32E
102
{ACAD_REACTORS
330
31F
102
}
330
31F
100
AcDbScale
 70
     0
300
8:1
140
8.0
141
1.0
290
     0
  0
SCALE
  5
32F
102
{ACAD_REACTORS
330
31F
102
}
330
31F
100
AcDbScale
 70
     0
300
10:1
140
10.0
141
1.0
290
     0
  0
SCALE
  5
330
102
{ACAD_REACTORS
330
31F
102
}
330
31F
100
AcDbScale
 70
     0
300
100:1
140
100.0
141
1.0
290
     0
  0
SCALE
  5
331
102
{ACAD_REACTORS
330
31F
102
}
330
31F
100
AcDbScale
 70
     0
300
1/128" = 1'-0"
140
0.0078125
141
12.0
290
     0
  0
SCALE
  5
332
102
{ACAD_REACTORS
330
31F
102
}
330
31F
100
AcDbScale
 70
     0
300
1/64" = 1'-0"
140
0.015625
141
12.0
290
     0
  0
SCALE
  5
333
102
{ACAD_REACTORS
330
31F
102
}
330
31F
100
AcDbScale
 70
     0
300
1/32" = 1'-0"
140
0.03125
141
12.0
290
     0
  0
SCALE
  5
334
102
{ACAD_REACTORS
330
31F
102
}
330
31F
100
AcDbScale
 70
     0
300
1/16" = 1'-0"
140
0.0625
141
12.0
290
     0
  0
SCALE
  5
335
102
{ACAD_REACTORS
330
31F
102
}
330
31F
100
AcDbScale
 70
     0
300
3/32" = 1'-0"
140
0.09375
141
12.0
290
     0
  0
SCALE
  5
336
102
{ACAD_REACTORS
330
31F
102
}
330
31F
100
AcDbScale
 70
     0
300
1/8" = 1'-0"
140
0.125
141
12.0
290
     0
  0
SCALE
  5
337
102
{ACAD_REACTORS
330
31F
102
}
330
31F
100
AcDbScale
 70
     0
300
3/16" = 1'-0"
140
0.1875
141
12.0
290
     0
  0
SCALE
  5
338
102
{ACAD_REACTORS
330
31F
102
}
330
31F
100
AcDbScale
 70
     0
300
1/4" = 1'-0"
140
0.25
141
12.0
290
     0
  0
SCALE
  5
339
102
{ACAD_REACTORS
330
31F
102
}
330
31F
100
AcDbScale
 70
     0
300
3/8" = 1'-0"
140
0.375
141
12.0
290
     0
  0
SCALE
  5
33A
102
{ACAD_REACTORS
330
31F
102
}
330
31F
100
AcDbScale
 70
     0
300
1/2" = 1'-0"
140
0.5
141
12.0
290
     0
  0
SCALE
  5
33B
102
{ACAD_REACTORS
330
31F
102
}
330
31F
100
AcDbScale
 70
     0
300
3/4" = 1'-0"
140
0.75
141
12.0
290
     0
  0
SCALE
  5
33C
102
{ACAD_REACTORS
330
31F
102
}
330
31F
100
AcDbScale
 70
     0
300
1" = 1'-0"
140
1.0
141
12.0
290
     0
  0
SCALE
  5
33D
102
{ACAD_REACTORS
330
31F
102
}
330
31F
100
AcDbScale
 70
     0
300
1-1/2" = 1'-0"
140
1.5
141
12.0
290
     0
  0
SCALE
  5
33E
102
{ACAD_REACTORS
330
31F
102
}
330
31F
100
AcDbScale
 70
     0
300
3" = 1'-0"
140
3.0
141
12.0
290
     0
  0
SCALE
  5
33F
102
{ACAD_REACTORS
330
31F
102
}
330
31F
100
AcDbScale
 70
     0
300
6" = 1'-0"
140
6.0
141
12.0
290
     0
  0
SCALE
  5
340
102
{ACAD_REACTORS
330
31F
102
}
330
31F
100
AcDbScale
 70
     0
300
1'-0" = 1'-0"
140
12.0
141
12.0
290
     0
  0
TABLESTYLE
  5
31E
102
{ACAD_XDICTIONARY
360
3A8
102
}
102
{ACAD_REACTORS
330
31D
102
}
330
31D
100
AcDbTableStyle
  3
Standard
 70
     0
 71
     0
 40
1.5
 41
1.5
280
     0
281
     0
  7
STANDARD
140
4.5
170
     2
 62
     0
 63
   257
283
     1
274
    -2
284
     1
 64
     0
275
    -2
285
     1
 65
     0
276
    -2
286
     1
 66
     0
277
    -2
287
     1
 67
     0
278
    -2
288
     1
 68
     0
279
    -2
289
     1
 69
     0
  7
STANDARD
140
6.0
170
     5
 62
     0
 63
   257
283
     1
274
    -2
284
     1
 64
     0
275
    -2
285
     1
 65
     0
276
    -2
286
     1
 66
     0
277
    -2
287
     1
 67
     0
278
    -2
288
     1
 68
     0
279
    -2
289
     1
 69
     0
  7
STANDARD
140
4.5
170
     5
 62
     0
 63
   257
283
     1
274
    -2
284
     1
 64
     0
275
    -2
285
     1
 65
     0
276
    -2
286
     1
 66
     0
277
    -2
287
     1
 67
     0
278
    -2
288
     1
 68
     0
279
    -2
289
     1
 69
     0
  0
VISUALSTYLE
  5
311
102
{ACAD_XDICTIONARY
360
3AA
102
}
102
{ACAD_REACTORS
330
30B
102
}
330
30B
100
AcDbVisualStyle
  2
2dWireframe
 70
     4
 71
     0
 72
     2
 73
     0
 90
        0
 40
-0.6
 41
-30.0
 62
     5
 63
     7
421
 16777215
 74
     1
 91
        4
 64
     7
 65
   257
 75
     1
175
     1
 42
1.0
 92
        0
 66
   257
 43
1.0
 76
     1
 77
     6
 78
     2
 67
     7
 79
     5
170
     0
171
     0
290
     0
174
     0
 93
        1
 44
0.0
173
     0
291
     0
 45
0.0
1001
ACAD
1000
AcDbSavedByObjectVersion
1070
     0
  0
VISUALSTYLE
  5
313
102
{ACAD_XDICTIONARY
360
3AC
102
}
102
{ACAD_REACTORS
330
30B
102
}
330
30B
100
AcDbVisualStyle
  2
3D Hidden
 70
     6
 71
     1
 72
     2
 73
     2
 90
        0
 40
-0.6
 41
-30.0
 62
     5
 63
     7
421
 16777215
 74
     2
 91
        2
 64
     7
 65
   257
 75
     2
175
     1
 42
40.0
 92
        0
 66
   257
 43
1.0
 76
     1
 77
     6
 78
     2
 67
     7
 79
     3
170
     0
171
     0
290
     0
174
     0
 93
        1
 44
0.0
173
     0
291
     0
 45
0.0
1001
ACAD
1000
AcDbSavedByObjectVersion
1070
     0
  0
VISUALSTYLE
  5
312
102
{ACAD_XDICTIONARY
360
3AE
102
}
102
{ACAD_REACTORS
330
30B
102
}
330
30B
100
AcDbVisualStyle
  2
3dWireframe
 70
     5
 71
     0
 72
     2
 73
     0
 90
        0
 40
-0.6
 41
-30.0
 62
     5
 63
     7
421
 16777215
 74
     1
 91
        4
 64
     7
 65
   257
 75
     1
175
     1
 42
1.0
 92
        0
 66
   257
 43
1.0
 76
     1
 77
     6
 78
     2
 67
     7
 79
     5
170
     0
171
     0
290
     0
174
     0
 93
        1
 44
0.0
173
     0
291
     0
 45
0.0
1001
ACAD
1000
AcDbSavedByObjectVersion
1070
     0
  0
VISUALSTYLE
  5
310
102
{ACAD_XDICTIONARY
360
3B0
102
}
102
{ACAD_REACTORS
330
30B
102
}
330
30B
100
AcDbVisualStyle
  2
Basic
 70
     7
 71
     1
 72
     0
 73
     1
 90
        0
 40
-0.6
 41
-30.0
 62
     5
 63
     7
421
 16777215
 74
     0
 91
        4
 64
     7
 65
   257
 75
     1
175
     1
 42
1.0
 92
        8
 66
     7
 43
1.0
 76
     1
 77
     6
 78
     2
 67
     7
 79
     5
170
     0
171
     0
290
     0
174
     0
 93
        1
 44
0.0
173
     0
291
     1
 45
0.0
1001
ACAD
1000
AcDbSavedByObjectVersion
1070
     0
  0
VISUALSTYLE
  5
317
102
{ACAD_XDICTIONARY
360
3B2
102
}
102
{ACAD_REACTORS
330
30B
102
}
330
30B
100
AcDbVisualStyle
  2
Brighten
 70
    12
 71
     2
 72
     2
 73
     0
 90
        0
 40
-0.6
 41
-30.0
 62
     5
 63
     7
421
 16777215
 74
     1
 91
        4
 64
     7
 65
   257
 75
     1
175
     1
 42
1.0
 92
        8
 66
     7
 43
1.0
 76
     1
 77
     6
 78
     2
 67
     7
 79
     5
170
     0
171
     0
290
     0
174
     0
 93
        1
 44
50.0
173
     0
291
     1
 45
0.0
1001
ACAD
1000
AcDbSavedByObjectVersion
1070
     0
  0
VISUALSTYLE
  5
31B
102
{ACAD_XDICTIONARY
360
3B4
102
}
102
{ACAD_REACTORS
330
30B
102
}
330
30B
100
AcDbVisualStyle
  2
ColorChange
 70
    16
 71
     2
 72
     2
 73
     3
 90
        0
 40
-0.6
 41
-30.0
 62
     5
 63
     8
421
  8421504
 74
     1
 91
        4
 64
     7
 65
   257
 75
     1
175
     1
 42
1.0
 92
        8
 66
     8
424
  8421504
 43
1.0
 76
     1
 77
     6
 78
     2
 67
     7
 79
     5
170
     0
171
     0
290
     0
174
     0
 93
        1
 44
0.0
173
     0
291
     1
 45
0.0
1001
ACAD
1000
AcDbSavedByObjectVersion
1070
     0
  0
VISUALSTYLE
  5
314
102
{ACAD_XDICTIONARY
360
3B6
102
}
102
{ACAD_REACTORS
330
30B
102
}
330
30B
100
AcDbVisualStyle
  2
Conceptual
 70
     9
 71
     3
 72
     2
 73
     0
 90
        0
 40
-0.6
 41
-30.0
 62
     5
 63
     7
421
 16777215
 74
     2
 91
        2
 64
     7
 65
   257
 75
     1
175
     1
 42
40.0
 92
        8
 66
     7
 43
1.0
 76
     1
 77
     6
 78
     2
 67
     7
 79
     3
170
     0
171
     0
290
     0
174
     0
 93
        1
 44
0.0
173
     0
291
     0
 45
0.0
1001
ACAD
1000
AcDbSavedByObjectVersion
1070
     0
  0
VISUALSTYLE
  5
316
102
{ACAD_XDICTIONARY
360
3B8
102
}
102
{ACAD_REACTORS
330
30B
102
}
330
30B
100
AcDbVisualStyle
  2
Dim
 70
    11
 71
     2
 72
     2
 73
     0
 90
        0
 40
-0.6
 41
-30.0
 62
     5
 63
     7
421
 16777215
 74
     1
 91
        4
 64
     7
 65
   257
 75
     1
175
     1
 42
1.0
 92
        8
 66
     7
 43
1.0
 76
     1
 77
     6
 78
     2
 67
     7
 79
     5
170
     0
171
     0
290
     0
174
     0
 93
        1
 44
-50.0
173
     0
291
     1
 45
0.0
1001
ACAD
1000
AcDbSavedByObjectVersion
1070
     0
  0
VISUALSTYLE
  5
39F
102
{ACAD_XDICTIONARY
360
3D2
102
}
102
{ACAD_REACTORS
330
30B
102
}
330
30B
100
AcDbVisualStyle
  2
EdgeColorOff
 70
    22
 71
     2
 72
     2
 73
     0
 90
        0
 40
-0.6
 41
-30.0
 62
     5
 63
     7
421
 16777215
 74
     1
 91
        4
 64
     7
 65
   257
 75
     1
175
     1
 42
1.0
 92
        8
 66
     7
 43
1.0
 76
     1
 77
     6
 78
     2
 67
     7
 79
     5
170
     0
171
     0
290
     0
174
     0
 93
        1
 44
0.0
173
     0
291
     1
 45
0.0
1001
ACAD
1000
AcDbSavedByObjectVersion
1070
     0
  0
VISUALSTYLE
  5
31A
102
{ACAD_XDICTIONARY
360
3BA
102
}
102
{ACAD_REACTORS
330
30B
102
}
330
30B
100
AcDbVisualStyle
  2
Facepattern
 70
    15
 71
     2
 72
     2
 73
     0
 90
        0
 40
-0.6
 41
-30.0
 62
     5
 63
     7
421
 16777215
 74
     1
 91
        4
 64
     7
 65
   257
 75
     1
175
     1
 42
1.0
 92
        8
 66
     7
 43
1.0
 76
     1
 77
     6
 78
     2
 67
     7
 79
     5
170
     0
171
     0
290
     0
174
     0
 93
        1
 44
0.0
173
     0
291
     1
 45
0.0
1001
ACAD
1000
AcDbSavedByObjectVersion
1070
     0
  0
VISUALSTYLE
  5
30C
102
{ACAD_XDICTIONARY
360
3BC
102
}
102
{ACAD_REACTORS
330
30B
102
}
330
30B
100
AcDbVisualStyle
  2
Flat
 70
     0
 71
     2
 72
     1
 73
     1
 90
        2
 40
-0.6
 41
30.0
 62
     5
 63
     7
421
 16777215
 74
     0
 91
        4
 64
     7
 65
   257
 75
     1
175
     1
 42
1.0
 92
        8
 66
     7
 43
1.0
 76
     1
 77
     6
 78
     2
 67
     7
 79
     5
170
     0
171
     0
290
     0
174
     0
 93
       13
 44
0.0
173
     0
291
     1
 45
0.0
1001
ACAD
1000
AcDbSavedByObjectVersion
1070
     0
  0
VISUALSTYLE
  5
30D
102
{ACAD_XDICTIONARY
360
3BE
102
}
102
{ACAD_REACTORS
330
30B
102
}
330
30B
100
AcDbVisualStyle
  2
FlatWithEdges
 70
     1
 71
     2
 72
     1
 73
     1
 90
        2
 40
-0.6
 41
30.0
 62
     5
 63
     7
421
 16777215
 74
     1
 91
        4
 64
     7
 65
   257
 75
     1
175
     1
 42
1.0
 92
        0
 66
   257
 43
1.0
 76
     1
 77
     6
 78
     2
 67
     7
 79
     5
170
     0
171
     0
290
     0
174
     0
 93
       13
 44
0.0
173
     0
291
     1
 45
0.0
1001
ACAD
1000
AcDbSavedByObjectVersion
1070
     0
  0
VISUALSTYLE
  5
30E
102
{ACAD_XDICTIONARY
360
3C0
102
}
102
{ACAD_REACTORS
330
30B
102
}
330
30B
100
AcDbVisualStyle
  2
Gouraud
 70
     2
 71
     2
 72
     2
 73
     1
 90
        2
 40
-0.6
 41
30.0
 62
     5
 63
     7
421
 16777215
 74
     0
 91
        4
 64
     7
 65
   257
 75
     1
175
     1
 42
1.0
 92
        0
 66
     7
 43
1.0
 76
     1
 77
     6
 78
     2
 67
     7
 79
     5
170
     0
171
     0
290
     0
174
     0
 93
       13
 44
0.0
173
     0
291
     1
 45
0.0
1001
ACAD
1000
AcDbSavedByObjectVersion
1070
     0
  0
VISUALSTYLE
  5
30F
102
{ACAD_XDICTIONARY
360
3C2
102
}
102
{ACAD_REACTORS
330
30B
102
}
330
30B
100
AcDbVisualStyle
  2
GouraudWithEdges
 70
     3
 71
     2
 72
     2
 73
     1
 90
        2
 40
-0.6
 41
30.0
 62
     5
 63
     7
421
 16777215
 74
     1
 91
        4
 64
     7
 65
   257
 75
     1
175
     1
 42
1.0
 92
        0
 66
   257
 43
1.0
 76
     1
 77
     6
 78
     2
 67
     7
 79
     5
170
     0
171
     0
290
     0
174
     0
 93
       13
 44
0.0
173
     0
291
     1
 45
0.0
1001
ACAD
1000
AcDbSavedByObjectVersion
1070
     0
  0
VISUALSTYLE
  5
39C
102
{ACAD_XDICTIONARY
360
3CC
102
}
102
{ACAD_REACTORS
330
30B
102
}
330
30B
100
AcDbVisualStyle
  2
Hidden
 70
     6
 71
     1
 72
     2
 73
     2
 90
        0
 40
-0.6
 41
-30.0
 62
     5
 63
     7
421
 16777215
 74
     2
 91
        2
 64
     7
 65
   257
 75
     2
175
     1
 42
40.0
 92
        0
 66
   257
 43
1.0
 76
     1
 77
     6
 78
     2
 67
     7
 79
     3
170
     0
171
     0
290
     0
174
     0
 93
        1
 44
0.0
173
     0
291
     0
 45
0.0
1001
ACAD
1000
AcDbSavedByObjectVersion
1070
     0
  0
VISUALSTYLE
  5
39D
102
{ACAD_XDICTIONARY
360
3CE
102
}
102
{ACAD_REACTORS
330
30B
102
}
330
30B
100
AcDbVisualStyle
  2
JitterOff
 70
    20
 71
     2
 72
     2
 73
     0
 90
        0
 40
-0.6
 41
-30.0
 62
     5
 63
     7
421
 16777215
 74
     1
 91
        4
 64
     7
 65
   257
 75
     1
175
     1
 42
1.0
 92
       10
 66
     7
 43
1.0
 76
     1
 77
     6
 78
     2
 67
     7
 79
     5
170
     0
171
     0
290
     0
174
     0
 93
        1
 44
0.0
173
     0
291
     1
 45
0.0
1001
ACAD
1000
AcDbSavedByObjectVersion
1070
     0
  0
VISUALSTYLE
  5
319
102
{ACAD_XDICTIONARY
360
3C4
102
}
102
{ACAD_REACTORS
330
30B
102
}
330
30B
100
AcDbVisualStyle
  2
Linepattern
 70
    14
 71
     2
 72
     2
 73
     0
 90
        0
 40
-0.6
 41
-30.0
 62
     5
 63
     7
421
 16777215
 74
     1
 91
        4
 64
     7
 65
   257
 75
     7
175
     7
 42
1.0
 92
        8
 66
     7
 43
1.0
 76
     1
 77
     6
 78
     2
 67
     7
 79
     5
170
     0
171
     0
290
     0
174
     0
 93
        1
 44
0.0
173
     0
291
     1
 45
0.0
1001
ACAD
1000
AcDbSavedByObjectVersion
1070
     0
  0
VISUALSTYLE
  5
39E
102
{ACAD_XDICTIONARY
360
3D0
102
}
102
{ACAD_REACTORS
330
30B
102
}
330
30B
100
AcDbVisualStyle
  2
OverhangOff
 70
    21
 71
     2
 72
     2
 73
     0
 90
        0
 40
-0.6
 41
-30.0
 62
     5
 63
     7
421
 16777215
 74
     1
 91
        4
 64
     7
 65
   257
 75
     1
175
     1
 42
1.0
 92
        9
 66
     7
 43
1.0
 76
     1
 77
     6
 78
     2
 67
     7
 79
     5
170
     0
171
     0
290
     0
174
     0
 93
        1
 44
0.0
173
     0
291
     1
 45
0.0
1001
ACAD
1000
AcDbSavedByObjectVersion
1070
     0
  0
VISUALSTYLE
  5
315
102
{ACAD_XDICTIONARY
360
3C6
102
}
102
{ACAD_REACTORS
330
30B
102
}
330
30B
100
AcDbVisualStyle
  2
Realistic
 70
     8
 71
     2
 72
     2
 73
     0
 90
        0
 40
-0.6
 41
-30.0
 62
     5
 63
     7
421
 16777215
 74
     1
 91
        0
 64
     7
 65
   257
 75
     1
175
     1
 42
1.0
 92
        8
 66
     8
424
  7895160
 43
1.0
 76
     1
 77
     6
 78
     2
 67
     7
 79
     5
170
     0
171
     0
290
     0
174
     0
 93
       13
 44
0.0
173
     0
291
     0
 45
0.0
1001
ACAD
1000
AcDbSavedByObjectVersion
1070
     0
  0
VISUALSTYLE
  5
3A4
102
{ACAD_XDICTIONARY
360
3DC
102
}
102
{ACAD_REACTORS
330
30B
102
}
330
30B
100
AcDbVisualStyle
  2
Shaded
 70
    27
 71
     2
 72
     2
 73
     1
 90
        2
 40
-0.6
 41
30.0
 62
     5
 63
     7
421
 16777215
 74
     0
 91
        4
 64
     7
 65
   257
 75
     1
175
     1
 42
1.0
 92
        8
 66
   257
 43
1.0
 76
     1
 77
     6
 78
     2
 67
     8
425
  7895160
 79
     3
170
     0
171
     0
290
     0
174
     0
 93
        5
 44
0.0
173
     0
291
     0
 45
0.0
1001
ACAD
1000
AcDbSavedByObjectVersion
1070
     0
  0
VISUALSTYLE
  5
3A3
102
{ACAD_XDICTIONARY
360
3DA
102
}
102
{ACAD_REACTORS
330
30B
102
}
330
30B
100
AcDbVisualStyle
  2
Shaded with edges
 70
    26
 71
     2
 72
     2
 73
     1
 90
        2
 40
-0.6
 41
30.0
 62
     5
 63
     7
421
 16777215
 74
     1
 91
       10
 64
     7
 65
   257
 75
     2
175
     1
 42
1.0
 92
        8
 66
   257
 43
1.0
 76
     1
 77
     6
 78
     2
 67
     7
 79
     3
170
     0
171
     0
290
     0
174
     0
 93
        5
 44
0.0
173
     0
291
     0
 45
0.0
1001
ACAD
1000
AcDbSavedByObjectVersion
1070
     0
  0
VISUALSTYLE
  5
3A0
102
{ACAD_XDICTIONARY
360
3D4
102
}
102
{ACAD_REACTORS
330
30B
102
}
330
30B
100
AcDbVisualStyle
  2
Shades of Gray
 70
    23
 71
     2
 72
     2
 73
     3
 90
        0
 40
-0.6
 41
-30.0
 62
     5
 63
     7
421
 16777215
 74
     2
 91
        2
 64
     7
 65
     7
 75
     1
175
     1
 42
40.0
 92
        8
 66
     7
 43
1.0
 76
     1
 77
     6
 78
     2
 67
     7
 79
     3
170
     0
171
     0
290
     0
174
     0
 93
        1
 44
0.0
173
     0
291
     0
 45
0.0
1001
ACAD
1000
AcDbSavedByObjectVersion
1070
     0
  0
VISUALSTYLE
  5
3A1
102
{ACAD_XDICTIONARY
360
3D6
102
}
102
{ACAD_REACTORS
330
30B
102
}
330
30B
100
AcDbVisualStyle
  2
Sketchy
 70
    24
 71
     1
 72
     2
 73
     2
 90
        0
 40
-0.6
 41
-30.0
 62
     5
 63
     7
421
 16777215
 74
     2
 91
        2
 64
     7
 65
     7
 75
     1
175
     1
 42
40.0
 92
       11
 66
     7
 43
1.0
 76
     1
 77
     6
 78
     2
 67
     7
 79
     6
170
     0
171
     0
290
     0
174
     0
 93
        1
 44
0.0
173
     0
291
     0
 45
0.0
1001
ACAD
1000
AcDbSavedByObjectVersion
1070
     0
  0
VISUALSTYLE
  5
318
102
{ACAD_XDICTIONARY
360
3C8
102
}
102
{ACAD_REACTORS
330
30B
102
}
330
30B
100
AcDbVisualStyle
  2
Thicken
 70
    13
 71
     2
 72
     2
 73
     0
 90
        0
 40
-0.6
 41
-30.0
 62
     5
 63
     7
421
 16777215
 74
     1
 91
        4
 64
     7
 65
   257
 75
     1
175
     1
 42
1.0
 92
       12
 66
     7
 43
1.0
 76
     1
 77
     6
 78
     2
 67
     7
 79
     5
170
     0
171
     0
290
     0
174
     0
 93
        1
 44
0.0
173
     0
291
     1
 45
0.0
1001
ACAD
1000
AcDbSavedByObjectVersion
1070
     0
  0
VISUALSTYLE
  5
39B
102
{ACAD_XDICTIONARY
360
3CA
102
}
102
{ACAD_REACTORS
330
30B
102
}
330
30B
100
AcDbVisualStyle
  2
Wireframe
 70
     5
 71
     0
 72
     2
 73
     0
 90
        0
 40
-0.6
 41
-30.0
 62
     5
 63
     7
421
 16777215
 74
     1
 91
        4
 64
     7
 65
   257
 75
     1
175
     1
 42
1.0
 92
        0
 66
   257
 43
1.0
 76
     1
 77
     6
 78
     2
 67
     7
 79
     3
170
     0
171
     0
290
     0
174
     0
 93
        1
 44
0.0
173
     0
291
     0
 45
0.0
1001
ACAD
1000
AcDbSavedByObjectVersion
1070
     0
  0
VISUALSTYLE
  5
3A2
102
{ACAD_XDICTIONARY
360
3D8
102
}
102
{ACAD_REACTORS
330
30B
102
}
330
30B
100
AcDbVisualStyle
  2
X-Ray
 70
    25
 71
     2
 72
     2
 73
     1
 90
        1
 40
0.5
 41
-30.0
 62
     5
 63
     7
421
 16777215
 74
     1
 91
        0
 64
     7
 65
   257
 75
     1
175
     1
 42
1.0
 92
        8
 66
     7
 43
1.0
 76
     1
 77
     6
 78
     2
 67
     7
 79
     3
170
     0
171
     0
290
     0
174
     0
 93
       13
 44
0.0
173
     0
291
     0
 45
0.0
1001
ACAD
1000
AcDbSavedByObjectVersion
1070
     0
  0
DICTIONARYVAR
  5
34A
102
{ACAD_REACTORS
330
347
102
}
330
347
100
DictionaryVariables
280
     0
  1
1:1
  0
DICTIONARYVAR
  5
349
102
{ACAD_REACTORS
330
347
102
}
330
347
100
DictionaryVariables
280
     0
  1
STANDARD
  0
DICTIONARYVAR
  5
348
102
{ACAD_REACTORS
330
347
102
}
330
347
100
DictionaryVariables
280
     0
  1
STANDARD
  0
DICTIONARYVAR
  5
3DF
102
{ACAD_REACTORS
330
347
102
}
330
347
100
DictionaryVariables
280
     0
  1
0
  0
DICTIONARY
  5
3A8
330
31E
100
AcDbDictionary
280
     1
281
     1
  3
ACAD_ROUNDTRIP_2008_TABLESTYLE_CELLSTYLEMAP
360
65FB
  3
ACAD_XREC_ROUNDTRIP
360
65FA
  0
DICTIONARY
  5
3AA
330
311
100
AcDbDictionary
280
     1
281
     1
  3
ACAD_XREC_ROUNDTRIP
360
3AB
  0
DICTIONARY
  5
3AC
330
313
100
AcDbDictionary
280
     1
281
     1
  3
ACAD_XREC_ROUNDTRIP
360
3AD
  0
DICTIONARY
  5
3AE
330
312
100
AcDbDictionary
280
     1
281
     1
  3
ACAD_XREC_ROUNDTRIP
360
3AF
  0
DICTIONARY
  5
3B0
330
310
100
AcDbDictionary
280
     1
281
     1
  3
ACAD_XREC_ROUNDTRIP
360
3B1
  0
DICTIONARY
  5
3B2
330
317
100
AcDbDictionary
280
     1
281
     1
  3
ACAD_XREC_ROUNDTRIP
360
3B3
  0
DICTIONARY
  5
3B4
330
31B
100
AcDbDictionary
280
     1
281
     1
  3
ACAD_XREC_ROUNDTRIP
360
3B5
  0
DICTIONARY
  5
3B6
330
314
100
AcDbDictionary
280
     1
281
     1
  3
ACAD_XREC_ROUNDTRIP
360
3B7
  0
DICTIONARY
  5
3B8
330
316
100
AcDbDictionary
280
     1
281
     1
  3
ACAD_XREC_ROUNDTRIP
360
3B9
  0
DICTIONARY
  5
3D2
330
39F
100
AcDbDictionary
280
     1
281
     1
  3
ACAD_XREC_ROUNDTRIP
360
3D3
  0
DICTIONARY
  5
3BA
330
31A
100
AcDbDictionary
280
     1
281
     1
  3
ACAD_XREC_ROUNDTRIP
360
3BB
  0
DICTIONARY
  5
3BC
330
30C
100
AcDbDictionary
280
     1
281
     1
  3
ACAD_XREC_ROUNDTRIP
360
3BD
  0
DICTIONARY
  5
3BE
330
30D
100
AcDbDictionary
280
     1
281
     1
  3
ACAD_XREC_ROUNDTRIP
360
3BF
  0
DICTIONARY
  5
3C0
330
30E
100
AcDbDictionary
280
     1
281
     1
  3
ACAD_XREC_ROUNDTRIP
360
3C1
  0
DICTIONARY
  5
3C2
330
30F
100
AcDbDictionary
280
     1
281
     1
  3
ACAD_XREC_ROUNDTRIP
360
3C3
  0
DICTIONARY
  5
3CC
330
39C
100
AcDbDictionary
280
     1
281
     1
  3
ACAD_XREC_ROUNDTRIP
360
3CD
  0
DICTIONARY
  5
3CE
330
39D
100
AcDbDictionary
280
     1
281
     1
  3
ACAD_XREC_ROUNDTRIP
360
3CF
  0
DICTIONARY
  5
3C4
330
319
100
AcDbDictionary
280
     1
281
     1
  3
ACAD_XREC_ROUNDTRIP
360
3C5
  0
DICTIONARY
  5
3D0
330
39E
100
AcDbDictionary
280
     1
281
     1
  3
ACAD_XREC_ROUNDTRIP
360
3D1
  0
DICTIONARY
  5
3C6
330
315
100
AcDbDictionary
280
     1
281
     1
  3
ACAD_XREC_ROUNDTRIP
360
3C7
  0
DICTIONARY
  5
3DC
330
3A4
100
AcDbDictionary
280
     1
281
     1
  3
ACAD_XREC_ROUNDTRIP
360
3DD
  0
DICTIONARY
  5
3DA
330
3A3
100
AcDbDictionary
280
     1
281
     1
  3
ACAD_XREC_ROUNDTRIP
360
3DB
  0
DICTIONARY
  5
3D4
330
3A0
100
AcDbDictionary
280
     1
281
     1
  3
ACAD_XREC_ROUNDTRIP
360
3D5
  0
DICTIONARY
  5
3D6
330
3A1
100
AcDbDictionary
280
     1
281
     1
  3
ACAD_XREC_ROUNDTRIP
360
3D7
  0
DICTIONARY
  5
3C8
330
318
100
AcDbDictionary
280
     1
281
     1
  3
ACAD_XREC_ROUNDTRIP
360
3C9
  0
DICTIONARY
  5
3CA
330
39B
100
AcDbDictionary
280
     1
281
     1
  3
ACAD_XREC_ROUNDTRIP
360
3CB
  0
DICTIONARY
  5
3D8
330
3A2
100
AcDbDictionary
280
     1
281
     1
  3
ACAD_XREC_ROUNDTRIP
360
3D9
  0
CELLSTYLEMAP
  5
65FB
102
{ACAD_REACTORS
330
3A8
102
}
330
3A8
100
AcDbCellStyleMap
 90
        3
300
CELLSTYLE
  1
TABLEFORMAT_BEGIN
 90
        5
170
     1
 91
        0
 92
        0
 62
   257
 93
        1
300
CONTENTFORMAT
  1
CONTENTFORMAT_BEGIN
 90
        0
 91
        0
 92
      512
 93
        0
300

 40
0.0
140
1.0
 94
        5
 62
     0
340
11
144
6.0
309
CONTENTFORMAT_END
171
     1
301
MARGIN
  1
CELLMARGIN_BEGIN
 40
1.5
 40
1.5
 40
1.5
 40
1.5
 40
4.5
 40
4.5
309
CELLMARGIN_END
 94
        6
 95
        1
302
GRIDFORMAT
  1
GRIDFORMAT_BEGIN
 90
        0
 91
        1
 62
     0
 92
       -2
340
0
 93
        0
 40
1.125
309
GRIDFORMAT_END
 95
        2
302
GRIDFORMAT
  1
GRIDFORMAT_BEGIN
 90
        0
 91
        1
 62
     0
 92
       -2
340
0
 93
        0
 40
1.125
309
GRIDFORMAT_END
 95
        4
302
GRIDFORMAT
  1
GRIDFORMAT_BEGIN
 90
        0
 91
        1
 62
     0
 92
       -2
340
0
 93
        0
 40
1.125
309
GRIDFORMAT_END
 95
        8
302
GRIDFORMAT
  1
GRIDFORMAT_BEGIN
 90
        0
 91
        1
 62
     0
 92
       -2
340
0
 93
        0
 40
1.125
309
GRIDFORMAT_END
 95
       16
302
GRIDFORMAT
  1
GRIDFORMAT_BEGIN
 90
        0
 91
        1
 62
     0
 92
       -2
340
0
 93
        0
 40
1.125
309
GRIDFORMAT_END
 95
       32
302
GRIDFORMAT
  1
GRIDFORMAT_BEGIN
 90
        0
 91
        1
 62
     0
 92
       -2
340
0
 93
        0
 40
1.125
309
GRIDFORMAT_END
309
TABLEFORMAT_END
  1
CELLSTYLE_BEGIN
 90
        1
 91
        1
300
_TITLE
309
CELLSTYLE_END
300
CELLSTYLE
  1
TABLEFORMAT_BEGIN
 90
        5
170
     1
 91
        0
 92
        0
 62
   257
 93
        1
300
CONTENTFORMAT
  1
CONTENTFORMAT_BEGIN
 90
        0
 91
        0
 92
      512
 93
        0
300

 40
0.0
140
1.0
 94
        5
 62
     0
340
11
144
4.5
309
CONTENTFORMAT_END
171
     1
301
MARGIN
  1
CELLMARGIN_BEGIN
 40
1.5
 40
1.5
 40
1.5
 40
1.5
 40
4.5
 40
4.5
309
CELLMARGIN_END
 94
        6
 95
        1
302
GRIDFORMAT
  1
GRIDFORMAT_BEGIN
 90
        0
 91
        1
 62
     0
 92
       -2
340
0
 93
        0
 40
1.125
309
GRIDFORMAT_END
 95
        2
302
GRIDFORMAT
  1
GRIDFORMAT_BEGIN
 90
        0
 91
        1
 62
     0
 92
       -2
340
0
 93
        0
 40
1.125
309
GRIDFORMAT_END
 95
        4
302
GRIDFORMAT
  1
GRIDFORMAT_BEGIN
 90
        0
 91
        1
 62
     0
 92
       -2
340
0
 93
        0
 40
1.125
309
GRIDFORMAT_END
 95
        8
302
GRIDFORMAT
  1
GRIDFORMAT_BEGIN
 90
        0
 91
        1
 62
     0
 92
       -2
340
0
 93
        0
 40
1.125
309
GRIDFORMAT_END
 95
       16
302
GRIDFORMAT
  1
GRIDFORMAT_BEGIN
 90
        0
 91
        1
 62
     0
 92
       -2
340
0
 93
        0
 40
1.125
309
GRIDFORMAT_END
 95
       32
302
GRIDFORMAT
  1
GRIDFORMAT_BEGIN
 90
        0
 91
        1
 62
     0
 92
       -2
340
0
 93
        0
 40
1.125
309
GRIDFORMAT_END
309
TABLEFORMAT_END
  1
CELLSTYLE_BEGIN
 90
        2
 91
        1
300
_HEADER
309
CELLSTYLE_END
300
CELLSTYLE
  1
TABLEFORMAT_BEGIN
 90
        5
170
     1
 91
        0
 92
        0
 62
   257
 93
        1
300
CONTENTFORMAT
  1
CONTENTFORMAT_BEGIN
 90
        0
 91
        0
 92
      512
 93
        0
300

 40
0.0
140
1.0
 94
        2
 62
     0
340
11
144
4.5
309
CONTENTFORMAT_END
171
     1
301
MARGIN
  1
CELLMARGIN_BEGIN
 40
1.5
 40
1.5
 40
1.5
 40
1.5
 40
4.5
 40
4.5
309
CELLMARGIN_END
 94
        6
 95
        1
302
GRIDFORMAT
  1
GRIDFORMAT_BEGIN
 90
        0
 91
        1
 62
     0
 92
       -2
340
0
 93
        0
 40
1.125
309
GRIDFORMAT_END
 95
        2
302
GRIDFORMAT
  1
GRIDFORMAT_BEGIN
 90
        0
 91
        1
 62
     0
 92
       -2
340
0
 93
        0
 40
1.125
309
GRIDFORMAT_END
 95
        4
302
GRIDFORMAT
  1
GRIDFORMAT_BEGIN
 90
        0
 91
        1
 62
     0
 92
       -2
340
0
 93
        0
 40
1.125
309
GRIDFORMAT_END
 95
        8
302
GRIDFORMAT
  1
GRIDFORMAT_BEGIN
 90
        0
 91
        1
 62
     0
 92
       -2
340
0
 93
        0
 40
1.125
309
GRIDFORMAT_END
 95
       16
302
GRIDFORMAT
  1
GRIDFORMAT_BEGIN
 90
        0
 91
        1
 62
     0
 92
       -2
340
0
 93
        0
 40
1.125
309
GRIDFORMAT_END
 95
       32
302
GRIDFORMAT
  1
GRIDFORMAT_BEGIN
 90
        0
 91
        1
 62
     0
 92
       -2
340
0
 93
        0
 40
1.125
309
GRIDFORMAT_END
309
TABLEFORMAT_END
  1
CELLSTYLE_BEGIN
 90
        3
 91
        2
300
_DATA
309
CELLSTYLE_END
  0
XRECORD
  5
65FA
102
{ACAD_REACTORS
330
3A8
102
}
330
3A8
100
AcDbXrecord
280
     1
102
ACAD_ROUNDTRIP_PRE2007_TABLESTYLE
 90
      512
 91
        0
  1

 92
      512
 93
        0
  2

 94
      512
 95
        0
  3

  0
XRECORD
  5
3AB
102
{ACAD_REACTORS
330
3AA
102
}
330
3AA
100
AcDbXrecord
280
     1
102
RTVSPropertyOp0
 70
     1
102
RTVSPropertyOp1
 70
     1
102
RTVSPropertyOp2
 70
     1
102
RTVSPropertyOp3
 70
     1
102
RTVSPropertyOp4
 70
     1
102
RTVSPropertyOp5
 70
     1
102
RTVSPropertyOp6
 70
     1
102
RTVSPropertyOp7
 70
     1
102
RTVSPropertyOp8
 70
     1
102
RTVSPropertyOp9
 70
     1
102
RTVSPropertyOp10
 70
     1
102
RTVSPropertyOp11
 70
     1
102
RTVSPropertyOp12
 70
     1
102
RTVSPropertyOp13
 70
     1
102
RTVSPropertyOp14
 70
     1
102
RTVSPropertyOp15
 70
     1
102
RTVSPropertyOp16
 70
     1
102
RTVSPropertyOp17
 70
     1
102
RTVSPropertyOp18
 70
     1
102
RTVSPropertyOp19
 70
     1
102
RTVSPropertyOp20
 70
     1
102
RTVSPropertyOp21
 70
     1
102
RTVSPropertyOp22
 70
     1
102
RTVSPropertyOp23
 70
     1
102
RTVSPropertyOp24
 70
     1
102
RTVSPropertyOp25
 70
     1
102
RTVSPropertyOp26
 70
     1
102
RTVSPropertyOp27
 70
     1
  0
XRECORD
  5
3AD
102
{ACAD_REACTORS
330
3AC
102
}
330
3AC
100
AcDbXrecord
280
     1
102
RTVSPropertyOp0
 70
     1
102
RTVSPropertyOp1
 70
     1
102
RTVSPropertyOp2
 70
     1
102
RTVSPropertyOp3
 70
     1
102
RTVSPropertyOp4
 70
     1
102
RTVSPropertyOp5
 70
     1
102
RTVSPropertyOp6
 70
     1
102
RTVSPropertyOp7
 70
     1
102
RTVSPropertyOp8
 70
     1
102
RTVSPropertyOp9
 70
     1
102
RTVSPropertyOp10
 70
     1
102
RTVSPropertyOp11
 70
     1
102
RTVSPropertyOp12
 70
     1
102
RTVSPropertyOp13
 70
     1
102
RTVSPropertyOp14
 70
     1
102
RTVSPropertyOp15
 70
     1
102
RTVSPropertyOp16
 70
     1
102
RTVSPropertyOp17
 70
     1
102
RTVSPropertyOp18
 70
     1
102
RTVSPropertyOp19
 70
     1
102
RTVSPropertyOp20
 70
     1
102
RTVSPropertyOp21
 70
     1
102
RTVSPropertyOp22
 70
     1
102
RTVSPropertyOp23
 70
     1
102
RTVSPropertyOp24
 70
     1
102
RTVSPropertyOp25
 70
     1
102
RTVSPropertyOp26
 70
     1
102
RTVSPropertyOp27
 70
     1
  0
XRECORD
  5
3AF
102
{ACAD_REACTORS
330
3AE
102
}
330
3AE
100
AcDbXrecord
280
     1
102
RTVSPropertyOp0
 70
     1
102
RTVSPropertyOp1
 70
     1
102
RTVSPropertyOp2
 70
     1
102
RTVSPropertyOp3
 70
     1
102
RTVSPropertyOp4
 70
     1
102
RTVSPropertyOp5
 70
     1
102
RTVSPropertyOp6
 70
     1
102
RTVSPropertyOp7
 70
     1
102
RTVSPropertyOp8
 70
     1
102
RTVSPropertyOp9
 70
     1
102
RTVSPropertyOp10
 70
     1
102
RTVSPropertyOp11
 70
     1
102
RTVSPropertyOp12
 70
     1
102
RTVSPropertyOp13
 70
     1
102
RTVSPropertyOp14
 70
     1
102
RTVSPropertyOp15
 70
     1
102
RTVSPropertyOp16
 70
     1
102
RTVSPropertyOp17
 70
     1
102
RTVSPropertyOp18
 70
     1
102
RTVSPropertyOp19
 70
     1
102
RTVSPropertyOp20
 70
     1
102
RTVSPropertyOp21
 70
     1
102
RTVSPropertyOp22
 70
     1
102
RTVSPropertyOp23
 70
     1
102
RTVSPropertyOp24
 70
     1
102
RTVSPropertyOp25
 70
     1
102
RTVSPropertyOp26
 70
     1
102
RTVSPropertyOp27
 70
     1
  0
XRECORD
  5
3B1
102
{ACAD_REACTORS
330
3B0
102
}
330
3B0
100
AcDbXrecord
280
     1
102
RTVSPropertyOp0
 70
     1
102
RTVSPropertyOp1
 70
     1
102
RTVSPropertyOp2
 70
     1
102
RTVSPropertyOp3
 70
     1
102
RTVSPropertyOp4
 70
     1
102
RTVSPropertyOp5
 70
     1
102
RTVSPropertyOp6
 70
     1
102
RTVSPropertyOp7
 70
     1
102
RTVSPropertyOp8
 70
     1
102
RTVSPropertyOp9
 70
     1
102
RTVSPropertyOp10
 70
     1
102
RTVSPropertyOp11
 70
     1
102
RTVSPropertyOp12
 70
     1
102
RTVSPropertyOp13
 70
     1
102
RTVSPropertyOp14
 70
     1
102
RTVSPropertyOp15
 70
     1
102
RTVSPropertyOp16
 70
     1
102
RTVSPropertyOp17
 70
     1
102
RTVSPropertyOp18
 70
     1
102
RTVSPropertyOp19
 70
     1
102
RTVSPropertyOp20
 70
     1
102
RTVSPropertyOp21
 70
     1
102
RTVSPropertyOp22
 70
     1
102
RTVSPropertyOp23
 70
     1
102
RTVSPropertyOp24
 70
     1
102
RTVSPropertyOp25
 70
     1
102
RTVSPropertyOp26
 70
     1
102
RTVSPropertyOp27
 70
     1
  0
XRECORD
  5
3B3
102
{ACAD_REACTORS
330
3B2
102
}
330
3B2
100
AcDbXrecord
280
     1
102
RTVSPropertyOp0
 70
     1
102
RTVSPropertyOp1
 70
     1
102
RTVSPropertyOp2
 70
     1
102
RTVSPropertyOp3
 70
     1
102
RTVSPropertyOp4
 70
     1
102
RTVSPropertyOp5
 70
     1
102
RTVSPropertyOp6
 70
     1
102
RTVSPropertyOp7
 70
     1
102
RTVSPropertyOp8
 70
     1
102
RTVSPropertyOp9
 70
     1
102
RTVSPropertyOp10
 70
     1
102
RTVSPropertyOp11
 70
     1
102
RTVSPropertyOp12
 70
     1
102
RTVSPropertyOp13
 70
     1
102
RTVSPropertyOp14
 70
     1
102
RTVSPropertyOp15
 70
     1
102
RTVSPropertyOp16
 70
     1
102
RTVSPropertyOp17
 70
     1
102
RTVSPropertyOp18
 70
     1
102
RTVSPropertyOp19
 70
     1
102
RTVSPropertyOp20
 70
     1
102
RTVSPropertyOp21
 70
     1
102
RTVSPropertyOp22
 70
     1
102
RTVSPropertyOp23
 70
     1
102
RTVSPropertyOp24
 70
     1
102
RTVSPropertyOp25
 70
     1
102
RTVSPropertyOp26
 70
     1
102
RTVSPropertyOp27
 70
     1
  0
XRECORD
  5
3B5
102
{ACAD_REACTORS
330
3B4
102
}
330
3B4
100
AcDbXrecord
280
     1
102
RTVSPropertyOp0
 70
     1
102
RTVSPropertyOp1
 70
     1
102
RTVSPropertyOp2
 70
     1
102
RTVSPropertyOp3
 70
     1
102
RTVSPropertyOp4
 70
     1
102
RTVSPropertyOp5
 70
     1
102
RTVSPropertyOp6
 70
     1
102
RTVSPropertyOp7
 70
     1
102
RTVSPropertyOp8
 70
     1
102
RTVSPropertyOp9
 70
     1
102
RTVSPropertyOp10
 70
     1
102
RTVSPropertyOp11
 70
     1
102
RTVSPropertyOp12
 70
     1
102
RTVSPropertyOp13
 70
     1
102
RTVSPropertyOp14
 70
     1
102
RTVSPropertyOp15
 70
     1
102
RTVSPropertyOp16
 70
     1
102
RTVSPropertyOp17
 70
     1
102
RTVSPropertyOp18
 70
     1
102
RTVSPropertyOp19
 70
     1
102
RTVSPropertyOp20
 70
     1
102
RTVSPropertyOp21
 70
     1
102
RTVSPropertyOp22
 70
     1
102
RTVSPropertyOp23
 70
     1
102
RTVSPropertyOp24
 70
     1
102
RTVSPropertyOp25
 70
     1
102
RTVSPropertyOp26
 70
     1
102
RTVSPropertyOp27
 70
     1
  0
XRECORD
  5
3B7
102
{ACAD_REACTORS
330
3B6
102
}
330
3B6
100
AcDbXrecord
280
     1
102
RTVSPropertyOp0
 70
     1
102
RTVSPropertyOp1
 70
     1
102
RTVSPropertyOp2
 70
     1
102
RTVSPropertyOp3
 70
     1
102
RTVSPropertyOp4
 70
     1
102
RTVSPropertyOp5
 70
     1
102
RTVSPropertyOp6
 70
     1
102
RTVSPropertyOp7
 70
     1
102
RTVSPropertyOp8
 70
     1
102
RTVSPropertyOp9
 70
     1
102
RTVSPropertyOp10
 70
     1
102
RTVSPropertyOp11
 70
     1
102
RTVSPropertyOp12
 70
     1
102
RTVSPropertyOp13
 70
     1
102
RTVSPropertyOp14
 70
     1
102
RTVSPropertyOp15
 70
     1
102
RTVSPropertyOp16
 70
     1
102
RTVSPropertyOp17
 70
     1
102
RTVSPropertyOp18
 70
     1
102
RTVSPropertyOp19
 70
     1
102
RTVSPropertyOp20
 70
     1
102
RTVSPropertyOp21
 70
     1
102
RTVSPropertyOp22
 70
     1
102
RTVSPropertyOp23
 70
     1
102
RTVSPropertyOp24
 70
     1
102
RTVSPropertyOp25
 70
     1
102
RTVSPropertyOp26
 70
     1
102
RTVSPropertyOp27
 70
     1
  0
XRECORD
  5
3B9
102
{ACAD_REACTORS
330
3B8
102
}
330
3B8
100
AcDbXrecord
280
     1
102
RTVSPropertyOp0
 70
     1
102
RTVSPropertyOp1
 70
     1
102
RTVSPropertyOp2
 70
     1
102
RTVSPropertyOp3
 70
     1
102
RTVSPropertyOp4
 70
     1
102
RTVSPropertyOp5
 70
     1
102
RTVSPropertyOp6
 70
     1
102
RTVSPropertyOp7
 70
     1
102
RTVSPropertyOp8
 70
     1
102
RTVSPropertyOp9
 70
     1
102
RTVSPropertyOp10
 70
     1
102
RTVSPropertyOp11
 70
     1
102
RTVSPropertyOp12
 70
     1
102
RTVSPropertyOp13
 70
     1
102
RTVSPropertyOp14
 70
     1
102
RTVSPropertyOp15
 70
     1
102
RTVSPropertyOp16
 70
     1
102
RTVSPropertyOp17
 70
     1
102
RTVSPropertyOp18
 70
     1
102
RTVSPropertyOp19
 70
     1
102
RTVSPropertyOp20
 70
     1
102
RTVSPropertyOp21
 70
     1
102
RTVSPropertyOp22
 70
     1
102
RTVSPropertyOp23
 70
     1
102
RTVSPropertyOp24
 70
     1
102
RTVSPropertyOp25
 70
     1
102
RTVSPropertyOp26
 70
     1
102
RTVSPropertyOp27
 70
     1
  0
XRECORD
  5
3D3
102
{ACAD_REACTORS
330
3D2
102
}
330
3D2
100
AcDbXrecord
280
     1
102
RTVSPropertyOp0
 70
     0
102
RTVSPropertyOp1
 70
     0
102
RTVSPropertyOp2
 70
     0
102
RTVSPropertyOp3
 70
     0
102
RTVSPropertyOp4
 70
     0
102
RTVSPropertyOp5
 70
     0
102
RTVSPropertyOp6
 70
     0
102
RTVSPropertyOp7
 70
     0
102
RTVSPropertyOp8
 70
     0
102
RTVSPropertyOp9
 70
     0
102
RTVSPropertyOp10
 70
     0
102
RTVSPropertyOp11
 70
     0
102
RTVSPropertyOp12
 70
     0
102
RTVSPropertyOp13
 70
     0
102
RTVSPropertyOp14
 70
     2
102
RTVSPropertyOp15
 70
     0
102
RTVSPropertyOp16
 70
     0
102
RTVSPropertyOp17
 70
     0
102
RTVSPropertyOp18
 70
     0
102
RTVSPropertyOp19
 70
     0
102
RTVSPropertyOp20
 70
     0
102
RTVSPropertyOp21
 70
     0
102
RTVSPropertyOp22
 70
     0
102
RTVSPropertyOp23
 70
     0
102
RTVSPropertyOp24
 70
     0
102
RTVSPropertyOp25
 70
     0
102
RTVSPropertyOp26
 70
     0
102
RTVSPropertyOp27
 70
     0
  0
XRECORD
  5
3BB
102
{ACAD_REACTORS
330
3BA
102
}
330
3BA
100
AcDbXrecord
280
     1
102
RTVSPropertyOp0
 70
     1
102
RTVSPropertyOp1
 70
     1
102
RTVSPropertyOp2
 70
     1
102
RTVSPropertyOp3
 70
     1
102
RTVSPropertyOp4
 70
     1
102
RTVSPropertyOp5
 70
     1
102
RTVSPropertyOp6
 70
     1
102
RTVSPropertyOp7
 70
     1
102
RTVSPropertyOp8
 70
     1
102
RTVSPropertyOp9
 70
     1
102
RTVSPropertyOp10
 70
     1
102
RTVSPropertyOp11
 70
     1
102
RTVSPropertyOp12
 70
     1
102
RTVSPropertyOp13
 70
     1
102
RTVSPropertyOp14
 70
     1
102
RTVSPropertyOp15
 70
     1
102
RTVSPropertyOp16
 70
     1
102
RTVSPropertyOp17
 70
     1
102
RTVSPropertyOp18
 70
     1
102
RTVSPropertyOp19
 70
     1
102
RTVSPropertyOp20
 70
     1
102
RTVSPropertyOp21
 70
     1
102
RTVSPropertyOp22
 70
     1
102
RTVSPropertyOp23
 70
     1
102
RTVSPropertyOp24
 70
     1
102
RTVSPropertyOp25
 70
     1
102
RTVSPropertyOp26
 70
     1
102
RTVSPropertyOp27
 70
     1
  0
XRECORD
  5
3BD
102
{ACAD_REACTORS
330
3BC
102
}
330
3BC
100
AcDbXrecord
280
     1
102
RTVSPropertyOp0
 70
     1
102
RTVSPropertyOp1
 70
     1
102
RTVSPropertyOp2
 70
     1
102
RTVSPropertyOp3
 70
     1
102
RTVSPropertyOp4
 70
     1
102
RTVSPropertyOp5
 70
     1
102
RTVSPropertyOp6
 70
     1
102
RTVSPropertyOp7
 70
     1
102
RTVSPropertyOp8
 70
     1
102
RTVSPropertyOp9
 70
     1
102
RTVSPropertyOp10
 70
     1
102
RTVSPropertyOp11
 70
     1
102
RTVSPropertyOp12
 70
     1
102
RTVSPropertyOp13
 70
     1
102
RTVSPropertyOp14
 70
     1
102
RTVSPropertyOp15
 70
     1
102
RTVSPropertyOp16
 70
     1
102
RTVSPropertyOp17
 70
     1
102
RTVSPropertyOp18
 70
     1
102
RTVSPropertyOp19
 70
     1
102
RTVSPropertyOp20
 70
     1
102
RTVSPropertyOp21
 70
     1
102
RTVSPropertyOp22
 70
     1
102
RTVSPropertyOp23
 70
     1
102
RTVSPropertyOp24
 70
     1
102
RTVSPropertyOp25
 70
     1
102
RTVSPropertyOp26
 70
     1
102
RTVSPropertyOp27
 70
     1
  0
XRECORD
  5
3BF
102
{ACAD_REACTORS
330
3BE
102
}
330
3BE
100
AcDbXrecord
280
     1
102
RTVSPropertyOp0
 70
     1
102
RTVSPropertyOp1
 70
     1
102
RTVSPropertyOp2
 70
     1
102
RTVSPropertyOp3
 70
     1
102
RTVSPropertyOp4
 70
     1
102
RTVSPropertyOp5
 70
     1
102
RTVSPropertyOp6
 70
     1
102
RTVSPropertyOp7
 70
     1
102
RTVSPropertyOp8
 70
     1
102
RTVSPropertyOp9
 70
     1
102
RTVSPropertyOp10
 70
     1
102
RTVSPropertyOp11
 70
     1
102
RTVSPropertyOp12
 70
     1
102
RTVSPropertyOp13
 70
     1
102
RTVSPropertyOp14
 70
     1
102
RTVSPropertyOp15
 70
     1
102
RTVSPropertyOp16
 70
     1
102
RTVSPropertyOp17
 70
     1
102
RTVSPropertyOp18
 70
     1
102
RTVSPropertyOp19
 70
     1
102
RTVSPropertyOp20
 70
     1
102
RTVSPropertyOp21
 70
     1
102
RTVSPropertyOp22
 70
     1
102
RTVSPropertyOp23
 70
     1
102
RTVSPropertyOp24
 70
     1
102
RTVSPropertyOp25
 70
     1
102
RTVSPropertyOp26
 70
     1
102
RTVSPropertyOp27
 70
     1
  0
XRECORD
  5
3C1
102
{ACAD_REACTORS
330
3C0
102
}
330
3C0
100
AcDbXrecord
280
     1
102
RTVSPropertyOp0
 70
     1
102
RTVSPropertyOp1
 70
     1
102
RTVSPropertyOp2
 70
     1
102
RTVSPropertyOp3
 70
     1
102
RTVSPropertyOp4
 70
     1
102
RTVSPropertyOp5
 70
     1
102
RTVSPropertyOp6
 70
     1
102
RTVSPropertyOp7
 70
     1
102
RTVSPropertyOp8
 70
     1
102
RTVSPropertyOp9
 70
     1
102
RTVSPropertyOp10
 70
     1
102
RTVSPropertyOp11
 70
     1
102
RTVSPropertyOp12
 70
     1
102
RTVSPropertyOp13
 70
     1
102
RTVSPropertyOp14
 70
     1
102
RTVSPropertyOp15
 70
     1
102
RTVSPropertyOp16
 70
     1
102
RTVSPropertyOp17
 70
     1
102
RTVSPropertyOp18
 70
     1
102
RTVSPropertyOp19
 70
     1
102
RTVSPropertyOp20
 70
     1
102
RTVSPropertyOp21
 70
     1
102
RTVSPropertyOp22
 70
     1
102
RTVSPropertyOp23
 70
     1
102
RTVSPropertyOp24
 70
     1
102
RTVSPropertyOp25
 70
     1
102
RTVSPropertyOp26
 70
     1
102
RTVSPropertyOp27
 70
     1
  0
XRECORD
  5
3C3
102
{ACAD_REACTORS
330
3C2
102
}
330
3C2
100
AcDbXrecord
280
     1
102
RTVSPropertyOp0
 70
     1
102
RTVSPropertyOp1
 70
     1
102
RTVSPropertyOp2
 70
     1
102
RTVSPropertyOp3
 70
     1
102
RTVSPropertyOp4
 70
     1
102
RTVSPropertyOp5
 70
     1
102
RTVSPropertyOp6
 70
     1
102
RTVSPropertyOp7
 70
     1
102
RTVSPropertyOp8
 70
     1
102
RTVSPropertyOp9
 70
     1
102
RTVSPropertyOp10
 70
     1
102
RTVSPropertyOp11
 70
     1
102
RTVSPropertyOp12
 70
     1
102
RTVSPropertyOp13
 70
     1
102
RTVSPropertyOp14
 70
     1
102
RTVSPropertyOp15
 70
     1
102
RTVSPropertyOp16
 70
     1
102
RTVSPropertyOp17
 70
     1
102
RTVSPropertyOp18
 70
     1
102
RTVSPropertyOp19
 70
     1
102
RTVSPropertyOp20
 70
     1
102
RTVSPropertyOp21
 70
     1
102
RTVSPropertyOp22
 70
     1
102
RTVSPropertyOp23
 70
     1
102
RTVSPropertyOp24
 70
     1
102
RTVSPropertyOp25
 70
     1
102
RTVSPropertyOp26
 70
     1
102
RTVSPropertyOp27
 70
     1
  0
XRECORD
  5
3CD
102
{ACAD_REACTORS
330
3CC
102
}
330
3CC
100
AcDbXrecord
280
     1
102
RTVSPropertyOp0
 70
     1
102
RTVSPropertyOp1
 70
     1
102
RTVSPropertyOp2
 70
     1
102
RTVSPropertyOp3
 70
     1
102
RTVSPropertyOp4
 70
     1
102
RTVSPropertyOp5
 70
     1
102
RTVSPropertyOp6
 70
     1
102
RTVSPropertyOp7
 70
     1
102
RTVSPropertyOp8
 70
     1
102
RTVSPropertyOp9
 70
     1
102
RTVSPropertyOp10
 70
     1
102
RTVSPropertyOp11
 70
     1
102
RTVSPropertyOp12
 70
     1
102
RTVSPropertyOp13
 70
     1
102
RTVSPropertyOp14
 70
     1
102
RTVSPropertyOp15
 70
     1
102
RTVSPropertyOp16
 70
     1
102
RTVSPropertyOp17
 70
     1
102
RTVSPropertyOp18
 70
     1
102
RTVSPropertyOp19
 70
     1
102
RTVSPropertyOp20
 70
     1
102
RTVSPropertyOp21
 70
     1
102
RTVSPropertyOp22
 70
     1
102
RTVSPropertyOp23
 70
     1
102
RTVSPropertyOp24
 70
     1
102
RTVSPropertyOp25
 70
     1
102
RTVSPropertyOp26
 70
     1
102
RTVSPropertyOp27
 70
     1
  0
XRECORD
  5
3CF
102
{ACAD_REACTORS
330
3CE
102
}
330
3CE
100
AcDbXrecord
280
     1
102
RTVSPropertyOp0
 70
     0
102
RTVSPropertyOp1
 70
     0
102
RTVSPropertyOp2
 70
     0
102
RTVSPropertyOp3
 70
     0
102
RTVSPropertyOp4
 70
     0
102
RTVSPropertyOp5
 70
     0
102
RTVSPropertyOp6
 70
     0
102
RTVSPropertyOp7
 70
     0
102
RTVSPropertyOp8
 70
     0
102
RTVSPropertyOp9
 70
     0
102
RTVSPropertyOp10
 70
     0
102
RTVSPropertyOp11
 70
     0
102
RTVSPropertyOp12
 70
     0
102
RTVSPropertyOp13
 70
     0
102
RTVSPropertyOp14
 70
     2
102
RTVSPropertyOp15
 70
     0
102
RTVSPropertyOp16
 70
     0
102
RTVSPropertyOp17
 70
     0
102
RTVSPropertyOp18
 70
     0
102
RTVSPropertyOp19
 70
     0
102
RTVSPropertyOp20
 70
     0
102
RTVSPropertyOp21
 70
     0
102
RTVSPropertyOp22
 70
     0
102
RTVSPropertyOp23
 70
     0
102
RTVSPropertyOp24
 70
     0
102
RTVSPropertyOp25
 70
     0
102
RTVSPropertyOp26
 70
     0
102
RTVSPropertyOp27
 70
     0
  0
XRECORD
  5
3C5
102
{ACAD_REACTORS
330
3C4
102
}
330
3C4
100
AcDbXrecord
280
     1
102
RTVSPropertyOp0
 70
     1
102
RTVSPropertyOp1
 70
     1
102
RTVSPropertyOp2
 70
     1
102
RTVSPropertyOp3
 70
     1
102
RTVSPropertyOp4
 70
     1
102
RTVSPropertyOp5
 70
     1
102
RTVSPropertyOp6
 70
     1
102
RTVSPropertyOp7
 70
     1
102
RTVSPropertyOp8
 70
     1
102
RTVSPropertyOp9
 70
     1
102
RTVSPropertyOp10
 70
     1
102
RTVSPropertyOp11
 70
     1
102
RTVSPropertyOp12
 70
     1
102
RTVSPropertyOp13
 70
     1
102
RTVSPropertyOp14
 70
     1
102
RTVSPropertyOp15
 70
     1
102
RTVSPropertyOp16
 70
     1
102
RTVSPropertyOp17
 70
     1
102
RTVSPropertyOp18
 70
     1
102
RTVSPropertyOp19
 70
     1
102
RTVSPropertyOp20
 70
     1
102
RTVSPropertyOp21
 70
     1
102
RTVSPropertyOp22
 70
     1
102
RTVSPropertyOp23
 70
     1
102
RTVSPropertyOp24
 70
     1
102
RTVSPropertyOp25
 70
     1
102
RTVSPropertyOp26
 70
     1
102
RTVSPropertyOp27
 70
     1
  0
XRECORD
  5
3D1
102
{ACAD_REACTORS
330
3D0
102
}
330
3D0
100
AcDbXrecord
280
     1
102
RTVSPropertyOp0
 70
     0
102
RTVSPropertyOp1
 70
     0
102
RTVSPropertyOp2
 70
     0
102
RTVSPropertyOp3
 70
     0
102
RTVSPropertyOp4
 70
     0
102
RTVSPropertyOp5
 70
     0
102
RTVSPropertyOp6
 70
     0
102
RTVSPropertyOp7
 70
     0
102
RTVSPropertyOp8
 70
     0
102
RTVSPropertyOp9
 70
     0
102
RTVSPropertyOp10
 70
     0
102
RTVSPropertyOp11
 70
     0
102
RTVSPropertyOp12
 70
     0
102
RTVSPropertyOp13
 70
     0
102
RTVSPropertyOp14
 70
     2
102
RTVSPropertyOp15
 70
     0
102
RTVSPropertyOp16
 70
     0
102
RTVSPropertyOp17
 70
     0
102
RTVSPropertyOp18
 70
     0
102
RTVSPropertyOp19
 70
     0
102
RTVSPropertyOp20
 70
     0
102
RTVSPropertyOp21
 70
     0
102
RTVSPropertyOp22
 70
     0
102
RTVSPropertyOp23
 70
     0
102
RTVSPropertyOp24
 70
     0
102
RTVSPropertyOp25
 70
     0
102
RTVSPropertyOp26
 70
     0
102
RTVSPropertyOp27
 70
     0
  0
XRECORD
  5
3C7
102
{ACAD_REACTORS
330
3C6
102
}
330
3C6
100
AcDbXrecord
280
     1
102
RTVSPropertyOp0
 70
     1
102
RTVSPropertyOp1
 70
     1
102
RTVSPropertyOp2
 70
     1
102
RTVSPropertyOp3
 70
     1
102
RTVSPropertyOp4
 70
     1
102
RTVSPropertyOp5
 70
     1
102
RTVSPropertyOp6
 70
     1
102
RTVSPropertyOp7
 70
     1
102
RTVSPropertyOp8
 70
     1
102
RTVSPropertyOp9
 70
     1
102
RTVSPropertyOp10
 70
     1
102
RTVSPropertyOp11
 70
     1
102
RTVSPropertyOp12
 70
     1
102
RTVSPropertyOp13
 70
     1
102
RTVSPropertyOp14
 70
     1
102
RTVSPropertyOp15
 70
     1
102
RTVSPropertyOp16
 70
     1
102
RTVSPropertyOp17
 70
     1
102
RTVSPropertyOp18
 70
     1
102
RTVSPropertyOp19
 70
     1
102
RTVSPropertyOp20
 70
     1
102
RTVSPropertyOp21
 70
     1
102
RTVSPropertyOp22
 70
     1
102
RTVSPropertyOp23
 70
     1
102
RTVSPropertyOp24
 70
     1
102
RTVSPropertyOp25
 70
     1
102
RTVSPropertyOp26
 70
     1
102
RTVSPropertyOp27
 70
     1
  0
XRECORD
  5
3DD
102
{ACAD_REACTORS
330
3DC
102
}
330
3DC
100
AcDbXrecord
280
     1
102
RTVSPropertyOp0
 70
     1
102
RTVSPropertyOp1
 70
     1
102
RTVSPropertyOp2
 70
     1
102
RTVSPropertyOp3
 70
     1
102
RTVSPropertyOp4
 70
     1
102
RTVSPropertyOp5
 70
     1
102
RTVSPropertyOp6
 70
     1
102
RTVSPropertyOp7
 70
     1
102
RTVSPropertyOp8
 70
     1
102
RTVSPropertyOp9
 70
     1
102
RTVSPropertyOp10
 70
     1
102
RTVSPropertyOp11
 70
     1
102
RTVSPropertyOp12
 70
     1
102
RTVSPropertyOp13
 70
     1
102
RTVSPropertyOp14
 70
     1
102
RTVSPropertyOp15
 70
     1
102
RTVSPropertyOp16
 70
     1
102
RTVSPropertyOp17
 70
     1
102
RTVSPropertyOp18
 70
     1
102
RTVSPropertyOp19
 70
     1
102
RTVSPropertyOp20
 70
     1
102
RTVSPropertyOp21
 70
     1
102
RTVSPropertyOp22
 70
     1
102
RTVSPropertyOp23
 70
     1
102
RTVSPropertyOp24
 70
     1
102
RTVSPropertyOp25
 70
     1
102
RTVSPropertyOp26
 70
     1
102
RTVSPropertyOp27
 70
     1
  0
XRECORD
  5
3DB
102
{ACAD_REACTORS
330
3DA
102
}
330
3DA
100
AcDbXrecord
280
     1
102
RTVSPropertyOp0
 70
     1
102
RTVSPropertyOp1
 70
     1
102
RTVSPropertyOp2
 70
     1
102
RTVSPropertyOp3
 70
     1
102
RTVSPropertyOp4
 70
     1
102
RTVSPropertyOp5
 70
     1
102
RTVSPropertyOp6
 70
     1
102
RTVSPropertyOp7
 70
     1
102
RTVSPropertyOp8
 70
     1
102
RTVSPropertyOp9
 70
     1
102
RTVSPropertyOp10
 70
     1
102
RTVSPropertyOp11
 70
     1
102
RTVSPropertyOp12
 70
     1
102
RTVSPropertyOp13
 70
     1
102
RTVSPropertyOp14
 70
     1
102
RTVSPropertyOp15
 70
     1
102
RTVSPropertyOp16
 70
     1
102
RTVSPropertyOp17
 70
     1
102
RTVSPropertyOp18
 70
     1
102
RTVSPropertyOp19
 70
     1
102
RTVSPropertyOp20
 70
     1
102
RTVSPropertyOp21
 70
     1
102
RTVSPropertyOp22
 70
     1
102
RTVSPropertyOp23
 70
     1
102
RTVSPropertyOp24
 70
     1
102
RTVSPropertyOp25
 70
     1
102
RTVSPropertyOp26
 70
     1
102
RTVSPropertyOp27
 70
     1
  0
XRECORD
  5
3D5
102
{ACAD_REACTORS
330
3D4
102
}
330
3D4
100
AcDbXrecord
280
     1
102
RTVSPropertyOp0
 70
     1
102
RTVSPropertyOp1
 70
     1
102
RTVSPropertyOp2
 70
     1
102
RTVSPropertyOp3
 70
     1
102
RTVSPropertyOp4
 70
     1
102
RTVSPropertyOp5
 70
     1
102
RTVSPropertyOp6
 70
     1
102
RTVSPropertyOp7
 70
     1
102
RTVSPropertyOp8
 70
     1
102
RTVSPropertyOp9
 70
     1
102
RTVSPropertyOp10
 70
     1
102
RTVSPropertyOp11
 70
     1
102
RTVSPropertyOp12
 70
     1
102
RTVSPropertyOp13
 70
     1
102
RTVSPropertyOp14
 70
     1
102
RTVSPropertyOp15
 70
     1
102
RTVSPropertyOp16
 70
     1
102
RTVSPropertyOp17
 70
     1
102
RTVSPropertyOp18
 70
     1
102
RTVSPropertyOp19
 70
     1
102
RTVSPropertyOp20
 70
     1
102
RTVSPropertyOp21
 70
     1
102
RTVSPropertyOp22
 70
     1
102
RTVSPropertyOp23
 70
     1
102
RTVSPropertyOp24
 70
     1
102
RTVSPropertyOp25
 70
     1
102
RTVSPropertyOp26
 70
     1
102
RTVSPropertyOp27
 70
     1
  0
XRECORD
  5
3D7
102
{ACAD_REACTORS
330
3D6
102
}
330
3D6
100
AcDbXrecord
280
     1
102
RTVSPropertyOp0
 70
     1
102
RTVSPropertyOp1
 70
     1
102
RTVSPropertyOp2
 70
     1
102
RTVSPropertyOp3
 70
     1
102
RTVSPropertyOp4
 70
     1
102
RTVSPropertyOp5
 70
     1
102
RTVSPropertyOp6
 70
     1
102
RTVSPropertyOp7
 70
     1
102
RTVSPropertyOp8
 70
     1
102
RTVSPropertyOp9
 70
     1
102
RTVSPropertyOp10
 70
     1
102
RTVSPropertyOp11
 70
     1
102
RTVSPropertyOp12
 70
     1
102
RTVSPropertyOp13
 70
     1
102
RTVSPropertyOp14
 70
     1
102
RTVSPropertyOp15
 70
     1
102
RTVSPropertyOp16
 70
     1
102
RTVSPropertyOp17
 70
     1
102
RTVSPropertyOp18
 70
     1
102
RTVSPropertyOp19
 70
     1
102
RTVSPropertyOp20
 70
     1
102
RTVSPropertyOp21
 70
     1
102
RTVSPropertyOp22
 70
     1
102
RTVSPropertyOp23
 70
     1
102
RTVSPropertyOp24
 70
     1
102
RTVSPropertyOp25
 70
     1
102
RTVSPropertyOp26
 70
     1
102
RTVSPropertyOp27
 70
     1
  0
XRECORD
  5
3C9
102
{ACAD_REACTORS
330
3C8
102
}
330
3C8
100
AcDbXrecord
280
     1
102
RTVSPropertyOp0
 70
     1
102
RTVSPropertyOp1
 70
     1
102
RTVSPropertyOp2
 70
     1
102
RTVSPropertyOp3
 70
     1
102
RTVSPropertyOp4
 70
     1
102
RTVSPropertyOp5
 70
     1
102
RTVSPropertyOp6
 70
     1
102
RTVSPropertyOp7
 70
     1
102
RTVSPropertyOp8
 70
     1
102
RTVSPropertyOp9
 70
     1
102
RTVSPropertyOp10
 70
     1
102
RTVSPropertyOp11
 70
     1
102
RTVSPropertyOp12
 70
     1
102
RTVSPropertyOp13
 70
     1
102
RTVSPropertyOp14
 70
     1
102
RTVSPropertyOp15
 70
     1
102
RTVSPropertyOp16
 70
     1
102
RTVSPropertyOp17
 70
     1
102
RTVSPropertyOp18
 70
     1
102
RTVSPropertyOp19
 70
     1
102
RTVSPropertyOp20
 70
     1
102
RTVSPropertyOp21
 70
     1
102
RTVSPropertyOp22
 70
     1
102
RTVSPropertyOp23
 70
     1
102
RTVSPropertyOp24
 70
     1
102
RTVSPropertyOp25
 70
     1
102
RTVSPropertyOp26
 70
     1
102
RTVSPropertyOp27
 70
     1
  0
XRECORD
  5
3CB
102
{ACAD_REACTORS
330
3CA
102
}
330
3CA
100
AcDbXrecord
280
     1
102
RTVSPropertyOp0
 70
     1
102
RTVSPropertyOp1
 70
     1
102
RTVSPropertyOp2
 70
     1
102
RTVSPropertyOp3
 70
     1
102
RTVSPropertyOp4
 70
     1
102
RTVSPropertyOp5
 70
     1
102
RTVSPropertyOp6
 70
     1
102
RTVSPropertyOp7
 70
     1
102
RTVSPropertyOp8
 70
     1
102
RTVSPropertyOp9
 70
     1
102
RTVSPropertyOp10
 70
     1
102
RTVSPropertyOp11
 70
     1
102
RTVSPropertyOp12
 70
     1
102
RTVSPropertyOp13
 70
     1
102
RTVSPropertyOp14
 70
     1
102
RTVSPropertyOp15
 70
     1
102
RTVSPropertyOp16
 70
     1
102
RTVSPropertyOp17
 70
     1
102
RTVSPropertyOp18
 70
     1
102
RTVSPropertyOp19
 70
     1
102
RTVSPropertyOp20
 70
     1
102
RTVSPropertyOp21
 70
     1
102
RTVSPropertyOp22
 70
     1
102
RTVSPropertyOp23
 70
     1
102
RTVSPropertyOp24
 70
     1
102
RTVSPropertyOp25
 70
     1
102
RTVSPropertyOp26
 70
     1
102
RTVSPropertyOp27
 70
     1
  0
XRECORD
  5
3D9
102
{ACAD_REACTORS
330
3D8
102
}
330
3D8
100
AcDbXrecord
280
     1
102
RTVSPropertyOp0
 70
     1
102
RTVSPropertyOp1
 70
     1
102
RTVSPropertyOp2
 70
     1
102
RTVSPropertyOp3
 70
     1
102
RTVSPropertyOp4
 70
     1
102
RTVSPropertyOp5
 70
     1
102
RTVSPropertyOp6
 70
     1
102
RTVSPropertyOp7
 70
     1
102
RTVSPropertyOp8
 70
     1
102
RTVSPropertyOp9
 70
     1
102
RTVSPropertyOp10
 70
     1
102
RTVSPropertyOp11
 70
     1
102
RTVSPropertyOp12
 70
     1
102
RTVSPropertyOp13
 70
     1
102
RTVSPropertyOp14
 70
     1
102
RTVSPropertyOp15
 70
     1
102
RTVSPropertyOp16
 70
     1
102
RTVSPropertyOp17
 70
     1
102
RTVSPropertyOp18
 70
     1
102
RTVSPropertyOp19
 70
     1
102
RTVSPropertyOp20
 70
     1
102
RTVSPropertyOp21
 70
     1
102
RTVSPropertyOp22
 70
     1
102
RTVSPropertyOp23
 70
     1
102
RTVSPropertyOp24
 70
     1
102
RTVSPropertyOp25
 70
     1
102
RTVSPropertyOp26
 70
     1
102
RTVSPropertyOp27
 70
     1
  0
ENDSEC
  0
EOF
