  0
SECTION
  2
HEADER
  9
$ACADVER
  1
AC1018
  9
$ACADMAINTVER
 70
   104
  9
$DWGCODEPAGE
  3
ANSI_936
  9
$LASTSAVEDBY
  1
yuqin.cai
  9
$INSBASE
 10
0.0
 20
0.0
 30
0.0
  9
$EXTMIN
 10
41865.2931826355
 20
9901.539839429835
 30
-0.00000001
  9
$EXTMAX
 10
43056.59155883471
 20
11473.66666666666
 30
0.00000001
  9
$LIMMIN
 10
0.0
 20
0.0
  9
$LIMMAX
 10
297.0
 20
210.0
  9
$ORTHOMODE
 70
     1
  9
$REGENMODE
 70
     1
  9
$FILLMODE
 70
     1
  9
$QTEXTMODE
 70
     0
  9
$MIRRTEXT
 70
     0
  9
$LTSCALE
 40
16.335
  9
$ATTMODE
 70
     1
  9
$TEXTSIZE
 40
0.2
  9
$TRACEWID
 40
0.05
  9
$TEXTSTYLE
  7
STANDARD
  9
$CLAYER
  8
0
  9
$CELTYPE
  6
BYLAYER
  9
$CECOLOR
 62
   256
  9
$CELTSCALE
 40
1.0
  9
$DISPSILH
 70
     0
  9
$DIMSCALE
 40
1.0
  9
$DIMASZ
 40
3.5
  9
$DIMEXO
 40
1.0
  9
$DIMDLI
 40
11.286
  9
$DIMRND
 40
0.0
  9
$DIMDLE
 40
0.0
  9
$DIMEXE
 40
1.5
  9
$DIMTP
 40
0.01
  9
$DIMTM
 40
0.01
  9
$DIMTXT
 40
3.5
  9
$DIMCEN
 40
2.673
  9
$DIMTSZ
 40
0.0
  9
$DIMTOL
 70
     1
  9
$DIMLIM
 70
     0
  9
$DIMTIH
 70
     1
  9
$DIMTOH
 70
     1
  9
$DIMSE1
 70
     0
  9
$DIMSE2
 70
     0
  9
$DIMTAD
 70
     0
  9
$DIMZIN
 70
     0
  9
$DIMBLK
  1

  9
$DIMASO
 70
     1
  9
$DIMSHO
 70
     1
  9
$DIMPOST
  1

  9
$DIMAPOST
  1

  9
$DIMALT
 70
     0
  9
$DIMALTD
 70
     2
  9
$DIMALTF
 40
25.4
  9
$DIMLFAC
 40
1.0
  9
$DIMTOFL
 70
     0
  9
$DIMTVP
 40
0.0
  9
$DIMTIX
 70
     0
  9
$DIMSOXD
 70
     0
  9
$DIMSAH
 70
     0
  9
$DIMBLK1
  1

  9
$DIMBLK2
  1

  9
$DIMSTYLE
  2
STANDARD
  9
$DIMCLRD
 70
     0
  9
$DIMCLRE
 70
     0
  9
$DIMCLRT
 70
     0
  9
$DIMTFAC
 40
1.0
  9
$DIMGAP
 40
0.625
  9
$DIMJUST
 70
     0
  9
$DIMSD1
 70
     0
  9
$DIMSD2
 70
     0
  9
$DIMTOLJ
 70
     1
  9
$DIMTZIN
 70
     0
  9
$DIMALTZ
 70
     0
  9
$DIMALTTZ
 70
     0
  9
$DIMUPT
 70
     0
  9
$DIMDEC
 70
     4
  9
$DIMTDEC
 70
     4
  9
$DIMALTU
 70
     2
  9
$DIMALTTD
 70
     2
  9
$DIMTXSTY
  7
STANDARD
  9
$DIMAUNIT
 70
     0
  9
$DIMADEC
 70
     0
  9
$DIMALTRND
 40
0.0
  9
$DIMAZIN
 70
     0
  9
$DIMDSEP
 70
    44
  9
$DIMATFIT
 70
     3
  9
$DIMFRAC
 70
     0
  9
$DIMLDRBLK
  1

  9
$DIMLUNIT
 70
     2
  9
$DIMLWD
 70
    -2
  9
$DIMLWE
 70
    -2
  9
$DIMTMOVE
 70
     0
  9
$LUNITS
 70
     2
  9
$LUPREC
 70
     4
  9
$SKETCHINC
 40
0.1
  9
$FILLETRAD
 40
0.0
  9
$AUNITS
 70
     0
  9
$AUPREC
 70
     0
  9
$MENU
  1
.
  9
$ELEVATION
 40
0.0
  9
$PELEVATION
 40
0.0
  9
$THICKNESS
 40
0.0
  9
$LIMCHECK
 70
     0
  9
$CHAMFERA
 40
0.0
  9
$CHAMFERB
 40
0.0
  9
$CHAMFERC
 40
0.0
  9
$CHAMFERD
 40
0.0
  9
$SKPOLY
 70
     0
  9
$TDCREATE
 40
2458249.037099549
  9
$TDUCREATE
 40
2458248.703766215
  9
$TDUPDATE
 40
2458508.502033113
  9
$TDUUPDATE
 40
2458508.168699780
  9
$TDINDWG
 40
0.0870936111
  9
$TDUSRTIMER
 40
0.0870936111
  9
$USRTIMER
 70
     1
  9
$ANGBASE
 50
0.0
  9
$ANGDIR
 70
     0
  9
$PDMODE
 70
     3
  9
$PDSIZE
 40
8.0
  9
$PLINEWID
 40
0.0
  9
$SPLFRAME
 70
     0
  9
$SPLINETYPE
 70
     6
  9
$SPLINESEGS
 70
     8
  9
$HANDSEED
  5
5D8A
  9
$SURFTAB1
 70
     6
  9
$SURFTAB2
 70
     6
  9
$SURFTYPE
 70
     6
  9
$SURFU
 70
     6
  9
$SURFV
 70
     6
  9
$UCSBASE
  2

  9
$UCSNAME
  2

  9
$UCSORG
 10
0.0
 20
0.0
 30
0.0
  9
$UCSXDIR
 10
1.0
 20
0.0
 30
0.0
  9
$UCSYDIR
 10
0.0
 20
1.0
 30
0.0
  9
$UCSORTHOREF
  2

  9
$UCSORTHOVIEW
 70
     0
  9
$UCSORGTOP
 10
0.0
 20
0.0
 30
0.0
  9
$UCSORGBOTTOM
 10
0.0
 20
0.0
 30
0.0
  9
$UCSORGLEFT
 10
0.0
 20
0.0
 30
0.0
  9
$UCSORGRIGHT
 10
0.0
 20
0.0
 30
0.0
  9
$UCSORGFRONT
 10
0.0
 20
0.0
 30
0.0
  9
$UCSORGBACK
 10
0.0
 20
0.0
 30
0.0
  9
$PUCSBASE
  2

  9
$PUCSNAME
  2

  9
$PUCSORG
 10
0.0
 20
0.0
 30
0.0
  9
$PUCSXDIR
 10
1.0
 20
0.0
 30
0.0
  9
$PUCSYDIR
 10
0.0
 20
1.0
 30
0.0
  9
$PUCSORTHOREF
  2

  9
$PUCSORTHOVIEW
 70
     0
  9
$PUCSORGTOP
 10
0.0
 20
0.0
 30
0.0
  9
$PUCSORGBOTTOM
 10
0.0
 20
0.0
 30
0.0
  9
$PUCSORGLEFT
 10
0.0
 20
0.0
 30
0.0
  9
$PUCSORGRIGHT
 10
0.0
 20
0.0
 30
0.0
  9
$PUCSORGFRONT
 10
0.0
 20
0.0
 30
0.0
  9
$PUCSORGBACK
 10
0.0
 20
0.0
 30
0.0
  9
$USERI1
 70
     0
  9
$USERI2
 70
     0
  9
$USERI3
 70
     0
  9
$USERI4
 70
     0
  9
$USERI5
 70
     0
  9
$USERR1
 40
0.0
  9
$USERR2
 40
0.0
  9
$USERR3
 40
0.0
  9
$USERR4
 40
0.0
  9
$USERR5
 40
0.0
  9
$WORLDVIEW
 70
     1
  9
$SHADEDGE
 70
     3
  9
$SHADEDIF
 70
    70
  9
$TILEMODE
 70
     1
  9
$MAXACTVP
 70
    64
  9
$PINSBASE
 10
0.0
 20
0.0
 30
0.0
  9
$PLIMCHECK
 70
     0
  9
$PEXTMIN
 10
1.000000000000000E+20
 20
1.000000000000000E+20
 30
1.000000000000000E+20
  9
$PEXTMAX
 10
-1.000000000000000E+20
 20
-1.000000000000000E+20
 30
-1.000000000000000E+20
  9
$PLIMMIN
 10
0.0
 20
0.0
  9
$PLIMMAX
 10
12.0
 20
9.0
  9
$UNITMODE
 70
     0
  9
$VISRETAIN
 70
     1
  9
$PLINEGEN
 70
     0
  9
$PSLTSCALE
 70
     1
  9
$TREEDEPTH
 70
  3020
  9
$CMLSTYLE
  2
Standard
  9
$CMLJUST
 70
     0
  9
$CMLSCALE
 40
1.0
  9
$PROXYGRAPHICS
 70
     1
  9
$MEASUREMENT
 70
     1
  9
$CELWEIGHT
370
    -1
  9
$ENDCAPS
280
     0
  9
$JOINSTYLE
280
     0
  9
$LWDISPLAY
290
     0
  9
$INSUNITS
 70
     4
  9
$HYPERLINKBASE
  1

  9
$STYLESHEET
  1

  9
$XEDIT
290
     1
  9
$CEPSNTYPE
380
     0
  9
$PSTYLEMODE
290
     1
  9
$FINGERPRINTGUID
  2
{F2F7998C-03D6-45F9-A96A-CF8146DB7140}
  9
$VERSIONGUID
  2
{384AE341-228D-44F6-BDA7-37DB2C774040}
  9
$EXTNAMES
290
     1
  9
$PSVPSCALE
 40
0.0
  9
$OLESTARTUP
290
     0
  9
$SORTENTS
280
   127
  9
$INDEXCTL
280
     0
  9
$HIDETEXT
280
     1
  9
$XCLIPFRAME
290
     0
  9
$HALOGAP
280
     0
  9
$OBSCOLOR
 70
   257
  9
$OBSLTYPE
280
     0
  9
$INTERSECTIONDISPLAY
280
     0
  9
$INTERSECTIONCOLOR
 70
   257
  9
$DIMASSOC
280
     2
  9
$PROJECTNAME
  1

  0
ENDSEC
  0
SECTION
  2
CLASSES
  0
CLASS
  1
ACDBDICTIONARYWDFLT
  2
AcDbDictionaryWithDefault
  3
ObjectDBX Classes
 90
        0
 91
        1
280
     0
281
     0
  0
CLASS
  1
MATERIAL
  2
AcDbMaterial
  3
ObjectDBX Classes
 90
        0
 91
        3
280
     0
281
     0
  0
CLASS
  1
VISUALSTYLE
  2
AcDbVisualStyle
  3
ObjectDBX Classes
 90
     4095
 91
       26
280
     0
281
     0
  0
CLASS
  1
TABLESTYLE
  2
AcDbTableStyle
  3
ObjectDBX Classes
 90
     4095
 91
        1
280
     0
281
     0
  0
CLASS
  1
SCALE
  2
AcDbScale
  3
ObjectDBX Classes
 90
     1153
 91
       33
280
     0
281
     0
  0
CLASS
  1
MLEADERSTYLE
  2
AcDbMLeaderStyle
  3
ACDB_MLEADERSTYLE_CLASS
 90
     4095
 91
        1
280
     0
281
     0
  0
CLASS
  1
CELLSTYLEMAP
  2
AcDbCellStyleMap
  3
ObjectDBX Classes
 90
     1152
 91
        1
280
     0
281
     0
  0
CLASS
  1
DICTIONARYVAR
  2
AcDbDictionaryVar
  3
ObjectDBX Classes
 90
        0
 91
        4
280
     0
281
     0
  0
CLASS
  1
DIMASSOC
  2
AcDbDimAssoc
  3
"ZcDbDimAssoc|Product Desc:     ZwDim ZRX App For Dimension|Company:          ZwSoft.|WEB Address:      www.zwsoft.com"
 90
        0
 91
        0
280
     0
281
     0
  0
CLASS
  1
SORTENTSTABLE
  2
AcDbSortentsTable
  3
ObjectDBX Classes
 90
        0
 91
        1
280
     0
281
     0
  0
CLASS
  1
SUN
  2
AcDbSun
  3
SCENEOE
 90
     1024
 91
        0
280
     0
281
     0
  0
ENDSEC
  0
SECTION
  2
TABLES
  0
TABLE
  2
VPORT
  5
8
330
0
100
AcDbSymbolTable
 70
     3
  0
VPORT
  5
5D52
330
8
100
AcDbSymbolTableRecord
100
AcDbViewportTableRecord
  2
*Active
 70
     0
 10
0.0
 20
0.0
 11
1.0
 21
1.0
 12
43519.88803479017
 22
10605.6326793861
 13
0.0
 23
0.0
 14
1.0
 24
1.0
 15
0.0
 25
0.0
 16
0.0
 26
0.0
 36
1.0
 17
0.0
 27
0.0
 37
0.0
 40
1875.398724073813
 41
3.584
 42
50.0
 43
0.0
 44
0.0
 50
0.0
 51
0.0
 71
     0
 72
   100
 73
     1
 74
     1
 75
     1
 76
     0
 77
     0
 78
     0
281
     0
 65
     1
110
0.0
120
0.0
130
0.0
111
1.0
121
0.0
131
0.0
112
0.0
122
1.0
132
0.0
 79
     0
146
0.0
  0
ENDTAB
  0
TABLE
  2
LTYPE
  5
5
330
0
100
AcDbSymbolTable
 70
     1
  0
LTYPE
  5
14
330
5
100
AcDbSymbolTableRecord
100
AcDbLinetypeTableRecord
  2
BYBLOCK
 70
     0
  3

 72
    65
 73
     0
 40
0.0
  0
LTYPE
  5
15
330
5
100
AcDbSymbolTableRecord
100
AcDbLinetypeTableRecord
  2
BYLAYER
 70
     0
  3

 72
    65
 73
     0
 40
0.0
  0
LTYPE
  5
16
330
5
100
AcDbSymbolTableRecord
100
AcDbLinetypeTableRecord
  2
CONTINUOUS
 70
     0
  3
Solid line
 72
    65
 73
     0
 40
0.0
  0
ENDTAB
  0
TABLE
  2
LAYER
  5
2
102
{ACAD_XDICTIONARY
360
38E
102
}
330
0
100
AcDbSymbolTable
 70
     3
  0
LAYER
  5
10
330
2
100
AcDbSymbolTableRecord
100
AcDbLayerTableRecord
  2
0
 70
     0
 62
     7
  6
CONTINUOUS
370
    -3
390
F
  0
LAYER
  5
351
330
2
100
AcDbSymbolTableRecord
100
AcDbLayerTableRecord
  2
Defpoints
 70
     0
 62
     7
  6
CONTINUOUS
290
     0
370
    -3
390
F
  0
LAYER
  5
524C
330
2
100
AcDbSymbolTableRecord
100
AcDbLayerTableRecord
  2
11111外轮廓线
 70
     0
 62
   255
  6
CONTINUOUS
370
     5
390
F
1001
AcAecLayerStandard
1000

1000

  0
ENDTAB
  0
TABLE
  2
STYLE
  5
3
330
0
100
AcDbSymbolTable
 70
     1
  0
STYLE
  5
11
330
3
100
AcDbSymbolTableRecord
100
AcDbTextStyleTableRecord
  2
STANDARD
 70
     0
 40
0.0
 41
0.85
 50
0.0
 71
     0
 42
0.2
  3
txt
  4

  0
ENDTAB
  0
TABLE
  2
VIEW
  5
6
330
0
100
AcDbSymbolTable
 70
     0
  0
ENDTAB
  0
TABLE
  2
UCS
  5
7
330
0
100
AcDbSymbolTable
 70
     0
  0
ENDTAB
  0
TABLE
  2
APPID
  5
9
330
0
100
AcDbSymbolTable
 70
     8
  0
APPID
  5
1FF
330
9
100
AcDbSymbolTableRecord
100
AcDbRegAppTableRecord
  2
ACAD
 70
     0
  0
APPID
  5
343
330
9
100
AcDbSymbolTableRecord
100
AcDbRegAppTableRecord
  2
ACAD_MLEADERVER
 70
     0
  0
APPID
  5
389
330
9
100
AcDbSymbolTableRecord
100
AcDbRegAppTableRecord
  2
ACAD_DSTYLE_DIMJAG
 70
     0
  0
APPID
  5
38A
330
9
100
AcDbSymbolTableRecord
100
AcDbRegAppTableRecord
  2
ACAD_DSTYLE_DIMTALN
 70
     0
  0
APPID
  5
38B
330
9
100
AcDbSymbolTableRecord
100
AcDbRegAppTableRecord
  2
ACAD_PSEXT
 70
     0
  0
APPID
  5
38C
330
9
100
AcDbSymbolTableRecord
100
AcDbRegAppTableRecord
  2
AcAecLayerStandard
 70
     0
  0
APPID
  5
38D
330
9
100
AcDbSymbolTableRecord
100
AcDbRegAppTableRecord
  2
ACAD_DSTYLE_DIMBREAK
 70
     0
  0
APPID
  5
12E1
330
9
100
AcDbSymbolTableRecord
100
AcDbRegAppTableRecord
  2
ACAD_EXEMPT_FROM_CAD_STANDARDS
 70
     0
  0
ENDTAB
  0
TABLE
  2
DIMSTYLE
  5
A
330
0
100
AcDbSymbolTable
 70
     1
100
AcDbDimStyleTable
 71
     1
340
202
  0
DIMSTYLE
105
202
330
A
100
AcDbSymbolTableRecord
100
AcDbDimStyleTableRecord
  2
STANDARD
 70
     0
 41
3.5
 42
1.0
 44
1.5
 47
0.01
 48
0.01
 71
     1
 73
     0
 74
     0
 77
     1
 78
     8
140
3.5
147
0.625
271
     2
272
     2
278
    44
284
     8
340
11
  0
ENDTAB
  0
TABLE
  2
BLOCK_RECORD
  5
1
330
0
100
AcDbSymbolTable
 70
     0
  0
BLOCK_RECORD
  5
200
102
{ACAD_XDICTIONARY
360
467B
102
}
330
1
100
AcDbSymbolTableRecord
100
AcDbBlockTableRecord
  2
*Model_Space
340
2EE
  0
BLOCK_RECORD
  5
201
330
1
100
AcDbSymbolTableRecord
100
AcDbBlockTableRecord
  2
*Paper_Space
340
2EF
  0
ENDTAB
  0
ENDSEC
  0
SECTION
  2
BLOCKS
  0
BLOCK
  5
20
330
200
100
AcDbEntity
  8
0
100
AcDbBlockBegin
  2
*Model_Space
 70
     0
 10
0.0
 20
0.0
 30
0.0
  3
*Model_Space
  1

  0
ENDBLK
  5
21
330
200
100
AcDbEntity
  8
0
100
AcDbBlockEnd
  0
BLOCK
  5
1C
330
201
100
AcDbEntity
 67
     1
  8
0
100
AcDbBlockBegin
  2
*Paper_Space
 70
     0
 10
0.0
 20
0.0
 30
0.0
  3
*Paper_Space
  1

  0
ENDBLK
  5
1D
330
201
100
AcDbEntity
 67
     1
  8
0
100
AcDbBlockEnd
  0
ENDSEC
  0
SECTION
  2
ENTITIES
  0
MTEXT
  5
399
330
200
100
AcDbEntity
  8
0
100
AcDbMText
 10
42276.07764527027
 20
11457.0
 30
0.0
 40
75.0
 41
29.92235472972973
 71
     1
 72
     5
  1
{\fSimSun|b0|i0|c134|p2;SCALE  1:1}
 73
     1
 44
1.0
1001
ACAD
1000
MTEXTBEGIN
1070
    73
1070
     1
1070
    44
1040
1.0
1070
    74
1070
     0
1000
MTEXTEND
  0
LINE
  5
595C
330
200
100
AcDbEntity
  8
11111外轮廓线
 62
     7
370
     9
100
AcDbLine
 10
41924.2931826455
 20
10656.04745495569
 30
0.0
 11
42161.2931826455
 21
10656.04745495569
 31
0.0
  0
LWPOLYLINE
  5
595D
330
200
100
AcDbEntity
  8
11111外轮廓线
 62
     7
370
     9
100
AcDbPolyline
 90
        3
 70
     0
 43
0.0
 10
41865.3043708047
 20
10957.32738813839
 10
41865.36301087071
 20
10956.73548835639
 10
41865.51858309891
 20
10955.95928302109
  0
LINE
  5
595E
330
200
100
AcDbEntity
  8
11111外轮廓线
 62
     7
370
     9
100
AcDbLine
 10
41875.39296547381
 20
10945.32912030439
 30
0.0
 11
41875.3982570638
 21
10945.17346406179
 31
0.0
  0
LWPOLYLINE
  5
595F
330
200
100
AcDbEntity
  8
11111外轮廓线
 62
     7
370
     9
100
AcDbPolyline
 90
       13
 70
     0
 43
0.0
 10
41875.39825693189
 20
10945.17346406139
 10
41876.16752720491
 20
10922.03053128319
 10
41877.5445607613
 20
10898.24225969429
 10
41879.52210673669
 20
10874.33062572869
 10
41882.10587219342
 20
10850.28001666139
 10
41885.29802603181
 20
10826.11187103349
 10
41889.09259709951
 20
10801.88499284519
 10
41893.4884362675
 20
10777.60502848609
 10
41898.48511309939
 20
10753.27329573799
 10
41904.0699339482
 20
10728.94271140369
 10
41910.2340970029
 20
10704.63366270789
 10
41916.9766955316
 20
10680.33381902439
 10
41924.2931826455
 20
10656.04745495569
  0
LINE
  5
5960
330
200
100
AcDbEntity
  8
11111外轮廓线
 62
     7
370
     9
100
AcDbLine
 10
41865.29318264549
 20
10957.72501220609
 30
0.0
 11
41865.3043708047
 21
10957.32738813839
 31
0.0
  0
LINE
  5
5961
330
200
100
AcDbEntity
  8
11111外轮廓线
 62
     7
370
     9
100
AcDbLine
 10
41865.29318264549
 20
10999.04745495569
 30
0.0
 11
41865.29318264549
 21
10957.77560614089
 31
0.0
  0
LINE
  5
5962
330
200
100
AcDbEntity
  8
11111外轮廓线
 62
     7
370
     9
100
AcDbLine
 10
41865.29318264549
 20
10957.77560859339
 30
0.0
 11
41865.29318264549
 21
10999.04745495569
 31
0.0
  0
LWPOLYLINE
  5
5963
330
200
100
AcDbEntity
  8
11111外轮廓线
 62
     7
370
     9
100
AcDbPolyline
 90
        4
 70
     0
 43
0.0
 10
41874.9199753909
 20
10947.39803768239
 10
41875.1587771953
 20
10946.73020635879
 10
41875.31735725141
 20
10946.03736260229
 10
41875.39296547381
 20
10945.32912030439
  0
LWPOLYLINE
  5
5964
330
200
100
AcDbEntity
  8
11111外轮廓线
 62
     7
370
     9
100
AcDbPolyline
 90
        6
 70
     0
 43
0.0
 10
41872.6909533235
 20
10950.06411363319
 10
41873.2545076173
 20
10949.64523008689
 10
41873.76594447838
 20
10949.16265419059
 10
41874.21820786529
 20
10948.62248353739
 10
41874.6048107831
 20
10948.03167623919
 10
41874.9199753909
 20
10947.39803768239
  0
LINE
  5
5965
330
200
100
AcDbEntity
  8
11111外轮廓线
 62
     7
370
     9
100
AcDbLine
 10
41870.7350891743
 20
10950.89693496219
 30
0.0
 11
41871.4414909374
 21
10950.68931647129
 31
0.0
  0
LWPOLYLINE
  5
5966
330
200
100
AcDbEntity
  8
11111外轮廓线
 62
     7
370
     9
100
AcDbPolyline
 90
        3
 70
     0
 43
0.0
 10
41871.4414909374
 20
10950.68931647129
 10
41872.08351648591
 20
10950.41369079639
 10
41872.6909533235
 20
10950.06411363319
  0
LINE
  5
5967
330
200
100
AcDbEntity
  8
11111外轮廓线
 62
     7
370
     9
100
AcDbLine
 10
41870.8692059702
 20
10950.92198638829
 30
0.0
 11
41870.8657716284
 21
10950.92138556559
 31
0.0
  0
LINE
  5
5968
330
200
100
AcDbEntity
  8
11111外轮廓线
 62
     7
370
     9
100
AcDbLine
 10
42214.7205903893
 20
10950.92138602479
 30
0.0
 11
42214.7180685386
 21
10950.92182678929
 31
0.0
  0
LINE
  5
5969
330
200
100
AcDbEntity
  8
11111外轮廓线
 62
     7
370
     9
100
AcDbLine
 10
42220.29318264549
 20
10999.04745495569
 30
0.0
 11
41865.29318264549
 21
10999.04745495569
 31
0.0
  0
LINE
  5
596A
330
200
100
AcDbEntity
  8
11111外轮廓线
 62
     7
370
     9
100
AcDbLine
 10
41872.2931826455
 20
11006.04745495569
 30
0.0
 11
42213.2931826455
 21
11006.04745495569
 31
0.0
  0
LINE
  5
596C
330
200
100
AcDbEntity
  8
11111外轮廓线
 62
     7
370
     9
100
AcDbLine
 10
42220.0677821395
 20
10955.95928349249
 30
0.0
 11
42220.22335440399
 21
10956.73549034458
 31
0.0
  0
LINE
  5
596D
330
200
100
AcDbEntity
  8
11111外轮廓线
 62
     7
370
     9
100
AcDbLine
 10
42220.29318264549
 20
10999.04745495569
 30
0.0
 11
42220.29318264549
 21
10957.77560724829
 31
0.0
  0
LWPOLYLINE
  5
596E
330
200
100
AcDbEntity
  8
11111外轮廓线
 62
     7
370
     9
100
AcDbPolyline
 90
        3
 70
     0
 43
0.0
 10
42220.22335440399
 20
10956.73549034459
 10
42220.2819944838
 20
10957.32739313629
 10
42220.29318264549
 20
10957.72501947979
  0
LWPOLYLINE
  5
596F
330
200
100
AcDbEntity
  8
11111外轮廓线
 62
     7
370
     9
100
AcDbPolyline
 90
       13
 70
     0
 43
0.0
 10
42161.2931826455
 20
10656.04745495569
 10
42168.6096696615
 20
10680.33381868589
 10
42175.35226812479
 20
10704.63366209279
 10
42181.5164311424
 20
10728.94271057389
 10
42187.101251978
 20
10753.27329475579
 10
42192.0979288163
 20
10777.60502741319
 10
42196.49376800529
 20
10801.88499174169
 10
42200.28833910388
 20
10826.1118699573
 10
42203.4804929793
 20
10850.28001567219
 10
42206.06425847471
 20
10874.33062489059
 10
42208.04180448601
 20
10898.24225907249
 10
42209.41883807071
 20
10922.03053094099
 10
42210.18810835911
 20
10945.17346405689
  0
LINE
  5
5970
330
200
100
AcDbEntity
  8
11111外轮廓线
 62
     7
370
     9
100
AcDbLine
 10
41868.29319558265
 20
10471.53983943983
 30
0.0
 11
42217.29319558265
 21
10471.53983943983
 31
0.0
  0
LINE
  5
5971
330
200
100
AcDbEntity
  8
11111外轮廓线
 62
     7
370
     9
100
AcDbLine
 10
41865.29319558266
 20
10468.53983943983
 30
0.0
 11
42220.29319558266
 21
10468.53983943983
 31
0.0
  0
LINE
  5
5972
330
200
100
AcDbEntity
  8
11111外轮廓线
 62
     7
370
     9
100
AcDbLine
 10
41865.29319558266
 20
10079.03983943983
 30
0.0
 11
41865.29319558266
 21
10468.53983943983
 31
0.0
  0
LINE
  5
5973
330
200
100
AcDbEntity
  8
11111外轮廓线
 62
     7
370
     9
100
AcDbLine
 10
41872.29319558265
 20
10079.03983943983
 30
0.0
 11
41872.29319558265
 21
10471.53983943983
 31
0.0
  0
LINE
  5
5974
330
200
100
AcDbEntity
  8
11111外轮廓线
 62
     7
370
     9
100
AcDbLine
 10
42213.29319558265
 20
10471.53983943983
 30
0.0
 11
42213.29319558265
 21
10079.03983943983
 31
0.0
  0
LINE
  5
5975
330
200
100
AcDbEntity
  8
11111外轮廓线
 62
     7
370
     9
100
AcDbLine
 10
42220.29319558266
 20
10468.53983943983
 30
0.0
 11
42220.29319558266
 21
10079.03983943983
 31
0.0
  0
ARC
  5
5976
330
200
100
AcDbEntity
  8
11111外轮廓线
 62
     7
370
     9
100
AcDbCircle
 10
41872.2931826455
 20
10999.04745495569
 30
0.0
 40
7.0
100
AcDbArc
 50
90.0
 51
180.0
  0
ARC
  5
5977
330
200
100
AcDbEntity
  8
11111外轮廓线
 62
     7
370
     9
100
AcDbCircle
 10
41872.2931826455
 20
10957.72132756719
 30
0.0
 40
7.0
100
AcDbArc
 50
194.5793547413472
 51
257.1391038071265
  0
ARC
  5
5978
330
200
100
AcDbEntity
  8
11111外轮廓线
 62
     7
370
     9
100
AcDbCircle
 10
42213.2931826455
 20
10957.72132824129
 30
0.0
 40
7.0
100
AcDbArc
 50
282.8608948621522
 51
345.4206435437602
  0
ARC
  5
5979
330
200
100
AcDbEntity
  8
11111外轮廓线
 62
     7
370
     9
100
AcDbCircle
 10
42213.2931826455
 20
10999.04745495569
 30
0.0
 40
7.0
100
AcDbArc
 50
0.0
 51
90.0
  0
ARC
  5
597A
330
200
100
AcDbEntity
  8
11111外轮廓线
 62
     7
370
     9
100
AcDbCircle
 10
42216.18678482379
 20
10945.04745495569
 30
0.0
 40
6.0
100
AcDbArc
 50
102.8608953085775
 51
178.7966131683824
  0
ARC
  5
597B
330
200
100
AcDbEntity
  8
11111外轮廓线
 62
     7
370
     9
100
AcDbCircle
 10
42042.79319558265
 20
10079.03983943983
 30
0.0
 40
177.5
100
AcDbArc
 50
180.0
 51
0.0
  0
ARC
  5
597C
330
200
100
AcDbEntity
  8
11111外轮廓线
 62
     7
370
     9
100
AcDbCircle
 10
42042.79319558265
 20
10079.03983943983
 30
0.0
 40
170.4999990767
100
AcDbArc
 50
180.0
 51
0.0
  0
CIRCLE
  5
597D
330
200
100
AcDbEntity
  8
11111外轮廓线
 62
     7
370
     9
100
AcDbCircle
 10
42120.29319558266
 20
10361.53983943983
 30
0.0
 40
8.0
  0
CIRCLE
  5
597E
330
200
100
AcDbEntity
  8
11111外轮廓线
 62
     7
370
     9
100
AcDbCircle
 10
41965.29319558266
 20
10361.53983943983
 30
0.0
 40
8.0
  0
ARC
  5
597F
330
200
100
AcDbEntity
  8
11111外轮廓线
 62
     7
370
     9
100
AcDbCircle
 10
41868.29319558265
 20
10468.53983943983
 30
0.0
 40
3.0
100
AcDbArc
 50
90.0
 51
180.0
  0
ARC
  5
5980
330
200
100
AcDbEntity
  8
11111外轮廓线
 62
     7
370
     9
100
AcDbCircle
 10
42217.29319558265
 20
10468.53983943983
 30
0.0
 40
3.0
100
AcDbArc
 50
0.0
 51
90.0
  0
SPLINE
  5
5981
330
200
100
AcDbEntity
  8
11111外轮廓线
 62
     7
370
     9
100
AcDbSpline
210
0.0
220
0.0
230
1.0
 70
     8
 71
     3
 72
    20
 73
    16
 74
    14
 42
0.0000000001
 43
0.0000000001
 44
0.0000000001
 12
-0.6545199890878186
 22
-0.7560446970149859
 32
0.0
 13
-0.6018202191568643
 23
0.7986315945503183
 33
0.0
 40
0.0
 40
0.0
 40
0.0
 40
0.0
 40
0.030296289489635
 40
0.0591390189280918
 40
0.085145568013398
 40
0.1113315845544645
 40
0.1384848656181424
 40
0.1664386158872312
 40
0.1953828621676603
 40
0.2258186459547676
 40
0.2571181224679266
 40
0.2845598957926423
 40
0.3127811897928124
 40
0.3385162311374017
 40
0.3388228346806937
 40
0.3388228346806937
 40
0.3388228346806937
 40
0.3388228346806937
 10
41875.6306726883
 20
10945.42017586859
 30
0.0
 10
41875.62406284595
 20
10945.41254075226
 30
0.0
 10
41875.61101176282
 20
10945.39776556475
 30
0.0
 10
41875.59202830168
 20
10945.37666673659
 30
0.0
 10
41875.57384301655
 20
10945.35669316848
 30
0.0
 10
41875.55594232899
 20
10945.33722311261
 30
0.0
 10
41875.53750865651
 20
10945.31735971668
 30
0.0
 10
41875.51833729177
 20
10945.29693504181
 30
0.0
 10
41875.49831708061
 20
10945.27577590465
 30
0.0
 10
41875.47742558471
 20
10945.25402970167
 30
0.0
 10
41875.45672725165
 20
10945.23232780965
 30
0.0
 10
41875.43655360557
 20
10945.21273647986
 30
0.0
 10
41875.41713672841
 20
10945.1893472124
 30
0.0
 10
41875.40515487676
 20
10945.18614265286
 30
0.0
 10
41875.39844889384
 20
10945.1735104798
 30
0.0
 10
41875.3983873871
 20
10945.17359210089
 30
0.0
 11
41875.6306726883
 21
10945.42017586859
 31
0.0
 11
41875.61065578058
 21
10945.39743408849
 31
0.0
 11
41875.59137383959
 21
10945.37598391849
 31
0.0
 11
41875.57386785201
 21
10945.35675162809
 31
0.0
 11
41875.5561457311
 21
10945.33747381979
 31
0.0
 11
41875.5376722998
 21
10945.31757324169
 31
0.0
 11
41875.51854746851
 21
10945.29718567239
 31
0.0
 11
41875.498642767
 21
10945.27617205179
 31
0.0
 11
41875.4775988273
 21
10945.25418365629
 31
0.0
 11
41875.45583391502
 21
10945.23169041679
 31
0.0
 11
41875.436645674
 21
10945.21207250839
 31
0.0
 11
41875.41680537941
 21
10945.19200252719
 31
0.0
 11
41875.3986066683
 21
10945.17380639389
 31
0.0
 11
41875.3983873871
 21
10945.17359210089
 31
0.0
  0
SPLINE
  5
5982
330
200
100
AcDbEntity
  8
11111外轮廓线
 62
     7
370
     9
100
AcDbSpline
210
0.0
220
0.0
230
1.0
 70
     8
 71
     3
 72
    11
 73
     7
 74
     5
 42
0.0000000001
 43
0.0000000001
 44
0.0000000001
 12
-0.9845139819326526
 22
-0.1753060734233493
 32
0.0
 13
-0.9812545743674057
 23
-0.1927160094103275
 33
0.0
 40
0.0
 40
0.0
 40
0.0
 40
0.0
 40
0.040409067352105
 40
0.0665012580435978
 40
0.0965725121155813
 40
0.1329318326072276
 40
0.1329318326072276
 40
0.1329318326072276
 40
0.1329318326072276
 10
41870.86576599289
 20
10950.92138403429
 30
0.0
 10
41870.85250489563
 20
10950.91902271598
 30
0.0
 10
41870.83069397132
 20
10950.91506424554
 30
0.0
 10
41870.79904215258
 20
10950.90919782009
 30
0.0
 10
41870.76873858299
 20
10950.90346552719
 30
0.0
 10
41870.74699539088
 20
10950.89927330158
 30
0.0
 10
41870.7351028077
 20
10950.89693762719
 30
0.0
 11
41870.86576599289
 21
10950.92138403429
 31
0.0
 11
41870.82600390001
 21
10950.91418204199
 31
0.0
 11
41870.800349041
 21
10950.90942487639
 31
0.0
 11
41870.77080106039
 21
10950.90383943429
 31
0.0
 11
41870.7351028077
 21
10950.89693762719
 31
0.0
  0
SPLINE
  5
5983
330
200
100
AcDbEntity
  8
11111外轮廓线
 62
     7
370
     9
100
AcDbSpline
210
0.0
220
0.0
230
1.0
 70
     8
 71
     3
 72
    10
 73
     6
 74
     4
 42
0.0000000001
 43
0.0000000001
 44
0.0000000001
 12
0.1876101513032602
 22
0.9822435701637186
 32
0.0
 13
-0.9914110532734234
 23
0.1307827337506051
 33
0.0
 40
0.0
 40
0.0
 40
0.0
 40
0.0
 40
0.0019035260873268
 40
0.0535891428440258
 40
0.1188766695073311
 40
0.1188766695073311
 40
0.1188766695073311
 40
0.1188766695073311
 10
42214.8374611152
 20
10950.89960015719
 30
0.0
 10
42214.83758015547
 20
10950.90022339928
 30
0.0
 10
42214.80935093098
 20
10950.89669250369
 30
0.0
 10
42214.78644423403
 20
10950.91413538019
 30
0.0
 10
42214.74217419678
 20
10950.91853791639
 30
0.0
 10
42214.72059860492
 20
10950.92138407679
 30
0.0
 11
42214.8374611152
 21
10950.89960015719
 31
0.0
 11
42214.8355972981
 21
10950.89998693539
 31
0.0
 11
42214.7848226512
 21
10950.90964810569
 31
0.0
 11
42214.72059860492
 21
10950.92138407679
 31
0.0
  0
SPLINE
  5
5984
330
200
100
AcDbEntity
  8
11111外轮廓线
 62
     7
370
     9
100
AcDbSpline
210
0.0
220
0.0
230
1.0
 70
     8
 71
     3
 72
    18
 73
    14
 74
    12
 42
0.0000000001
 43
0.0000000001
 44
0.0000000001
 12
-0.7078467111011281
 22
-0.7063660761838129
 32
0.0
 13
-0.6573582627977265
 23
0.7535782071766374
 33
0.0
 40
0.0
 40
0.0
 40
0.0
 40
0.0
 40
0.0001214747315108
 40
0.0294326783341975
 40
0.0670864588192752
 40
0.0999617655904123
 40
0.12718882307341
 40
0.1554265983263255
 40
0.1844266534583172
 40
0.2107482096265218
 40
0.241531324750643
 40
0.2679425215189167
 40
0.3172958942402302
 40
0.3172958942402302
 40
0.3172958942402302
 40
0.3172958942402302
 10
42210.17751965911
 20
10945.18407718489
 30
0.0
 10
42210.17749099728
 20
10945.18404858302
 30
0.0
 10
42210.17039138987
 20
10945.19777544519
 30
0.0
 10
42210.15485477557
 20
10945.20280863361
 30
0.0
 10
42210.13146094585
 20
10945.23170482413
 30
0.0
 10
42210.10883180226
 20
10945.25386827938
 30
0.0
 10
42210.08846705415
 20
10945.27541107027
 30
0.0
 10
42210.06910141849
 20
10945.29577684128
 30
0.0
 10
42210.05003571385
 20
10945.31610156172
 30
0.0
 10
42210.03050507526
 20
10945.33712848044
 30
0.0
 10
42210.01166339767
 20
10945.35762367002
 30
0.0
 10
42209.98777367501
 20
10945.38390335266
 30
0.0
 10
42209.97091290735
 20
10945.40270815988
 30
0.0
 10
42209.96009862489
 20
10945.41510536859
 30
0.0
 11
42210.17751965911
 21
10945.18407718489
 31
0.0
 11
42210.17743239902
 21
10945.18416169399
 31
0.0
 11
42210.15675192299
 21
10945.20493341919
 31
0.0
 11
42210.1303981168
 21
10945.23182736059
 31
0.0
 11
42210.10754156029
 21
10945.25545707959
 31
0.0
 11
42210.0887167872
 21
10945.27512788479
 31
0.0
 11
42210.06929158161
 21
10945.29562259969
 31
0.0
 11
42210.0494450131
 21
10945.31676773899
 31
0.0
 11
42210.0315318457
 21
10945.33605355639
 31
0.0
 11
42210.01070009161
 21
10945.35871714389
 31
0.0
 11
42209.99293310209
 21
10945.37825903219
 31
0.0
 11
42209.96009862489
 21
10945.41510536859
 31
0.0
  0
SPLINE
  5
5985
330
200
100
AcDbEntity
  8
11111外轮廓线
 62
     7
370
     9
100
AcDbSpline
210
0.0
220
0.0
230
1.0
 70
     8
 71
     3
 72
     8
 73
     4
 74
     2
 42
0.0000000001
 43
0.0000000001
 44
0.0000000001
 12
0.9982745881750787
 22
0.0587183668359146
 32
0.0
 13
1.0
 23
0.0
 33
0.0
 40
0.0
 40
0.0
 40
0.0
 40
0.0
 40
7.932406818704937
 40
7.932406818704937
 40
7.932406818704937
 40
7.932406818704937
 10
42123.3646616194
 20
10655.79919646919
 30
0.0
 10
42126.00423500279
 20
10655.95445579368
 30
0.0
 10
42128.64904703926
 20
10656.04745495569
 30
0.0
 10
42131.2931826455
 20
10656.04745495569
 30
0.0
 11
42123.3646616194
 21
10655.79919646919
 31
0.0
 11
42131.2931826455
 21
10656.04745495569
 31
0.0
  0
SPLINE
  5
5986
330
200
100
AcDbEntity
  8
11111外轮廓线
 62
     7
370
     9
100
AcDbSpline
210
0.0
220
0.0
230
1.0
 70
     8
 71
     3
 72
    11
 73
     7
 74
     5
 42
0.0000000001
 43
0.0000000001
 44
0.0000000001
 12
0.9982753185195939
 22
-0.0587059488859798
 32
0.0
 13
0.9982745881749826
 23
0.0587183668375499
 33
0.0
 40
0.0
 40
0.0
 40
0.0
 40
0.0
 40
21.5564615859258
 40
80.72947063565392
 40
139.9024796853893
 40
161.4589756551549
 40
161.4589756551549
 40
161.4589756551549
 40
161.4589756551549
 10
41962.2217445922
 20
10655.79926424189
 30
0.0
 10
41969.39483911082
 20
10655.37743339789
 30
0.0
 10
41996.12288069563
 20
10652.07873642257
 30
0.0
 10
42042.79318866113
 20
10650.2914723157
 30
0.0
 10
42089.46347965135
 20
10652.07894137283
 30
0.0
 10
42116.19156090717
 20
10655.37727572317
 30
0.0
 10
42123.3646616194
 20
10655.79919646919
 30
0.0
 11
41962.2217445922
 21
10655.79926424189
 31
0.0
 11
41983.68318264551
 21
10653.77745495569
 31
0.0
 11
42042.7931826455
 21
10651.04745495569
 31
0.0
 11
42101.9031826455
 21
10653.77745495569
 31
0.0
 11
42123.3646616194
 21
10655.79919646919
 31
0.0
  0
SPLINE
  5
5987
330
200
100
AcDbEntity
  8
11111外轮廓线
 62
     7
370
     9
100
AcDbSpline
210
0.0
220
0.0
230
1.0
 70
     8
 71
     3
 72
     8
 73
     4
 74
     2
 42
0.0000000001
 43
0.0000000001
 44
0.0000000001
 12
-0.0907002137798847
 22
0.9958782411621831
 32
0.0
 13
-0.998408373482283
 23
-0.0563978701766493
 33
0.0
 40
0.0
 40
0.0
 40
0.0
 40
0.0
 40
0.5460667072817394
 40
0.5460667072817394
 40
0.5460667072817394
 40
0.5460667072817394
 10
42209.9556926028
 20
10945.42017586859
 30
0.0
 10
42209.93918314711
 20
10945.60144785259
 30
0.0
 10
42209.64586972194
 20
10945.66826948211
 30
0.0
 10
42209.4641371976
 20
10945.65800381569
 30
0.0
 11
42209.9556926028
 21
10945.42017586859
 31
0.0
 11
42209.4641371976
 21
10945.65800381569
 31
0.0
  0
SPLINE
  5
5988
330
200
100
AcDbEntity
  8
11111外轮廓线
 62
     7
370
     9
100
AcDbSpline
210
0.0
220
0.0
230
1.0
 70
     8
 71
     3
 72
    11
 73
     7
 74
     5
 42
0.0000000001
 43
0.0000000001
 44
0.0000000001
 12
-0.9984083734850475
 22
-0.0563978701277066
 32
0.0
 13
-0.9996630075787249
 23
0.0259590307727049
 33
0.0
 40
0.0
 40
0.0
 40
0.0
 40
0.0
 40
0.5531700057815803
 40
3.179133873076462
 40
6.776725804722575
 40
11.32312953916666
 40
11.32312953916666
 40
11.32312953916666
 40
11.32312953916666
 10
42209.4641371976
 20
10945.65800381569
 30
0.0
 10
42209.28004067569
 20
10945.64760461231
 30
0.0
 10
42208.23242164231
 20
10945.45201781742
 30
0.0
 10
42205.96613843311
 20
10945.86636836468
 30
0.0
 10
42202.38278210652
 20
10945.82424060988
 30
0.0
 10
42199.66693946008
 20
10945.91338005074
 30
0.0
 10
42198.1519822498
 20
10945.95272012889
 30
0.0
 11
42209.4641371976
 21
10945.65800381569
 31
0.0
 11
42208.9149979332
 21
10945.59134705619
 31
0.0
 11
42206.2929596608
 21
10945.73487938849
 31
0.0
 11
42202.69726047961
 21
10945.85156317069
 31
0.0
 11
42198.1519822498
 21
10945.95272012889
 31
0.0
  0
SPLINE
  5
5989
330
200
100
AcDbEntity
  8
11111外轮廓线
 62
     7
370
     9
100
AcDbSpline
210
0.0
220
0.0
230
1.0
 70
     8
 71
     3
 72
    33
 73
    29
 74
    27
 42
0.0000000001
 43
0.0000000001
 44
0.0000000001
 12
-0.9996630075786281
 22
0.0259590307764341
 32
0.0
 13
-0.9996647695303019
 23
-0.0258910903580387
 33
0.0
 40
0.0
 40
0.0
 40
0.0
 40
0.0
 40
5.838993750592372
 40
12.69647184230215
 40
20.32396864359272
 40
28.71935262312906
 40
37.92574696866122
 40
47.97524288138482
 40
58.64258137568531
 40
69.6488288144787
 40
81.79168778337581
 40
96.25316136441623
 40
113.2902854600104
 40
132.9761971391143
 40
155.9009039358238
 40
178.7303413903685
 40
198.3194625004277
 40
215.2202141414304
 40
229.6829037760242
 40
241.8544676726686
 40
252.6803466072922
 40
263.3178357786646
 40
273.3666974913759
 40
282.5296051989883
 40
290.8157682625935
 40
298.2880653381493
 40
304.9889295392086
 40
310.7182440285
 40
310.7182440285
 40
310.7182440285
 40
310.7182440285
 10
42198.1519822498
 20
10945.95272012889
 30
0.0
 10
42196.20630689848
 20
10946.00324500172
 30
0.0
 10
42191.97413960723
 20
10946.04648999416
 30
0.0
 10
42185.2001354251
 20
10946.13342394608
 30
0.0
 10
42177.57353259335
 20
10946.1937241822
 30
0.0
 10
42169.16395628695
 20
10946.24721480689
 30
0.0
 10
42159.94695255334
 20
10946.28938231068
 30
0.0
 10
42149.97259968805
 20
10946.32301004517
 30
0.0
 10
42139.39826979394
 20
10946.34917945344
 30
0.0
 10
42128.12613844802
 20
10946.36899435714
 30
0.0
 10
42115.58928843692
 20
10946.38516695388
 30
0.0
 10
42101.0421409272
 20
10946.39730447765
 30
0.0
 10
42083.98064016569
 20
10946.40661087173
 30
0.0
 10
42064.09805989011
 20
10946.41214952023
 30
0.0
 10
42042.28470788043
 20
10946.41401841994
 30
0.0
 10
42020.50361940352
 20
10946.4119841542
 30
0.0
 10
42000.73051664585
 20
10946.40623882556
 30
0.0
 10
41983.74633163715
 20
10946.39677260353
 30
0.0
 10
41969.23466817304
 20
10946.38436978409
 30
0.0
 10
41956.74796773714
 20
10946.3679096015
 30
0.0
 10
41945.53634131079
 20
10946.34779219594
 30
0.0
 10
41935.0322964154
 20
10946.32131191603
 30
0.0
 10
41925.08260195536
 20
10946.2871984752
 30
0.0
 10
41915.91671541065
 20
10946.24444401429
 30
0.0
 10
41907.6097775963
 20
10946.19077778726
 30
0.0
 10
41900.12352467383
 20
10946.13065389734
 30
0.0
 10
41893.49000944636
 20
10946.04497163065
 30
0.0
 10
41889.34661567433
 20
10946.00222359247
 30
0.0
 10
41887.4374843915
 20
10945.95277752609
 30
0.0
 11
42198.1519822498
 21
10945.95272012889
 31
0.0
 11
42192.31372345752
 21
10946.04536079919
 31
0.0
 11
42185.4567055024
 21
10946.12479971649
 31
0.0
 11
42177.82948591839
 21
10946.18982948609
 31
0.0
 11
42169.4342710228
 21
10946.24311194709
 31
0.0
 11
42160.22797812182
 21
10946.28633077089
 31
0.0
 11
42150.1785415248
 21
10946.32085876559
 31
0.0
 11
42139.51123666181
 21
10946.34764517779
 31
0.0
 11
42128.50500715379
 21
10946.36751226219
 31
0.0
 11
42116.36215848491
 21
10946.38332817129
 31
0.0
 11
42101.9006904109
 21
10946.39594876759
 31
0.0
 11
42084.8635689513
 21
10946.40542608049
 31
0.0
 11
42065.17765813782
 21
10946.41126401029
 31
0.0
 11
42042.2529514347
 21
10946.41333551739
 31
0.0
 11
42019.423514092
 21
10946.41107576809
 31
0.0
 11
41999.83439391081
 21
10946.40504323489
 31
0.0
 11
41982.93364501121
 21
10946.39541704439
 31
0.0
 11
41968.47096114168
 21
10946.38250361159
 31
0.0
 11
41956.29940803612
 21
10946.36629593949
 31
0.0
 11
41945.47354746321
 21
10946.34635695839
 31
0.0
 11
41934.8360930532
 21
10946.31916236319
 31
0.0
 11
41924.78729278761
 21
10946.28402060099
 31
0.0
 11
41915.6244898614
 21
10946.24020058589
 31
0.0
 11
41907.33849923281
 21
10946.18674387819
 31
0.0
 11
41899.86648113661
 21
10946.12217488119
 31
0.0
 11
41893.1660739239
 21
10946.04391745399
 31
0.0
 11
41887.4374843915
 21
10945.95277752609
 31
0.0
  0
SPLINE
  5
598A
330
200
100
AcDbEntity
  8
11111外轮廓线
 62
     7
370
     9
100
AcDbSpline
210
0.0
220
0.0
230
1.0
 70
     8
 71
     3
 72
    11
 73
     7
 74
     5
 42
0.0000000001
 43
0.0000000001
 44
0.0000000001
 12
-0.9996647695303636
 22
-0.0258910903556666
 32
0.0
 13
-0.0905322831671889
 23
-0.9958935212684817
 33
0.0
 40
0.0
 40
0.0
 40
0.0
 40
0.0
 40
4.526220781044127
 40
8.138024929661442
 40
10.77053294040631
 40
11.82773059227724
 40
11.82773059227724
 40
11.82773059227724
 40
11.82773059227724
 10
41887.4374843915
 20
10945.95277752609
 30
0.0
 10
41885.92924990685
 20
10945.91371459569
 30
0.0
 10
41883.29257958973
 20
10945.81203121183
 30
0.0
 10
41879.44389285584
 20
10945.89812182199
 30
0.0
 10
41877.56357071132
 20
10945.35987455332
 30
0.0
 10
41875.66257619403
 20
10945.77112796599
 30
0.0
 10
41875.6306726883
 20
10945.42017586859
 30
0.0
 11
41887.4374843915
 21
10945.95277752609
 31
0.0
 11
41882.9123816136
 21
10945.85218225689
 31
0.0
 11
41879.302470918
 21
10945.73524647219
 31
0.0
 11
41876.6738876423
 21
10945.59155099769
 31
0.0
 11
41875.6306726883
 21
10945.42017586859
 31
0.0
  0
SPLINE
  5
598B
330
200
100
AcDbEntity
  8
11111外轮廓线
 62
     7
370
     9
100
AcDbSpline
210
0.0
220
0.0
230
1.0
 70
     8
 71
     3
 72
    11
 73
     7
 74
     5
 42
0.0000000001
 43
0.0000000001
 44
0.0000000001
 12
-0.0030502632368292
 22
0.9999953479362721
 32
0.0
 13
-0.9999057839677963
 23
0.0137267325954416
 33
0.0
 40
0.0
 40
0.0
 40
0.0
 40
0.0
 40
1.269621707213205
 40
5.699085709053102
 40
13.9784923161224
 40
25.83661922965829
 40
25.83661922965829
 40
25.83661922965829
 40
25.83661922965829
 10
42220.29318263571
 20
10957.77560687309
 30
0.0
 10
42220.29189174223
 20
10958.19881214004
 30
0.0
 10
42217.26480883472
 20
10957.15656011753
 30
0.0
 10
42213.83666302539
 20
10958.3464821641
 30
0.0
 10
42204.84946637673
 20
10957.63304677325
 30
0.0
 10
42198.40955378972
 20
10957.83637075842
 30
0.0
 10
42194.45721722711
 20
10957.89062853749
 30
0.0
 11
42220.29318263571
 21
10957.77560687309
 31
0.0
 11
42219.0240333033
 21
10957.81023708349
 31
0.0
 11
42214.59468683169
 21
10957.84250437489
 31
0.0
 11
42206.31532654049
 21
10957.87019794279
 31
0.0
 11
42194.45721722711
 21
10957.89062853749
 31
0.0
  0
SPLINE
  5
598C
330
200
100
AcDbEntity
  8
11111外轮廓线
 62
     7
370
     9
100
AcDbSpline
210
0.0
220
0.0
230
1.0
 70
     8
 71
     3
 72
     8
 73
     4
 74
     2
 42
0.0000000001
 43
0.0000000001
 44
0.0000000001
 12
-0.9999057839683423
 22
0.0137267325556624
 32
0.0
 13
-0.9999430384164963
 23
0.010673327615407
 33
0.0
 40
0.0
 40
0.0
 40
0.0
 40
0.0
 40
1.084026632959327
 40
1.084026632959327
 40
1.084026632959327
 40
1.084026632959327
 10
42194.45721722711
 20
10957.89062853749
 30
0.0
 10
42194.09590906034
 20
10957.89558858538
 30
0.0
 10
42193.73459255207
 20
10957.89996849179
 30
0.0
 10
42193.37327092371
 20
10957.90382521559
 30
0.0
 11
42194.45721722711
 21
10957.89062853749
 31
0.0
 11
42193.37327092371
 21
10957.90382521559
 31
0.0
  0
SPLINE
  5
598D
330
200
100
AcDbEntity
  8
11111外轮廓线
 62
     7
370
     9
100
AcDbSpline
210
0.0
220
0.0
230
1.0
 70
     8
 71
     3
 72
     8
 73
     4
 74
     2
 42
0.0000000001
 43
0.0000000001
 44
0.0000000001
 12
-0.9999430384169937
 22
0.0106733275687982
 32
0.0
 13
-0.9999952147053498
 23
-0.0030936332041138
 33
0.0
 40
0.0
 40
0.0
 40
0.0
 40
0.0
 40
8.610136027699013
 40
8.610136027699013
 40
8.610136027699013
 40
8.610136027699013
 10
42193.37327092371
 20
10957.90382521559
 30
0.0
 10
42190.50338906346
 20
10957.93445814967
 30
0.0
 10
42187.63318907125
 20
10957.93241712616
 30
0.0
 10
42184.76315746269
 20
10957.92353825859
 30
0.0
 11
42193.37327092371
 21
10957.90382521559
 31
0.0
 11
42184.76315746269
 21
10957.92353825859
 31
0.0
  0
LINE
  5
598E
330
200
100
AcDbEntity
  8
11111外轮廓线
 62
     7
370
     9
100
AcDbLine
 10
42184.76315746269
 20
10957.92353825859
 30
0.0
 11
42184.1033379512
 21
10957.92138302349
 31
0.0
  0
SPLINE
  5
598F
330
200
100
AcDbEntity
  8
11111外轮廓线
 62
     7
370
     9
100
AcDbSpline
210
0.0
220
0.0
230
1.0
 70
     8
 71
     3
 72
     8
 73
     4
 74
     2
 42
0.0000000001
 43
0.0000000001
 44
0.0000000001
 12
-0.9999941434468329
 22
-0.0034224365640161
 32
0.0
 13
-0.9999928008049025
 23
-0.0037945142464352
 33
0.0
 40
0.0
 40
0.0
 40
0.0
 40
0.0
 40
2.229385468373057
 40
2.229385468373057
 40
2.229385468373057
 40
2.229385468373057
 10
42184.1033379512
 20
10957.92138302349
 30
0.0
 10
42183.36021381392
 20
10957.91883971338
 30
0.0
 10
42182.61709091023
 20
10957.91594663473
 30
0.0
 10
42181.8739677707
 20
10957.91312682309
 30
0.0
 11
42184.1033379512
 21
10957.92138302349
 31
0.0
 11
42181.8739677707
 21
10957.91312682309
 31
0.0
  0
SPLINE
  5
5990
330
200
100
AcDbEntity
  8
11111外轮廓线
 62
     7
370
     9
100
AcDbSpline
210
0.0
220
0.0
230
1.0
 70
     8
 71
     3
 72
     8
 73
     4
 74
     2
 42
0.0000000001
 43
0.0000000001
 44
0.0000000001
 12
-0.9999928008049874
 22
-0.0037945142241261
 32
0.0
 13
-0.9999946259134153
 23
-0.0032784362566328
 33
0.0
 40
0.0
 40
0.0
 40
0.0
 40
0.0
 40
1.771238733677789
 40
1.771238733677789
 40
1.771238733677789
 40
1.771238733677789
 10
42181.8739677707
 20
10957.91312682309
 30
0.0
 10
42181.28355910997
 20
10957.9108864929
 30
0.0
 10
42180.6931502304
 20
10957.90869227009
 30
0.0
 10
42180.1027404921
 20
10957.90675663899
 30
0.0
 11
42181.8739677707
 21
10957.91312682309
 31
0.0
 11
42180.1027404921
 21
10957.90675663899
 31
0.0
  0
LINE
  5
5991
330
200
100
AcDbEntity
  8
11111外轮廓线
 62
     7
370
     9
100
AcDbLine
 10
42180.1027404921
 20
10957.90675663899
 30
0.0
 11
42179.40951670129
 21
10957.90461562059
 31
0.0
  0
SPLINE
  5
5992
330
200
100
AcDbEntity
  8
11111外轮廓线
 62
     7
370
     9
100
AcDbSpline
210
0.0
220
0.0
230
1.0
 70
     8
 71
     3
 72
     8
 73
     4
 74
     2
 42
0.0000000001
 43
0.0000000001
 44
0.0000000001
 12
-0.9999958526631294
 22
-0.0028800445380097
 32
0.0
 13
-0.9999999960888956
 23
-0.0000884432532319
 33
0.0
 40
0.0
 40
0.0
 40
0.0
 40
0.0
 40
5.205679672483888
 40
5.205679672483888
 40
5.205679672483888
 40
5.205679672483888
 10
42179.40951670129
 20
10957.90461562059
 30
0.0
 10
42177.67429734037
 20
10957.89961809082
 30
0.0
 10
42175.93906854291
 20
10957.89758051707
 30
0.0
 10
42174.2038419922
 20
10957.89742704799
 30
0.0
 11
42179.40951670129
 21
10957.90461562059
 31
0.0
 11
42174.2038419922
 21
10957.89742704799
 31
0.0
  0
LINE
  5
5993
330
200
100
AcDbEntity
  8
11111外轮廓线
 62
     7
370
     9
100
AcDbLine
 10
42174.2038419922
 20
10957.89742704798
 30
0.0
 11
42173.73090719201
 21
10957.89743098839
 31
0.0
  0
SPLINE
  5
5994
330
200
100
AcDbEntity
  8
11111外轮廓线
 62
     7
370
     9
100
AcDbSpline
210
0.0
220
0.0
230
1.0
 70
     8
 71
     3
 72
     8
 73
     4
 74
     2
 42
0.0000000001
 43
0.0000000001
 44
0.0000000001
 12
-0.9999999946567578
 22
0.0001033754532139
 32
0.0
 13
-0.9999996308902492
 23
0.000859196930578
 33
0.0
 40
0.0
 40
0.0
 40
0.0
 40
0.0
 40
2.201918482114455
 40
2.201918482114455
 40
2.201918482114455
 40
2.201918482114455
 10
42173.73090719201
 20
10957.89743098839
 30
0.0
 10
42172.99693436856
 20
10957.89750686317
 30
0.0
 10
42172.26296154175
 20
10957.89790166659
 30
0.0
 10
42171.52898898531
 20
10957.89853229379
 30
0.0
 11
42173.73090719201
 21
10957.89743098839
 31
0.0
 11
42171.52898898531
 21
10957.89853229379
 31
0.0
  0
SPLINE
  5
5995
330
200
100
AcDbEntity
  8
11111外轮廓线
 62
     7
370
     9
100
AcDbSpline
210
0.0
220
0.0
230
1.0
 70
     8
 71
     3
 72
     8
 73
     4
 74
     2
 42
0.0000000001
 43
0.0000000001
 44
0.0000000001
 12
-0.999999630890271
 22
0.00085919690513
 32
0.0
 13
-0.9999986770271009
 23
0.0016266358068392
 33
0.0
 40
0.0
 40
0.0
 40
0.0
 40
0.0
 40
3.786232079792102
 40
3.786232079792102
 40
3.786232079792102
 40
3.786232079792102
 10
42171.52898898531
 20
10957.89853229379
 30
0.0
 10
42170.26691209122
 20
10957.89961666675
 30
0.0
 10
42169.00483579125
 20
10957.90139847137
 30
0.0
 10
42167.74276010101
 20
10957.90345141159
 30
0.0
 11
42171.52898898531
 21
10957.89853229379
 31
0.0
 11
42167.74276010101
 21
10957.90345141159
 31
0.0
  0
LINE
  5
5996
330
200
100
AcDbEntity
  8
11111外轮廓线
 62
     7
370
     9
100
AcDbLine
 10
42167.74276010101
 20
10957.90345141159
 30
0.0
 11
42167.19072632439
 21
10957.90436531799
 31
0.0
  0
SPLINE
  5
5997
330
200
100
AcDbEntity
  8
11111外轮廓线
 62
     7
370
     9
100
AcDbSpline
210
0.0
220
0.0
230
1.0
 70
     8
 71
     3
 72
     8
 73
     4
 74
     2
 42
0.0000000001
 43
0.0000000001
 44
0.0000000001
 12
-0.9999985854206439
 22
0.0016820097237699
 32
0.0
 13
-0.9999989956594323
 23
0.0014172791279972
 33
0.0
 40
0.0
 40
0.0
 40
0.0
 40
0.0
 40
5.660792576768189
 40
5.660792576768189
 40
5.660792576768189
 40
5.660792576768189
 10
42167.19072632439
 20
10957.90436531799
 30
0.0
 10
42165.30379813469
 20
10957.90753915404
 30
0.0
 10
42163.4168706626
 20
10957.91117888857
 30
0.0
 10
42161.52994169879
 20
10957.91385319629
 30
0.0
 11
42167.19072632439
 21
10957.90436531799
 31
0.0
 11
42161.52994169879
 21
10957.91385319629
 31
0.0
  0
SPLINE
  5
5998
330
200
100
AcDbEntity
  8
11111外轮廓线
 62
     7
370
     9
100
AcDbSpline
210
0.0
220
0.0
230
1.0
 70
     8
 71
     3
 72
    17
 73
    13
 74
    11
 42
0.0000000001
 43
0.0000000001
 44
0.0000000001
 12
-0.9999989956594433
 22
0.0014172791202109
 32
0.0
 13
-0.9999990128073259
 23
-0.0014051278851635
 33
0.0
 40
0.0
 40
0.0
 40
0.0
 40
0.0
 40
20.56196463565421
 40
43.14111375730457
 40
67.31490601574629
 40
92.68840599884386
 40
118.6028650197713
 40
144.5155271218722
 40
169.8981517480607
 40
194.1429343003724
 40
216.8222085877923
 40
237.3417109672937
 40
237.3417109672937
 40
237.3417109672937
 40
237.3417109672937
 10
42161.52994169879
 20
10957.91385319629
 30
0.0
 10
42154.67596037065
 20
10957.92356721067
 30
0.0
 10
42140.29557989113
 20
10957.91667618303
 30
0.0
 10
42117.85728230087
 20
10957.92437605386
 30
0.0
 10
42093.81513397043
 20
10957.92467186606
 30
0.0
 10
42068.66121725094
 20
10957.92591357641
 30
0.0
 10
42042.92767680804
 20
10957.92612890729
 30
0.0
 10
42017.19109481923
 20
10957.92591283702
 30
0.0
 10
41992.01107208875
 20
10957.92468314303
 30
0.0
 10
41967.90884373466
 20
10957.92441685582
 30
0.0
 10
41945.42766170056
 20
10957.91669410987
 30
0.0
 10
41931.02806039166
 20
10957.92358270116
 30
0.0
 10
41924.18823301739
 20
10957.91397185949
 30
0.0
 11
42161.52994169879
 21
10957.91385319629
 31
0.0
 11
42140.9679778901
 21
10957.91968482259
 31
0.0
 11
42118.38882901052
 21
10957.92299105049
 31
0.0
 11
42094.21503682071
 21
10957.92481264609
 31
0.0
 11
42068.84153685431
 21
10957.92573313169
 31
0.0
 11
42042.92707783539
 21
10957.92605650839
 31
0.0
 11
42017.01441573529
 21
10957.92573489489
 31
0.0
 11
41991.63179112529
 21
10957.92482814479
 31
0.0
 11
41967.3870086402
 21
10957.92302281689
 31
0.0
 11
41944.70773459491
 21
10957.91970883909
 31
0.0
 11
41924.18823301739
 21
10957.91397185949
 31
0.0
  0
LINE
  5
5999
330
200
100
AcDbEntity
  8
11111外轮廓线
 62
     7
370
     9
100
AcDbLine
 10
41924.18823301739
 20
10957.91397185949
 30
0.0
 11
41924.0564236796
 21
10957.91378506999
 31
0.0
  0
SPLINE
  5
599A
330
200
100
AcDbEntity
  8
11111外轮廓线
 62
     7
370
     9
100
AcDbSpline
210
0.0
220
0.0
230
1.0
 70
     8
 71
     3
 72
     8
 73
     4
 74
     2
 42
0.0000000001
 43
0.0000000001
 44
0.0000000001
 12
-0.9999989790210461
 22
-0.0014289705614613
 32
0.0
 13
-0.999998584738458
 23
-0.0016824152522472
 33
0.0
 40
0.0
 40
0.0
 40
0.0
 40
0.0
 40
5.655581665131286
 40
5.655581665131286
 40
5.655581665131286
 40
5.655581665131286
 10
41924.0564236796
 20
10957.91378506999
 30
0.0
 10
41922.17123171596
 20
10957.91109118342
 30
0.0
 10
41920.28604122661
 20
10957.90744903574
 30
0.0
 10
41918.40085000628
 20
10957.90427735679
 30
0.0
 11
41924.0564236796
 21
10957.91378506999
 31
0.0
 11
41918.40085000628
 21
10957.90427735679
 31
0.0
  0
LINE
  5
599B
330
200
100
AcDbEntity
  8
11111外轮廓线
 62
     7
370
     9
100
AcDbLine
 10
41918.40085000628
 20
10957.90427735679
 30
0.0
 11
41917.8749221395
 21
10957.90340587389
 31
0.0
  0
SPLINE
  5
599C
330
200
100
AcDbEntity
  8
11111外轮廓线
 62
     7
370
     9
100
AcDbSpline
210
0.0
220
0.0
230
1.0
 70
     8
 71
     3
 72
     8
 73
     4
 74
     2
 42
0.0000000001
 43
0.0000000001
 44
0.0000000001
 12
-0.9999986723794794
 22
-0.0016294904966481
 32
0.0
 13
-0.9999999949148856
 23
-0.0001008475530281
 33
0.0
 40
0.0
 40
0.0
 40
0.0
 40
0.0
 40
6.02049358652586
 40
6.02049358652586
 40
6.02049358652586
 40
6.02049358652586
 10
41917.8749221395
 20
10957.90340587389
 30
0.0
 10
41915.86809360829
 20
10957.90013576153
 30
0.0
 10
41913.86126278601
 20
10957.89755038931
 30
0.0
 10
41911.85443160071
 20
10957.89734800529
 30
0.0
 11
41917.8749221395
 21
10957.90340587389
 31
0.0
 11
41911.85443160071
 21
10957.89734800529
 31
0.0
  0
LINE
  5
599D
330
200
100
AcDbEntity
  8
11111外轮廓线
 62
     7
370
     9
100
AcDbLine
 10
41911.85443160071
 20
10957.89734800529
 30
0.0
 11
41911.38252347
 21
10957.89734509799
 31
0.0
  0
SPLINE
  5
599E
330
200
100
AcDbEntity
  8
11111外轮廓线
 62
     7
370
     9
100
AcDbSpline
210
0.0
220
0.0
230
1.0
 70
     8
 71
     3
 72
     8
 73
     4
 74
     2
 42
0.0000000001
 43
0.0000000001
 44
0.0000000001
 12
-0.99999999592841
 22
0.0000902395713037
 32
0.0
 13
-0.9999958262102813
 23
0.0028892147751111
 33
0.0
 40
0.0
 40
0.0
 40
0.0
 40
0.0
 40
5.228858640441145
 40
5.228858640441145
 40
5.228858640441145
 40
5.228858640441145
 10
41911.38252347
 20
10957.89734509799
 30
0.0
 10
41909.63957059695
 20
10957.89750238131
 30
0.0
 10
41907.89661545813
 20
10957.89955712998
 30
0.0
 10
41906.1536698527
 20
10957.90459289519
 30
0.0
 11
41911.38252347
 21
10957.89734509799
 31
0.0
 11
41906.1536698527
 21
10957.90459289519
 31
0.0
  0
LINE
  5
599F
330
200
100
AcDbEntity
  8
11111外轮廓线
 62
     7
370
     9
100
AcDbLine
 10
41906.1536698527
 20
10957.90459289519
 30
0.0
 11
41905.4836247464
 21
10957.90666394299
 31
0.0
  0
LINE
  5
59A0
330
200
100
AcDbEntity
  8
11111外轮廓线
 62
     7
370
     9
100
AcDbLine
 10
41905.4836247464
 20
10957.90666394299
 30
0.0
 11
41904.0266846068
 21
10957.91184709259
 31
0.0
  0
SPLINE
  5
59A1
330
200
100
AcDbEntity
  8
11111外轮廓线
 62
     7
370
     9
100
AcDbSpline
210
0.0
220
0.0
230
1.0
 70
     8
 71
     3
 72
     8
 73
     4
 74
     2
 42
0.0000000001
 43
0.0000000001
 44
0.0000000001
 12
-0.9999929364994274
 22
0.0037585836763544
 32
0.0
 13
-0.9999940933312478
 23
0.0034370485326384
 33
0.0
 40
0.0
 40
0.0
 40
0.0
 40
0.0
 40
2.543675060535365
 40
2.543675060535365
 40
2.543675060535365
 40
2.543675060535365
 10
41904.0266846068
 20
10957.91184709259
 30
0.0
 10
41903.17879890904
 20
10957.91503396444
 30
0.0
 10
41902.33091383701
 20
10957.91839850621
 30
0.0
 10
41901.48302715838
 20
10957.92131275109
 30
0.0
 11
41904.0266846068
 21
10957.91184709259
 31
0.0
 11
41901.48302715838
 21
10957.92131275109
 31
0.0
  0
LINE
  5
59A2
330
200
100
AcDbEntity
  8
11111外轮廓线
 62
     7
370
     9
100
AcDbLine
 10
41901.48302715838
 20
10957.92131275108
 30
0.0
 11
41900.7927300884
 21
10957.92357320859
 31
0.0
  0
SPLINE
  5
59A3
330
200
100
AcDbEntity
  8
11111外轮廓线
 62
     7
370
     9
100
AcDbSpline
210
0.0
220
0.0
230
1.0
 70
     8
 71
     3
 72
     8
 73
     4
 74
     2
 42
0.0000000001
 43
0.0000000001
 44
0.0000000001
 12
-0.9999952139388275
 22
0.0030938809671036
 32
0.0
 13
-0.999943728957168
 23
-0.0106084362294304
 33
0.0
 40
0.0
 40
0.0
 40
0.0
 40
0.0
 40
8.579661053400133
 40
8.579661053400133
 40
8.579661053400133
 40
8.579661053400133
 10
41900.7927300884
 20
10957.92357320859
 30
0.0
 10
41897.93285675819
 20
10957.9324213586
 30
0.0
 10
41895.07281719797
 20
10957.93445001274
 30
0.0
 10
41892.213091109
 20
10957.90411108369
 30
0.0
 11
41900.7927300884
 21
10957.92357320859
 31
0.0
 11
41892.213091109
 21
10957.90411108369
 31
0.0
  0
SPLINE
  5
59A4
330
200
100
AcDbEntity
  8
11111外轮廓线
 62
     7
370
     9
100
AcDbSpline
210
0.0
220
0.0
230
1.0
 70
     8
 71
     3
 72
     8
 73
     4
 74
     2
 42
0.0000000001
 43
0.0000000001
 44
0.0000000001
 12
-0.9999437289572467
 22
-0.0106084362220136
 32
0.0
 13
-0.9999056092542488
 23
-0.01373945347856
 33
0.0
 40
0.0
 40
0.0
 40
0.0
 40
0.0
 40
1.112639658033087
 40
1.112639658033087
 40
1.112639658033087
 40
1.112639658033087
 10
41892.213091109
 20
10957.90411108369
 30
0.0
 10
41891.84223209278
 20
10957.90017662808
 30
0.0
 10
41891.47137840747
 20
10957.89569233273
 30
0.0
 10
41891.10053352909
 20
10957.89059664579
 30
0.0
 11
41892.213091109
 21
10957.90411108369
 31
0.0
 11
41891.10053352909
 21
10957.89059664579
 31
0.0
  0
SPLINE
  5
59A5
330
200
100
AcDbEntity
  8
11111外轮廓线
 62
     7
370
     9
100
AcDbSpline
210
0.0
220
0.0
230
1.0
 70
     8
 71
     3
 72
    11
 73
     7
 74
     5
 42
0.0000000001
 43
0.0000000001
 44
0.0000000001
 12
-0.9999056092546235
 22
-0.0137394534512886
 32
0.0
 13
-0.0028042120143494
 23
-0.9999960681897597
 33
0.0
 40
0.0
 40
0.0
 40
0.0
 40
0.0
 40
11.84768214726998
 40
20.1189842919928
 40
24.54195060220014
 40
25.80800506531162
 40
25.80800506531162
 40
25.80800506531162
 40
25.80800506531162
 10
41891.10053352909
 20
10957.89059664579
 30
0.0
 10
41887.15167891719
 20
10957.83633642
 30
0.0
 10
41880.71788932402
 20
10957.6331810322
 30
0.0
 10
41871.73934035816
 20
10958.34601399629
 30
0.0
 10
41868.31617528514
 20
10957.15754931463
 30
0.0
 10
41865.29436609028
 20
10958.19762518317
 30
0.0
 10
41865.2931826619
 20
10957.77560868809
 30
0.0
 11
41891.10053352909
 21
10957.89059664579
 31
0.0
 11
41879.25286899962
 21
10957.87016481639
 31
0.0
 11
41870.98161330331
 21
10957.84244522809
 31
0.0
 11
41866.55876455422
 21
10957.81019737709
 31
0.0
 11
41865.2931826619
 21
10957.77560868809
 31
0.0
  0
SPLINE
  5
59A6
330
200
100
AcDbEntity
  8
11111外轮廓线
 62
     7
370
     9
100
AcDbSpline
210
0.0
220
0.0
230
1.0
 70
     8
 71
     3
 72
     8
 73
     4
 74
     2
 42
0.0000000001
 43
0.0000000001
 44
0.0000000001
 12
-0.1990278210104333
 22
-0.9799938400132109
 32
0.0
 13
0.9966356483497486
 23
0.0819596512832785
 33
0.0
 40
0.0
 40
0.0
 40
0.0
 40
0.0
 40
0.2588893605334864
 40
0.2588893605334864
 40
0.2588893605334864
 40
0.2588893605334864
 10
42123.31485860209
 20
10656.05337841039
 30
0.0
 10
42123.29768320699
 20
10655.96880841753
 30
0.0
 10
42123.27864805771
 20
10655.79225027134
 30
0.0
 10
42123.3646541796
 20
10655.79932309858
 30
0.0
 11
42123.31485860209
 21
10656.05337841039
 31
0.0
 11
42123.3646541796
 21
10655.79932309858
 31
0.0
  0
SPLINE
  5
59A7
330
200
100
AcDbEntity
  8
11111外轮廓线
 62
     7
370
     9
100
AcDbSpline
210
0.0
220
0.0
230
1.0
 70
     8
 71
     3
 72
     8
 73
     4
 74
     2
 42
0.0000000001
 43
0.0000000001
 44
0.0000000001
 12
0.2003636671794828
 22
-0.9797215935531834
 32
0.0
 13
-0.9981742830678575
 23
0.0603995084580051
 33
0.0
 40
0.0
 40
0.0
 40
0.0
 40
0.0
 40
0.2587787136106153
 40
0.2587787136106153
 40
0.2587787136106153
 40
0.2587787136106153
 10
41962.27178864342
 20
10656.05346964019
 30
0.0
 10
41962.28907192743
 20
10655.96895927563
 30
0.0
 10
41962.30786479294
 20
10655.79436232539
 30
0.0
 10
41962.22176270731
 20
10655.79957236109
 30
0.0
 11
41962.27178864342
 21
10656.05346964019
 31
0.0
 11
41962.22176270731
 21
10655.79957236109
 31
0.0
  0
SPLINE
  5
59A8
330
200
100
AcDbEntity
  8
11111外轮廓线
 62
     7
370
     9
100
AcDbSpline
210
0.0
220
0.0
230
1.0
 70
     8
 71
     3
 72
     8
 73
     4
 74
     2
 42
0.0000000001
 43
0.0000000001
 44
0.0000000001
 12
-0.9851673869899727
 22
0.1715960943942183
 32
0.0
 13
-0.999998892531104
 23
0.0014882662952619
 33
0.0
 40
0.0
 40
0.0
 40
0.0
 40
0.0
 40
0.5885706429567163
 40
0.5885706429567163
 40
0.5885706429567163
 40
0.5885706429567163
 10
42214.7171541169
 20
10950.92198663979
 30
0.0
 10
42214.5238739161
 20
10950.95565211433
 30
0.0
 10
42214.32653988294
 20
10950.96725995291
 30
0.0
 10
42214.1303498859
 20
10950.96755193619
 30
0.0
 11
42214.7171541169
 21
10950.92198663979
 31
0.0
 11
42214.1303498859
 21
10950.96755193619
 31
0.0
  0
SPLINE
  5
59A9
330
200
100
AcDbEntity
  8
11111外轮廓线
 62
     7
370
     9
100
AcDbSpline
210
0.0
220
0.0
230
1.0
 70
     8
 71
     3
 72
    12
 73
     8
 74
     6
 42
0.0000000001
 43
0.0000000001
 44
0.0000000001
 12
-0.999998892531028
 22
0.0014882663464215
 32
0.0
 13
-0.99999998987909
 23
0.0001422737503259
 33
0.0
 40
0.0
 40
0.0
 40
0.0
 40
0.0
 40
0.7366445216551218
 40
5.115427834234306
 40
13.20593735564592
 40
24.73133808562683
 40
31.79817071890014
 40
31.79817071890014
 40
31.79817071890014
 40
31.79817071890014
 10
42214.1303498859
 20
10950.96755193619
 30
0.0
 10
42213.88480198395
 20
10950.96791737728
 30
0.0
 10
42212.18196983596
 20
10950.85051225342
 30
0.0
 10
42207.7769691913
 20
10951.03087642026
 30
0.0
 10
42199.78074279766
 20
10950.9321031283
 30
0.0
 10
42190.88570123871
 20
10950.9776905131
 30
0.0
 10
42184.68842741262
 20
10950.9828399472
 30
0.0
 10
42182.33281655869
 20
10950.98317508879
 30
0.0
 11
42214.1303498859
 21
10950.96755193619
 31
0.0
 11
42213.3942988864
 21
10950.93798713579
 31
0.0
 11
42209.01554080271
 21
10950.95285128529
 31
0.0
 11
42200.9250414523
 21
10950.96568005039
 31
0.0
 11
42189.39964455571
 21
10950.97508019289
 31
0.0
 11
42182.33281655869
 21
10950.98317508879
 31
0.0
  0
LINE
  5
59AA
330
200
100
AcDbEntity
  8
11111外轮廓线
 62
     7
370
     9
100
AcDbLine
 10
42182.33281655869
 20
10950.98317508879
 30
0.0
 11
42180.1035533031
 21
10950.98308412069
 31
0.0
  0
LINE
  5
59AB
330
200
100
AcDbEntity
  8
11111外轮廓线
 62
     7
370
     9
100
AcDbLine
 10
42180.1035533031
 20
10950.98308412069
 30
0.0
 11
42180.00109090922
 21
10950.98306390249
 31
0.0
  0
LINE
  5
59AC
330
200
100
AcDbEntity
  8
11111外轮廓线
 62
     7
370
     9
100
AcDbLine
 10
42180.00109090922
 20
10950.98306390249
 30
0.0
 11
42174.816135832
 21
10950.98152608029
 31
0.0
  0
LINE
  5
59AD
330
200
100
AcDbEntity
  8
11111外轮廓线
 62
     7
370
     9
100
AcDbLine
 10
42174.816135832
 20
10950.98152608029
 30
0.0
 11
42174.20437631281
 21
10950.98141085369
 31
0.0
  0
LINE
  5
59AE
330
200
100
AcDbEntity
  8
11111外轮廓线
 62
     7
370
     9
100
AcDbLine
 10
42174.20437631281
 20
10950.98141085369
 30
0.0
 11
42172.8789383678
 21
10950.98127777389
 31
0.0
  0
LINE
  5
59AF
330
200
100
AcDbEntity
  8
11111外轮廓线
 62
     7
370
     9
100
AcDbLine
 10
42172.8789383678
 20
10950.98127777389
 30
0.0
 11
42170.20412762381
 21
10950.98143332649
 31
0.0
  0
SPLINE
  5
59B0
330
200
100
AcDbEntity
  8
11111外轮廓线
 62
     7
370
     9
100
AcDbSpline
210
0.0
220
0.0
230
1.0
 70
     8
 71
     3
 72
    10
 73
     6
 74
     4
 42
0.0000000001
 43
0.0000000001
 44
0.0000000001
 12
-0.9999999886287094
 22
0.0001508064354794
 32
0.0
 13
-0.9999999980937319
 23
0.000061745738244
 33
0.0
 40
0.0
 40
0.0
 40
0.0
 40
0.0
 40
12.75900628671511
 40
32.56756342145764
 40
35.25027366833079
 40
35.25027366833079
 40
35.25027366833079
 40
35.25027366833079
 10
42170.20412762381
 20
10950.98143332649
 30
0.0
 10
42165.95112557659
 20
10950.98207470658
 30
0.0
 10
42155.09527232015
 20
10950.98804685235
 30
0.0
 10
42143.34518075285
 20
10950.98817736831
 30
0.0
 10
42135.84809165145
 20
10950.98860811078
 30
0.0
 10
42134.9538549042
 20
10950.98866332609
 30
0.0
 11
42170.20412762381
 21
10950.98143332649
 31
0.0
 11
42157.44512210362
 21
10950.98585600469
 31
0.0
 11
42137.63656514671
 21
10950.98851029819
 31
0.0
 11
42134.9538549042
 21
10950.98866332609
 31
0.0
  0
LINE
  5
59B1
330
200
100
AcDbEntity
  8
11111外轮廓线
 62
     7
370
     9
100
AcDbLine
 10
42134.9538549042
 20
10950.98866332609
 30
0.0
 11
42134.3923115006
 21
10950.98869849329
 31
0.0
  0
LINE
  5
59B2
330
200
100
AcDbEntity
  8
11111外轮廓线
 62
     7
370
     9
100
AcDbLine
 10
42134.3923115006
 20
10950.98869849329
 30
0.0
 11
42130.9538055566
 21
10950.98893224259
 31
0.0
  0
LINE
  5
59B3
330
200
100
AcDbEntity
  8
11111外轮廓线
 62
     7
370
     9
100
AcDbLine
 10
42130.9538055566
 20
10950.98893224259
 30
0.0
 11
42130.56462041802
 21
10950.98896031889
 31
0.0
  0
SPLINE
  5
59B4
330
200
100
AcDbEntity
  8
11111外轮廓线
 62
     7
370
     9
100
AcDbSpline
210
0.0
220
0.0
230
1.0
 70
     8
 71
     3
 72
     9
 73
     5
 74
     3
 42
0.0000000001
 43
0.0000000001
 44
0.0000000001
 12
-0.9999999973733967
 22
0.0000724790102234
 32
0.0
 13
-0.9999999992559875
 23
0.0000385749273131
 33
0.0
 40
0.0
 40
0.0
 40
0.0
 40
0.0
 40
14.74634717776901
 40
22.38030168358788
 40
22.38030168358788
 40
22.38030168358788
 40
22.38030168358788
 10
42130.56462041802
 20
10950.98896031889
 30
0.0
 10
42125.64917137166
 20
10950.98931658577
 30
0.0
 10
42118.18907083612
 20
10950.98995032259
 30
0.0
 10
42110.72897028224
 20
10950.99030234425
 30
0.0
 10
42108.1843187822
 20
10950.99040050399
 30
0.0
 11
42130.56462041802
 21
10950.98896031889
 31
0.0
 11
42115.818273279
 21
10950.99002941639
 31
0.0
 11
42108.1843187822
 21
10950.99040050399
 31
0.0
  0
LINE
  5
59B5
330
200
100
AcDbEntity
  8
11111外轮廓线
 62
     7
370
     9
100
AcDbLine
 10
42108.1843187822
 20
10950.99040050399
 30
0.0
 11
42107.65760206291
 21
10950.99042051269
 31
0.0
  0
LINE
  5
59B6
330
200
100
AcDbEntity
  8
11111外轮廓线
 62
     7
370
     9
100
AcDbLine
 10
42107.65760206291
 20
10950.99042051269
 30
0.0
 11
42107.3742665952
 21
10950.99043102439
 31
0.0
  0
LINE
  5
59B7
330
200
100
AcDbEntity
  8
11111外轮廓线
 62
     7
370
     9
100
AcDbLine
 10
42107.3742665952
 20
10950.99043102439
 30
0.0
 11
42103.65758874501
 21
10950.99055426949
 31
0.0
  0
LINE
  5
59B8
330
200
100
AcDbEntity
  8
11111外轮廓线
 62
     7
370
     9
100
AcDbLine
 10
42103.65758874501
 20
10950.99055426949
 30
0.0
 11
42077.07027316949
 21
10950.99113620409
 31
0.0
  0
LINE
  5
59B9
330
200
100
AcDbEntity
  8
11111外轮廓线
 62
     7
370
     9
100
AcDbLine
 10
42077.07027316949
 20
10950.99113620409
 30
0.0
 11
42076.2129547447
 21
10950.99115171169
 31
0.0
  0
LINE
  5
59BA
330
200
100
AcDbEntity
  8
11111外轮廓线
 62
     7
370
     9
100
AcDbLine
 10
42076.2129547447
 20
10950.99115171169
 30
0.0
 11
42073.0702788464
 21
10950.99120555959
 31
0.0
  0
LINE
  5
59BB
330
200
100
AcDbEntity
  8
11111外轮廓线
 62
     7
370
     9
100
AcDbLine
 10
42073.0702788464
 20
10950.99120555959
 30
0.0
 11
42048.7931785431
 21
10950.99141905568
 31
0.0
  0
LINE
  5
59BC
330
200
100
AcDbEntity
  8
11111外轮廓线
 62
     7
370
     9
100
AcDbLine
 10
42048.7931785431
 20
10950.99141905568
 30
0.0
 11
42036.793185699
 21
10950.99141692619
 31
0.0
  0
LINE
  5
59BD
330
200
100
AcDbEntity
  8
11111外轮廓线
 62
     7
370
     9
100
AcDbLine
 10
42036.793185699
 20
10950.99141692619
 30
0.0
 11
42012.5160877408
 21
10950.99120268929
 31
0.0
  0
LINE
  5
59BE
330
200
100
AcDbEntity
  8
11111外轮廓线
 62
     7
370
     9
100
AcDbLine
 10
42012.5160877408
 20
10950.99120268929
 30
0.0
 11
42009.63384585629
 21
10950.99115493169
 31
0.0
  0
LINE
  5
59BF
330
200
100
AcDbEntity
  8
11111外轮廓线
 62
     7
370
     9
100
AcDbLine
 10
42009.63384585629
 20
10950.99115493169
 30
0.0
 11
42008.5382956448
 21
10950.99113579339
 31
0.0
  0
LINE
  5
59C0
330
200
100
AcDbEntity
  8
11111外轮廓线
 62
     7
370
     9
100
AcDbLine
 10
42008.5382956448
 20
10950.99113579339
 30
0.0
 11
41981.92877727279
 21
10950.99056194748
 31
0.0
  0
LINE
  5
59C1
330
200
100
AcDbEntity
  8
11111外轮廓线
 62
     7
370
     9
100
AcDbLine
 10
41981.92877727279
 20
10950.99056194748
 30
0.0
 11
41978.0702939582
 21
10950.99043178489
 31
0.0
  0
LINE
  5
59C2
330
200
100
AcDbEntity
  8
11111外轮廓线
 62
     7
370
     9
100
AcDbLine
 10
41978.0702939582
 20
10950.99043178489
 30
0.0
 11
41977.92876322111
 21
10950.99042644019
 31
0.0
  0
LINE
  5
59C3
330
200
100
AcDbEntity
  8
11111外轮廓线
 62
     7
370
     9
100
AcDbLine
 10
41977.92876322111
 20
10950.99042644019
 30
0.0
 11
41977.6123023602
 21
10950.99041432849
 31
0.0
  0
SPLINE
  5
59C4
330
200
100
AcDbEntity
  8
11111外轮廓线
 62
     7
370
     9
100
AcDbSpline
210
0.0
220
0.0
230
1.0
 70
     8
 71
     3
 72
     9
 73
     5
 74
     3
 42
0.0000000001
 43
0.0000000001
 44
0.0000000001
 12
-0.9999999992539807
 22
-0.0000386269158042
 32
0.0
 13
-0.9999999973835501
 23
-0.0000723387837512
 33
0.0
 40
0.0
 40
0.0
 40
0.0
 40
0.0
 40
7.661311751684757
 40
22.47685290487885
 40
22.47685290487885
 40
22.47685290487885
 40
22.47685290487885
 10
41977.6123023602
 20
10950.99041432849
 30
0.0
 10
41975.05853177822
 20
10950.99031568421
 30
0.0
 10
41967.56624748398
 20
10950.98996149143
 30
0.0
 10
41960.07396320811
 20
10950.98932496007
 30
0.0
 10
41955.13544950331
 20
10950.98896771399
 30
0.0
 11
41977.6123023602
 21
10950.99041432849
 31
0.0
 11
41969.95099061759
 21
10950.99004142619
 31
0.0
 11
41955.13544950331
 21
10950.98896771399
 31
0.0
  0
LINE
  5
59C5
330
200
100
AcDbEntity
  8
11111外轮廓线
 62
     7
370
     9
100
AcDbLine
 10
41955.13544950331
 20
10950.98896771399
 30
0.0
 11
41954.6325595001
 21
10950.98893155819
 31
0.0
  0
LINE
  5
59C6
330
200
100
AcDbEntity
  8
11111外轮廓线
 62
     7
370
     9
100
AcDbLine
 10
41954.6325595001
 20
10950.98893155819
 30
0.0
 11
41950.9906733222
 21
10950.98868656889
 31
0.0
  0
LINE
  5
59C7
330
200
100
AcDbEntity
  8
11111外轮廓线
 62
     7
370
     9
100
AcDbLine
 10
41950.9906733222
 20
10950.98868656889
 30
0.0
 11
41950.63251047501
 21
10950.98866444139
 31
0.0
  0
SPLINE
  5
59C8
330
200
100
AcDbEntity
  8
11111外轮廓线
 62
     7
370
     9
100
AcDbSpline
210
0.0
220
0.0
230
1.0
 70
     8
 71
     3
 72
    10
 73
     6
 74
     4
 42
0.0000000001
 43
0.0000000001
 44
0.0000000001
 12
-0.9999999981268121
 22
-0.000061207645247
 32
0.0
 13
-0.9999999886687765
 23
-0.0001505405163832
 33
0.0
 40
0.0
 40
0.0
 40
0.0
 40
0.0
 40
2.596522652463792
 40
22.43399145528876
 40
35.25027421462301
 40
35.25027421462301
 40
35.25027421462301
 40
35.25027421462301
 10
41950.63251047501
 20
10950.98866444139
 30
0.0
 10
41949.7670029258
 20
10950.98861146571
 30
0.0
 10
41942.28900579921
 20
10950.98818521214
 30
0.0
 10
41930.53891404867
 20
10950.98805938711
 30
0.0
 10
41919.65433141671
 20
10950.98206510157
 30
0.0
 10
41915.38223721201
 20
10950.98142197829
 30
0.0
 11
41950.63251047501
 21
10950.98866444139
 31
0.0
 11
41948.0359878267
 21
10950.98851743339
 31
0.0
 11
41928.1985192012
 21
10950.98586504379
 31
0.0
 11
41915.38223721201
 21
10950.98142197829
 31
0.0
  0
LINE
  5
59C9
330
200
100
AcDbEntity
  8
11111外轮廓线
 62
     7
370
     9
100
AcDbLine
 10
41915.38223721201
 20
10950.98142197829
 30
0.0
 11
41912.41549513501
 21
10950.98128259439
 31
0.0
  0
LINE
  5
59CA
330
200
100
AcDbEntity
  8
11111外轮廓线
 62
     7
370
     9
100
AcDbLine
 10
41912.41549513501
 20
10950.98128259439
 30
0.0
 11
41911.381989416
 21
10950.98139888679
 31
0.0
  0
LINE
  5
59CB
330
200
100
AcDbEntity
  8
11111外轮廓线
 62
     7
370
     9
100
AcDbLine
 10
41911.381989416
 20
10950.98139888679
 30
0.0
 11
41910.7476657945
 21
10950.98151853388
 31
0.0
  0
LINE
  5
59CC
330
200
100
AcDbEntity
  8
11111外轮廓线
 62
     7
370
     9
100
AcDbLine
 10
41910.7476657945
 20
10950.98151853388
 30
0.0
 11
41905.5556315852
 21
10950.98306204909
 31
0.0
  0
LINE
  5
59CD
330
200
100
AcDbEntity
  8
11111外轮廓线
 62
     7
370
     9
100
AcDbLine
 10
41905.5556315852
 20
10950.98306204909
 30
0.0
 11
41905.48281125542
 21
10950.98307650899
 31
0.0
  0
SPLINE
  5
59CE
330
200
100
AcDbEntity
  8
11111外轮廓线
 62
     7
370
     9
100
AcDbSpline
210
0.0
220
0.0
230
1.0
 70
     8
 71
     3
 72
    12
 73
     8
 74
     6
 42
0.0000000001
 43
0.0000000001
 44
0.0000000001
 12
-0.9999999810385105
 22
0.000194738231173
 32
0.0
 13
-0.9851678473168471
 23
-0.1715934515448926
 33
0.0
 40
0.0
 40
0.0
 40
0.0
 40
0.0
 40
9.323955606668659
 40
20.83927686833614
 40
28.92192429087547
 40
33.29439270808951
 40
34.61374478389799
 40
34.61374478389799
 40
34.61374478389799
 40
34.61374478389799
 10
41905.48281125542
 20
10950.98307650899
 30
0.0
 10
41902.37482611212
 20
10950.98368175253
 30
0.0
 10
41895.42744393429
 20
10950.98159611759
 30
0.0
 10
41885.79143266684
 20
10950.93189599222
 30
0.0
 10
41877.79018866095
 20
10951.03121008196
 30
0.0
 10
41873.21637686208
 20
10950.84207291177
 30
0.0
 10
41871.30246705166
 20
10950.99745044712
 30
0.0
 10
41870.8692059702
 20
10950.92198638829
 30
0.0
 11
41905.48281125542
 21
10950.98307650899
 31
0.0
 11
41896.1588590914
 21
10950.97506412379
 31
0.0
 11
41884.6435416716
 21
10950.96565771489
 31
0.0
 11
41876.56090443
 21
10950.95282892619
 31
0.0
 11
41872.18846127461
 21
10950.93796580429
 31
0.0
 11
41870.8692059702
 21
10950.92198638829
 31
0.0
  0
SPLINE
  5
59CF
330
200
100
AcDbEntity
  8
11111外轮廓线
 62
     7
370
     9
100
AcDbSpline
210
0.0
220
0.0
230
1.0
 70
     8
 71
     3
 72
    10
 73
     6
 74
     4
 42
0.0000000001
 43
0.0000000001
 44
0.0000000001
 12
0.0008748736336368
 22
-0.9999996172979892
 32
0.0
 13
-0.0000617501520676
 23
-0.9999999980934594
 33
0.0
 40
0.0
 40
0.0
 40
0.0
 40
0.0
 40
43.58316468767634
 40
85.91894306579062
 40
127.007386013137
 40
127.007386013137
 40
127.007386013137
 40
127.007386013137
 10
42182.00598961693
 20
10206.04673208842
 30
0.0
 10
42182.01869953749
 20
10191.51901608565
 30
0.0
 10
42182.0332995607
 20
10162.87937001858
 30
0.0
 10
42182.03603171422
 20
10120.54357441469
 30
0.0
 10
42182.03307887235
 20
10092.73550077253
 30
0.0
 10
42182.03223313315
 20
10079.03935314952
 30
0.0
 11
42182.00598961693
 21
10206.04673208842
 31
0.0
 11
42182.03023034965
 21
10162.46357414203
 31
0.0
 11
42182.03483592895
 21
10120.12779601443
 31
0.0
 11
42182.03223313315
 21
10079.03935314952
 31
0.0
  0
SPLINE
  5
59D0
330
200
100
AcDbEntity
  8
11111外轮廓线
 62
     7
370
     9
100
AcDbSpline
210
0.0
220
0.0
230
1.0
 70
     8
 71
     3
 72
    20
 73
    16
 74
    14
 42
0.0000000001
 43
0.0000000001
 44
0.0000000001
 12
0.9999999999977859
 22
0.0000021043280953
 32
0.0
 13
0.0008398923068959
 23
-0.9999996472903941
 33
0.0
 40
0.0
 40
0.0
 40
0.0
 40
0.0
 40
12.75657415972938
 40
27.29829962222762
 40
43.2016264441491
 40
60.05632694452934
 40
77.08243380631717
 40
92.87490320547664
 40
107.0156943864289
 40
119.7436940020611
 40
131.1818841543538
 40
142.0383505038865
 40
153.2025905251321
 40
165.5133093093106
 40
179.3548262833048
 40
179.3548262833048
 40
179.3548262833048
 40
179.3548262833048
 10
42042.79319558265
 20
10281.01811170543
 30
0.0
 10
42047.04538696922
 20
10281.01812065344
 30
0.0
 10
42056.14494250858
 20
10280.98046325318
 30
0.0
 10
42070.54354958494
 20
10280.68557766188
 30
0.0
 10
42086.2944119275
 20
10279.90909242258
 30
0.0
 10
42102.82220881111
 20
10278.32523113388
 30
0.0
 10
42119.17197085524
 20
10275.58507617394
 30
0.0
 10
42134.30552518448
 20
10271.44856666241
 30
0.0
 10
42147.45341804784
 20
10265.89649474576
 30
0.0
 10
42158.3106600937
 20
10259.05005086096
 30
0.0
 10
42166.91814750538
 20
10251.05942329274
 30
0.0
 10
42173.51754509816
 20
10241.98260093077
 30
0.0
 10
42178.35921940903
 20
10231.53554441065
 30
0.0
 10
42181.38490765413
 20
10219.40057560273
 30
0.0
 10
42182.00211448906
 20
10210.66056945241
 30
0.0
 10
42182.00598961693
 20
10206.04673208842
 30
0.0
 11
42042.79319558265
 21
10281.01811170543
 31
0.0
 11
42055.54959034945
 21
10280.95045931183
 31
0.0
 11
42070.08774589225
 21
10280.62825931193
 31
0.0
 11
42085.96979250275
 21
10279.80582422822
 31
0.0
 11
42102.74146426855
 21
10278.13490976672
 31
0.0
 11
42119.51727362604
 21
10275.22620983893
 31
0.0
 11
42134.72052692055
 21
10270.95266576092
 31
0.0
 11
42147.70452093524
 21
10265.35107003742
 31
0.0
 11
42158.42377989654
 21
10258.48816529262
 31
0.0
 11
42166.77632664175
 21
10250.67361752392
 31
0.0
 11
42173.15597582305
 21
10241.88937379313
 31
0.0
 11
42177.87925309406
 21
10231.77349977883
 31
0.0
 11
42180.92768013265
 21
10219.84618283102
 31
0.0
 11
42182.00598961693
 21
10206.04673208842
 31
0.0
  0
SPLINE
  5
59D1
330
200
100
AcDbEntity
  8
11111外轮廓线
 62
     7
370
     9
100
AcDbSpline
210
0.0
220
0.0
230
1.0
 70
     8
 71
     3
 72
    20
 73
    16
 74
    14
 42
0.0000000001
 43
0.0000000001
 44
0.0000000001
 12
0.00083159453107
 22
0.9999996542252082
 32
0.0
 13
0.9999999999981765
 23
-0.0000019097452786
 33
0.0
 40
0.0
 40
0.0
 40
0.0
 40
0.0
 40
13.75105412739023
 40
25.99307784367608
 40
37.09622055081349
 40
47.87827569972906
 40
59.20649382422277
 40
71.79435601858202
 40
85.70769496935513
 40
101.3627238088333
 40
118.564361271016
 40
135.8306775187653
 40
152.160330177049
 40
166.8967637993713
 40
179.356170618577
 40
179.356170618577
 40
179.356170618577
 40
179.356170618577
 10
41903.58040154834
 20
10206.04673208842
 30
0.0
 10
41903.58421331548
 20
10210.63041521263
 30
0.0
 10
41904.19377192444
 20
10219.31684721004
 30
0.0
 10
41907.17964792144
 20
10231.38456572493
 30
0.0
 10
41911.9583701409
 20
10241.78414928489
 30
0.0
 10
41918.46721490463
 20
10250.82372836459
 30
0.0
 10
41926.94740379867
 20
10258.78995659422
 30
0.0
 10
41937.6235073397
 20
10265.62258624853
 30
0.0
 10
41950.57628978139
 20
10271.20090410675
 30
0.0
 10
41965.62333123092
 20
10275.41628654851
 30
0.0
 10
41982.1110241462
 20
10278.24873895321
 30
0.0
 10
41998.97321510313
 20
10279.8932622416
 30
0.0
 10
42015.06801978591
 20
10280.68925254441
 30
0.0
 10
42029.57467127051
 20
10280.98146495644
 30
0.0
 10
42038.64005997626
 20
10281.01811963686
 30
0.0
 10
42042.79319558265
 20
10281.01811170543
 30
0.0
 11
41903.58040154834
 21
10206.04673208842
 31
0.0
 11
41904.64410239216
 21
10219.75658366053
 31
0.0
 11
41907.65351939374
 21
10231.62294594982
 31
0.0
 11
41912.31846272565
 21
10241.69856412863
 31
0.0
 11
41918.61481408873
 21
10250.45120217363
 31
0.0
 11
41926.84247117336
 21
10258.23799771313
 31
0.0
 11
41937.39915111433
 21
10265.09443871762
 31
0.0
 11
41950.13586127545
 21
10270.69419005412
 31
0.0
 11
41965.17960869133
 21
10275.02611706782
 31
0.0
 11
41982.11553475634
 21
10278.03788394142
 31
0.0
 11
41999.29349081215
 21
10279.78244764393
 31
0.0
 11
42015.60104224265
 21
10280.63175458592
 31
0.0
 11
42030.33395419955
 21
10280.95390544413
 31
0.0
 11
42042.79319558265
 21
10281.01811170543
 31
0.0
  0
SPLINE
  5
59D2
330
200
100
AcDbEntity
  8
11111外轮廓线
 62
     7
370
     9
100
AcDbSpline
210
0.0
220
0.0
230
1.0
 70
     8
 71
     3
 72
    10
 73
     6
 74
     4
 42
0.0000000001
 43
0.0000000001
 44
0.0000000001
 12
-0.0000617486923095
 22
0.9999999980935495
 32
0.0
 13
0.000874873497422
 23
0.9999996172981086
 33
0.0
 40
0.0
 40
0.0
 40
0.0
 40
0.0
 40
41.10012362563103
 40
83.43590221044383
 40
127.0073860134825
 40
127.0073860134825
 40
127.0073860134825
 40
127.0073860134825
 10
41903.55415803214
 20
10079.03935314952
 30
0.0
 10
41903.55331207252
 20
10092.73939433195
 30
0.0
 10
41903.55035844409
 20
10120.55136160237
 30
0.0
 10
41903.5530941886
 20
10162.88715720674
 30
0.0
 10
41903.5676950362
 20
10191.52290971237
 30
0.0
 10
41903.58040154834
 20
10206.04673208842
 30
0.0
 11
41903.55415803214
 21
10079.03935314952
 31
0.0
 11
41903.55155497796
 21
10120.13947669272
 31
0.0
 11
41903.55616412935
 21
10162.47525502663
 31
0.0
 11
41903.58040154834
 21
10206.04673208842
 31
0.0
  0
SPLINE
  5
59D3
330
200
100
AcDbEntity
  8
11111外轮廓线
 62
     7
370
     9
100
AcDbSpline
210
0.0
220
0.0
230
1.0
 70
     8
 71
     3
 72
    42
 73
    38
 74
    36
 42
0.0000000001
 43
0.0000000001
 44
0.0000000001
 12
-0.0000682869999053
 22
-0.9999999976684428
 32
0.0
 13
-0.0000679781305179
 23
0.9999999976894869
 33
0.0
 40
0.0
 40
0.0
 40
0.0
 40
0.0
 40
10.24381738532975
 40
21.01887764772385
 40
32.19375589262098
 40
43.64938436891195
 40
55.26653553571662
 40
66.92944366415229
 40
78.56046745753089
 40
90.16548033647829
 40
101.7774095169242
 40
113.4439895805382
 40
125.0871550689304
 40
136.5151575194032
 40
148.0576268862365
 40
160.5683224283704
 40
174.8914814520695
 40
191.5194021717981
 40
209.6826979565524
 40
228.3214388517949
 40
246.3892154863891
 40
262.8395199988982
 40
276.971535235075
 40
289.356137329046
 40
300.8508720018405
 40
312.2878175218229
 40
323.9465356357247
 40
335.6121539178758
 40
347.2214727509489
 40
358.8259723577223
 40
370.4559946174247
 40
382.1153278171824
 40
393.7201227157991
 40
405.1532417936441
 40
416.2958286411701
 40
427.0289537143997
 40
437.2246187631625
 40
437.2246187631625
 40
437.2246187631625
 40
437.2246187631625
 10
42182.03223313315
 20
10079.03935314952
 30
0.0
 10
42182.03199995996
 20
10075.62474736237
 30
0.0
 10
42181.77358174875
 20
10068.61580508812
 30
0.0
 10
42180.56890516653
 20
10057.94203168884
 30
0.0
 10
42178.45009610558
 20
10046.99795198688
 30
0.0
 10
42175.37362516883
 20
10035.99104813051
 30
0.0
 10
42171.33955637045
 20
10025.1235914229
 30
0.0
 10
42166.38679204375
 20
10014.57806781202
 30
0.0
 10
42160.57195172385
 20
10004.48701989566
 30
0.0
 10
42153.94571403375
 20
9994.929971845458
 30
0.0
 10
42146.53877729074
 20
9985.949000197756
 30
0.0
 10
42138.39858485429
 20
9977.608875806204
 30
0.0
 10
42129.63578571741
 20
9970.018996872303
 30
0.0
 10
42120.30866915299
 20
9963.205315857541
 30
0.0
 10
42110.20451430809
 20
9957.032472607208
 30
0.0
 10
42098.73823865068
 20
9951.322709976711
 30
0.0
 10
42085.18481679234
 20
9946.13387943896
 30
0.0
 10
42069.30249904923
 20
9942.003271001377
 30
0.0
 10
42051.59102277436
 20
9939.697947331435
 30
0.0
 10
42033.2461347027
 20
9939.749362170584
 30
0.0
 10
42015.63803859005
 20
9942.135515961432
 30
0.0
 10
41999.92432086235
 20
9946.294143146515
 30
0.0
 10
41986.54106331597
 20
9951.463195285532
 30
0.0
 10
41975.19440911426
 20
9957.139075855749
 30
0.0
 10
41965.14460819144
 20
9963.295117884433
 30
0.0
 10
41955.83087622512
 20
9970.11400793146
 30
0.0
 10
41947.07074906498
 20
9977.719015571976
 30
0.0
 10
41938.93769439333
 20
9986.071674945645
 30
0.0
 10
41931.54219661823
 20
9995.060295253786
 30
0.0
 10
41924.92788143591
 20
10004.62392382852
 30
0.0
 10
41919.12559441017
 20
10014.72023332721
 30
0.0
 10
41914.187289034
 20
10025.26628795209
 30
0.0
 10
41910.16948492391
 20
10036.12606066862
 30
0.0
 10
41907.10961801838
 20
10047.11427760161
 30
0.0
 10
41905.00528744509
 20
10058.02820607818
 30
0.0
 10
41903.81049147894
 20
10068.66192239674
 30
0.0
 10
41903.55438905956
 20
10075.64079814112
 30
0.0
 10
41903.55415803214
 20
10079.03935314952
 30
0.0
 11
42182.03223313315
 21
10079.03935314952
 31
0.0
 11
42181.65467775365
 21
10068.80249588963
 31
0.0
 11
42180.44630351755
 21
10058.09540686583
 31
0.0
 11
42178.32220663745
 21
10047.12425759912
 31
0.0
 11
42175.23851352956
 21
10036.09147641743
 31
0.0
 11
42171.19569894564
 21
10025.20047777302
 31
0.0
 11
42166.23773441265
 21
10014.64386781992
 31
0.0
 11
42160.43063918984
 21
10004.56625106022
 31
0.0
 11
42153.81833104275
 21
9995.029285877926
 31
0.0
 11
42146.43010268145
 21
9986.070994691935
 31
0.0
 11
42138.28126489654
 21
9977.722010733629
 31
0.0
 11
42129.48039861495
 21
9970.099146751927
 31
0.0
 11
42120.25245978275
 21
9963.357901695026
 31
0.0
 11
42110.40264079086
 21
9957.340454984725
 31
0.0
 11
42099.20358849065
 21
9951.763831407225
 31
0.0
 11
42085.82714420315
 21
9946.642930837825
 31
0.0
 11
42069.73450523346
 21
9942.457871883336
 31
0.0
 11
42051.72312278135
 21
9940.113641534527
 31
0.0
 11
42033.08445506965
 21
9940.165872683536
 31
0.0
 11
42015.18030916685
 21
9942.592003761827
 31
0.0
 11
41999.27743094534
 21
9946.800445614327
 31
0.0
 11
41986.09447657105
 21
9951.891964896528
 31
0.0
 11
41975.01832347845
 21
9957.432470441636
 31
0.0
 11
41965.21636538105
 21
9963.436680852225
 31
0.0
 11
41955.98828411615
 21
9970.192880893335
 31
0.0
 11
41947.18434281245
 21
9977.835938238435
 31
0.0
 11
41939.04610939406
 21
9986.193916865627
 31
0.0
 11
41931.67008196554
 21
9995.158876605728
 31
0.0
 11
41925.06918134125
 21
10004.70311686212
 31
0.0
 11
41919.27427540374
 21
10014.78659259902
 31
0.0
 11
41914.32989853025
 21
10025.34562607732
 31
0.0
 11
41910.30320089295
 21
10036.22942002873
 31
0.0
 11
41907.23614720583
 21
10047.24347439252
 31
0.0
 11
41905.12654184384
 21
10058.18453498422
 31
0.0
 11
41903.92817418425
 21
10068.85055058472
 31
0.0
 11
41903.55415803214
 21
10079.03935314952
 31
0.0
  0
SPLINE
  5
59D4
330
200
100
AcDbEntity
  8
11111外轮廓线
 62
     7
370
     9
100
AcDbSpline
210
0.0
220
0.0
230
1.0
 70
     8
 71
     3
 72
     9
 73
     5
 74
     3
 42
0.0000000001
 43
0.0000000001
 44
0.0000000001
 12
0.0021365050947291
 22
-0.9999977176703856
 32
0.0
 13
0.0011812760819073
 23
-0.9999993022931658
 33
0.0
 40
0.0
 40
0.0
 40
0.0
 40
0.0
 40
11.53577788534042
 40
22.67105218673241
 40
22.67105218673241
 40
22.67105218673241
 40
22.67105218673241
 10
41996.51649677525
 20
10191.81918068212
 30
0.0
 10
41996.52471219132
 20
10187.97393016316
 30
0.0
 10
41996.53967269328
 20
10180.41692729386
 30
0.0
 10
41996.55053005579
 20
10172.85991726378
 30
0.0
 10
41996.55491466685
 20
10169.14816175303
 30
0.0
 11
41996.51649677525
 21
10191.81918068212
 31
0.0
 11
41996.53887463565
 21
10180.28342450183
 31
0.0
 11
41996.55491466685
 21
10169.14816175303
 31
0.0
  0
SPLINE
  5
59D5
330
200
100
AcDbEntity
  8
11111外轮廓线
 62
     7
370
     9
100
AcDbSpline
210
0.0
220
0.0
230
1.0
 70
     8
 71
     3
 72
    20
 73
    16
 74
    14
 42
0.0000000001
 43
0.0000000001
 44
0.0000000001
 12
0.0097913575380613
 22
-0.9999520635098274
 32
0.0
 13
0.0021373873672906
 23
-0.9999977157850123
 33
0.0
 40
0.0
 40
0.0
 40
0.0
 40
0.0
 40
1.428208144222161
 40
3.003612884566752
 40
4.712569873685772
 40
6.558775268115596
 40
8.559597438359915
 40
10.72941328457853
 40
13.08574280315095
 40
15.64305732650279
 40
18.41196051056439
 40
21.41962700032747
 40
24.68849709577453
 40
28.23407891235286
 40
32.08844973531361
 40
32.08844973531361
 40
32.08844973531361
 40
32.08844973531361
 10
41996.33924727653
 20
10223.90706056382
 30
0.0
 10
41996.34390864207
 20
10223.43101400351
 30
0.0
 10
41996.35359852572
 20
10222.42985657336
 30
0.0
 10
41996.36800372641
 20
10220.85906592041
 30
0.0
 10
41996.38276551112
 20
10219.14894051138
 30
0.0
 10
41996.39777791345
 20
10217.29700641518
 30
0.0
 10
41996.41288987955
 20
10215.29144876528
 30
0.0
 10
41996.42800159454
 20
10213.11584527038
 30
0.0
 10
41996.44292443691
 20
10210.75473896882
 30
0.0
 10
41996.45743893008
 20
10208.19393084527
 30
0.0
 10
41996.4713901994
 20
10205.41600428805
 30
0.0
 10
41996.48458834768
 20
10202.40088637312
 30
0.0
 10
41996.49678113696
 20
10199.1268693741
 30
0.0
 10
41996.50772505084
 20
10195.57061173794
 30
0.0
 10
41996.51375068075
 20
10193.10396802171
 30
0.0
 10
41996.51649677525
 20
10191.81918068212
 30
0.0
 11
41996.33924727653
 21
10223.90706056382
 31
0.0
 11
41996.35300867515
 21
10222.47891871963
 31
0.0
 11
41996.36745981695
 21
10220.90358026063
 31
0.0
 11
41996.38222669245
 21
10219.19468707203
 31
0.0
 11
41996.39719142854
 21
10217.34854232822
 31
0.0
 11
41996.41227697455
 21
10215.34777702883
 31
0.0
 11
41996.42735282325
 21
10213.17801355663
 31
0.0
 11
41996.44225532236
 21
10210.82173116362
 31
0.0
 11
41996.45677489504
 21
10208.26445785923
 31
0.0
 11
41996.47070521534
 21
10205.49558971703
 31
0.0
 11
41996.48389341835
 21
10202.48795214163
 31
0.0
 11
41996.49609960075
 21
10199.21910483562
 31
0.0
 11
41996.50704899187
 21
10195.67353992592
 31
0.0
 11
41996.51649677525
 21
10191.81918068212
 31
0.0
  0
SPLINE
  5
59D6
330
200
100
AcDbEntity
  8
11111外轮廓线
 62
     7
370
     9
100
AcDbSpline
210
0.0
220
0.0
230
1.0
 70
     8
 71
     3
 72
    11
 73
     7
 74
     5
 42
0.0000000001
 43
0.0000000001
 44
0.0000000001
 12
0.0021309094210404
 22
0.9999977296099423
 32
0.0
 13
0.009902624795335
 23
0.9999509678090035
 33
0.0
 40
0.0
 40
0.0
 40
0.0
 40
0.0
 40
9.382980875842722
 40
17.81921741516917
 40
25.36444166113137
 40
32.0872180323089
 40
32.0872180323089
 40
32.0872180323089
 40
32.0872180323089
 10
42089.06989349085
 20
10191.82027736382
 30
0.0
 10
42089.07655825163
 20
10194.94793055476
 30
0.0
 10
42089.09364307416
 20
10200.88764818118
 30
0.0
 10
42089.13276685986
 20
10209.34237670237
 30
0.0
 10
42089.18328933303
 20
10216.91029227869
 30
0.0
 10
42089.22487761386
 20
10221.66611485505
 30
0.0
 10
42089.24706865785
 20
10223.90693043462
 30
0.0
 11
42089.06989349085
 21
10191.82027736382
 31
0.0
 11
42089.09743461534
 21
10201.20321781993
 31
0.0
 11
42089.13718182634
 21
10209.63936072452
 31
0.0
 11
42089.18787083596
 21
10217.18441470353
 31
0.0
 11
42089.24706865785
 21
10223.90693043462
 31
0.0
  0
SPLINE
  5
59D7
330
200
100
AcDbEntity
  8
11111外轮廓线
 62
     7
370
     9
100
AcDbSpline
210
0.0
220
0.0
230
1.0
 70
     8
 71
     3
 72
     9
 73
     5
 74
     3
 42
0.0000000001
 43
0.0000000001
 44
0.0000000001
 12
0.0011815518835142
 22
0.9999993019673297
 32
0.0
 13
0.002135688166744
 23
0.9999977194154269
 33
0.0
 40
0.0
 40
0.0
 40
0.0
 40
0.0
 40
11.2020347679324
 40
22.67215614805381
 40
22.67215614805381
 40
22.67215614805381
 40
22.67215614805381
 10
42089.03148286565
 20
10169.14815445713
 30
0.0
 10
42089.03589479408
 20
10172.88216343998
 30
0.0
 10
42089.04676575881
 20
10180.43954144216
 30
0.0
 10
42089.06172795668
 20
10187.99691228998
 30
0.0
 10
42089.06989349085
 20
10191.82027736382
 30
0.0
 11
42089.03148286565
 21
10169.14815445713
 31
0.0
 11
42089.04763597815
 21
10180.35017757882
 31
0.0
 11
42089.06989349085
 21
10191.82027736382
 31
0.0
  0
SPLINE
  5
59D8
330
200
100
AcDbEntity
  8
11111外轮廓线
 62
     7
370
     9
100
AcDbSpline
210
0.0
220
0.0
230
1.0
 70
     8
 71
     3
 72
    14
 73
    10
 74
     8
 42
0.0000000001
 43
0.0000000001
 44
0.0000000001
 12
0.3559229494699773
 22
0.9345153043372762
 32
0.0
 13
0.0254397520911408
 23
0.9996763571344185
 33
0.0
 40
0.0
 40
0.0
 40
0.0
 40
0.0
 40
2.221227198587581
 40
4.444177805614408
 40
6.665414244351271
 40
8.885228675099053
 40
11.10483259269232
 40
13.32535263219678
 40
15.54765829017312
 40
15.54765829017312
 40
15.54765829017312
 40
15.54765829017312
 10
42086.02387860016
 20
10152.92437383833
 30
0.0
 10
42086.2874071788
 20
10153.61629744216
 30
0.0
 10
42086.78130839841
 20
10155.01365467013
 30
0.0
 10
42087.41980673213
 20
10157.14259909896
 30
0.0
 10
42087.95448623443
 20
10159.29952882013
 30
0.0
 10
42088.3840423798
 20
10161.47867232753
 30
0.0
 10
42088.70775653252
 20
10163.67580935898
 30
0.0
 10
42088.92500981636
 20
10165.8867934719
 30
0.0
 10
42088.99847559621
 20
10167.36659541252
 30
0.0
 10
42089.01732056454
 20
10168.10712422072
 30
0.0
 11
42086.02387860016
 21
10152.92437383833
 31
0.0
 11
42086.76408477985
 21
10155.01863864472
 31
0.0
 11
42087.40267110624
 21
10157.14789130822
 31
0.0
 11
42087.93711090885
 21
10159.30387493853
 31
0.0
 11
42088.36642379905
 21
10161.48177910292
 31
0.0
 11
42088.68996165294
 21
10163.67767637012
 31
0.0
 11
42088.90711366994
 21
10165.88755289322
 31
0.0
 11
42089.01732056454
 21
10168.10712422072
 31
0.0
  0
SPLINE
  5
59D9
330
200
100
AcDbEntity
  8
11111外轮廓线
 62
     7
370
     9
100
AcDbSpline
210
0.0
220
0.0
230
1.0
 70
     8
 71
     3
 72
    50
 73
    46
 74
    44
 42
0.0000000001
 43
0.0000000001
 44
0.0000000001
 12
0.3559035485227146
 22
-0.9345226932230911
 32
0.0
 13
0.3559261298641631
 23
0.9345140930344063
 33
0.0
 40
0.0
 40
0.0
 40
0.0
 40
0.0
 40
2.556104459908297
 40
5.120051145267145
 40
7.690481306807516
 40
10.26603632474482
 40
12.84741745109642
 40
15.4334712356527
 40
18.02119349785826
 40
20.61329194512739
 40
23.21016935298511
 40
25.81012091859704
 40
28.41329246660735
 40
31.0183290684744
 40
33.62502185537219
 40
36.23499999376136
 40
38.84681090912656
 40
41.45924774868093
 40
44.07283487114061
 40
46.68848685025912
 40
49.30486216144085
 40
51.92095842376229
 40
54.53836706621129
 40
57.15827519277686
 40
59.77595684498686
 40
62.39363793642342
 40
65.01104800992196
 40
67.62684680980267
 40
70.2427738768095
 40
72.85674680540584
 40
75.46850190830757
 40
78.07858423524715
 40
80.68458323085309
 40
83.28876753052961
 40
85.89168626181075
 40
88.49220337346215
 40
91.08903074060206
 40
93.68115536640353
 40
96.26742090348114
 40
98.85076281582414
 40
101.4315704649446
 40
104.007352641431
 40
106.5776016497039
 40
109.1414994807762
 40
111.6976292439966
 40
111.6976292439966
 40
111.6976292439966
 40
111.6976292439966
 10
41999.56236596745
 20
10152.92540609032
 30
0.0
 10
41999.86560818333
 20
10152.12916021565
 30
0.0
 10
42000.51701765413
 20
10150.55058176302
 30
0.0
 10
42001.62449232925
 20
10148.23728047009
 30
0.0
 10
42002.86133199127
 20
10145.98298237026
 30
0.0
 10
42004.22433762553
 20
10143.7958135937
 30
0.0
 10
42005.70982984503
 20
10141.68352718972
 30
0.0
 10
42007.31323343383
 20
10139.65411006082
 30
0.0
 10
42009.02977073551
 20
10137.71466318903
 30
0.0
 10
42010.85459831427
 20
10135.87164882949
 30
0.0
 10
42012.78285284098
 20
10134.13103507938
 30
0.0
 10
42014.80864597728
 20
10132.49907822039
 30
0.0
 10
42016.92517835489
 20
10130.98197708291
 30
0.0
 10
42019.12561838641
 20
10129.58516039504
 30
0.0
 10
42021.40322986102
 20
10128.31340086996
 30
0.0
 10
42023.7509789821
 20
10127.17113302422
 30
0.0
 10
42026.16125174184
 20
10126.1625169826
 30
0.0
 10
42028.62579534174
 20
10125.2912880467
 30
0.0
 10
42031.13686855188
 20
10124.5603763635
 30
0.0
 10
42033.6865446016
 20
10123.97236231174
 30
0.0
 10
42036.26624043794
 20
10123.5294589718
 30
0.0
 10
42038.86745453154
 20
10123.23323717117
 30
0.0
 10
42041.48244802076
 20
10123.08474450556
 30
0.0
 10
42044.10218587563
 20
10123.08468522932
 30
0.0
 10
42046.71780443051
 20
10123.23310280999
 30
0.0
 10
42049.31998540506
 20
10123.52937649255
 30
0.0
 10
42051.90058895697
 20
10123.97245225826
 30
0.0
 10
42054.45139807056
 20
10124.56077892827
 30
0.0
 10
42056.96372860592
 20
10125.29218154524
 30
0.0
 10
42059.42939833764
 20
10126.16405255281
 30
0.0
 10
42061.84005359026
 20
10127.17312286276
 30
0.0
 10
42064.18749014139
 20
10128.31554163601
 30
0.0
 10
42066.46455647168
 20
10129.58728939024
 30
0.0
 10
42068.66437594129
 20
10130.98396245542
 30
0.0
 10
42070.78065682707
 20
10132.50110502517
 30
0.0
 10
42072.80640043681
 20
10134.13326415802
 30
0.0
 10
42074.73465304761
 20
10135.87414938255
 30
0.0
 10
42076.55899010856
 20
10137.71695473713
 30
0.0
 10
42078.27449004481
 20
10139.65547281889
 30
0.0
 10
42079.87687661559
 20
10141.68367399557
 30
0.0
 10
42081.36182038854
 20
10143.7950986576
 30
0.0
 10
42082.7247813577
 20
10145.98208833224
 30
0.0
 10
42083.96166892072
 20
10148.23635879038
 30
0.0
 10
42085.06916973154
 20
10150.54957185664
 30
0.0
 10
42085.72061414214
 20
10152.12812740922
 30
0.0
 10
42086.02387860016
 20
10152.92437383833
 30
0.0
 11
41999.56236596745
 21
10152.92540609032
 31
0.0
 11
42000.53743119364
 21
10150.56258620413
 31
0.0
 11
42001.64457659664
 21
10148.25000071122
 31
0.0
 11
42002.88100816194
 21
10145.99648164103
 31
0.0
 11
42004.24320053815
 21
10143.81063727772
 31
0.0
 11
42005.72815149254
 21
10141.69913326812
 31
0.0
 11
42007.33135046635
 21
10139.66998881123
 31
0.0
 11
42009.04640749044
 21
10137.73223601212
 31
0.0
 11
42010.87019387505
 21
10135.89028661443
 31
0.0
 11
42012.79786303263
 21
10134.15021078552
 31
0.0
 11
42014.82255487884
 21
10132.51914638722
 31
0.0
 11
42016.93833853215
 21
10131.00258394512
 31
0.0
 11
42019.13767997806
 21
10129.60647760913
 31
0.0
 11
42021.41361469134
 21
10128.33566351332
 31
0.0
 11
42023.76055373055
 21
10127.19379529453
 31
0.0
 11
42026.16991547754
 21
10126.18556306442
 31
0.0
 11
42028.63298141435
 21
10125.31485505852
 31
0.0
 11
42031.14242464407
 21
10124.58442208863
 31
0.0
 11
42033.69117552935
 21
10123.99662603502
 31
0.0
 11
42036.26982215235
 21
10123.55390562363
 31
0.0
 11
42038.86911920495
 21
10123.25790818093
 31
0.0
 11
42041.48231791565
 21
10123.10951512192
 31
0.0
 11
42044.10222604154
 21
10123.10945591082
 31
0.0
 11
42046.71570357954
 21
10123.25775422752
 31
0.0
 11
42049.31658182386
 21
10123.55387355263
 31
0.0
 11
42051.89624551843
 21
10123.99678518683
 31
0.0
 11
42054.44512826234
 21
10124.58466282652
 31
0.0
 11
42056.95678463102
 21
10125.31586505953
 31
0.0
 11
42059.42122223635
 21
10126.18730166703
 31
0.0
 11
42061.83042776195
 21
10127.19576259982
 31
0.0
 11
42064.17734130345
 21
10128.33792133753
 31
0.0
 11
42066.45254581855
 21
10129.60862003493
 31
0.0
 11
42068.65105445605
 21
10131.00444797473
 31
0.0
 11
42070.76652771505
 21
10132.52100948422
 31
0.0
 11
42072.79154167993
 21
10134.15257550803
 31
0.0
 11
42074.71903788075
 21
10135.89276824752
 31
0.0
 11
42076.54269950525
 21
10137.73487800402
 31
0.0
 11
42078.25667050395
 21
10139.67164666442
 31
0.0
 11
42079.85815351085
 21
10141.69869072282
 31
0.0
 11
42081.34281313464
 21
10143.80969852082
 31
0.0
 11
42082.70517381114
 21
10145.99570565893
 31
0.0
 11
42083.94156673544
 21
10148.24903930072
 31
0.0
 11
42085.04874651895
 21
10150.56155416882
 31
0.0
 11
42086.02387860016
 21
10152.92437383833
 31
0.0
  0
SPLINE
  5
59DA
330
200
100
AcDbEntity
  8
11111外轮廓线
 62
     7
370
     9
100
AcDbSpline
210
0.0
220
0.0
230
1.0
 70
     8
 71
     3
 72
    13
 73
     9
 74
     7
 42
0.0000000001
 43
0.0000000001
 44
0.0000000001
 12
0.0254447671718047
 22
-0.9996762294981174
 32
0.0
 13
0.3559018891444794
 23
-0.9345233251788799
 33
0.0
 40
0.0
 40
0.0
 40
0.0
 40
0.0
 40
2.591279695822153
 40
5.180595154512853
 40
7.769085952216997
 40
10.3584832437921
 40
12.95041766406982
 40
15.54594249697875
 40
15.54594249697875
 40
15.54594249697875
 40
15.54594249697875
 10
41996.56931708704
 20
10168.10705921992
 30
0.0
 10
41996.59129525656
 20
10167.24357898129
 30
0.0
 10
41996.6838960013
 20
10165.51811509444
 30
0.0
 10
41996.96832654478
 20
10162.9427726064
 30
0.0
 10
41997.39731812156
 20
10160.38808837787
 30
0.0
 10
41997.96981293289
 20
10157.86079189483
 30
0.0
 10
41998.68453277122
 20
10155.36761798089
 30
0.0
 10
41999.25444857032
 20
10153.73393225613
 30
0.0
 10
41999.56236596745
 20
10152.92540609032
 30
0.0
 11
41996.56931708704
 21
10168.10705921992
 31
0.0
 11
41996.70821544454
 21
10165.51950483242
 31
0.0
 11
41996.99246787244
 21
10162.94583913893
 31
0.0
 11
41997.42114359485
 21
10160.39309125972
 31
0.0
 11
41997.99320591766
 21
10157.86767584192
 31
0.0
 11
41998.70746318524
 21
10155.37609790923
 31
0.0
 11
41999.56236596745
 21
10152.92540609032
 31
0.0
  0
SPLINE
  5
59DB
330
200
100
AcDbEntity
  8
11111外轮廓线
 62
     7
370
     9
100
AcDbSpline
210
0.0
220
0.0
230
1.0
 70
     8
 71
     3
 72
     9
 73
     5
 74
     3
 42
0.0000000001
 43
0.0000000001
 44
0.0000000001
 12
0.001760271893319
 22
-0.9999984507202306
 32
0.0
 13
0.0254426277835171
 23
-0.9996762839496941
 33
0.0
 40
0.0
 40
0.0
 40
0.0
 40
0.0
 40
0.519954560429894
 40
1.041218011176604
 40
1.041218011176604
 40
1.041218011176604
 40
1.041218011176604
 10
41996.55514736716
 20
10169.14816258473
 30
0.0
 10
41996.55545245429
 20
10168.97484466644
 30
0.0
 10
41996.55812437357
 20
10168.62777317874
 30
0.0
 10
41996.5648963164
 20
10168.28075745639
 30
0.0
 10
41996.56931708704
 20
10168.10705921992
 30
0.0
 11
41996.55514736716
 21
10169.14816258473
 31
0.0
 11
41996.55914344525
 21
10168.62822338033
 31
0.0
 11
41996.56931708704
 21
10168.10705921992
 31
0.0
  0
SPLINE
  5
59DC
330
200
100
AcDbEntity
  8
11111外轮廓线
 62
     7
370
     9
100
AcDbSpline
210
0.0
220
0.0
230
1.0
 70
     8
 71
     3
 72
     9
 73
     5
 74
     3
 42
0.0000000001
 43
0.0000000001
 44
0.0000000001
 12
0.0254407983548159
 22
0.999676330508565
 32
0.0
 13
0.0017602019005599
 23
0.9999984508434348
 33
0.0
 40
0.0
 40
0.0
 40
0.0
 40
0.0
 40
0.5212466948019977
 40
1.041145506940254
 40
1.041145506940254
 40
1.041145506940254
 40
1.041145506940254
 10
42089.01732056454
 20
10168.10712422072
 30
0.0
 10
42089.02174087523
 20
10168.28081688177
 30
0.0
 10
42089.02851464835
 20
10168.62780842718
 30
0.0
 10
42089.03117785586
 20
10168.97485581055
 30
0.0
 10
42089.03148289815
 20
10169.14815514612
 30
0.0
 11
42089.01732056454
 21
10168.10712422072
 31
0.0
 11
42089.02749311385
 21
10168.62827164332
 31
0.0
 11
42089.03148289815
 21
10169.14815514612
 31
0.0
  0
SPLINE
  5
59DD
330
200
100
AcDbEntity
  8
11111外轮廓线
 62
     7
370
     9
100
AcDbSpline
210
0.0
220
0.0
230
1.0
 70
     8
 71
     3
 72
    12
 73
     8
 74
     6
 42
0.0000000001
 43
0.0000000001
 44
0.0000000001
 12
-0.1689832792628503
 22
-0.985618917903656
 32
0.0
 13
-0.0093920023666985
 23
-0.9999558941731102
 33
0.0
 40
0.0
 40
0.0
 40
0.0
 40
0.0
 40
0.3328187330505179
 40
0.7383411639715016
 40
1.23170684982835
 40
1.824707236563483
 40
2.524744157341498
 40
2.524744157341498
 40
2.524744157341498
 40
2.524744157341498
 10
41996.52697994575
 20
10226.72174753253
 30
0.0
 10
41996.50823301211
 20
10226.61240338602
 30
0.0
 10
41996.46893775092
 20
10226.36940461146
 30
0.0
 10
41996.41900576493
 20
10225.96178719189
 30
0.0
 10
41996.37452462065
 20
10225.4663992233
 30
0.0
 10
41996.34136706724
 20
10224.87175254034
 30
0.0
 10
41996.33061406305
 20
10224.44079047778
 30
0.0
 10
41996.32842248025
 20
10224.20745512942
 30
0.0
 11
41996.52697994575
 21
10226.72174753253
 31
0.0
 11
41996.47470973225
 21
10226.39305902672
 31
0.0
 11
41996.42452866195
 21
10225.99065338292
 31
0.0
 11
41996.38001687516
 21
10225.49929974162
 31
0.0
 11
41996.34613996796
 21
10224.90726780513
 31
0.0
 11
41996.32842248025
 21
10224.20745512942
 31
0.0
  0
SPLINE
  5
59DE
330
200
100
AcDbEntity
  8
11111外轮廓线
 62
     7
370
     9
100
AcDbSpline
210
0.0
220
0.0
230
1.0
 70
     8
 71
     3
 72
    34
 73
    30
 74
    28
 42
0.0000000001
 43
0.0000000001
 44
0.0000000001
 12
-0.999877760299546
 22
-0.0156353592336056
 32
0.0
 13
-0.1741269512019614
 23
-0.9847232123115153
 33
0.0
 40
0.0
 40
0.0
 40
0.0
 40
0.0
 40
3.278111884914217
 40
6.626900772042509
 40
9.901770646489623
 40
13.15211771252901
 40
16.45990361644265
 40
19.90637361327983
 40
23.55729740994576
 40
27.14446229793386
 40
30.2357332270995
 40
32.92784948378383
 40
35.26368555807089
 40
37.28492878649762
 40
39.03377226336362
 40
40.5427744374388
 40
41.82568271319969
 40
42.90960156021058
 40
43.8392563559429
 40
44.64574496086845
 40
45.34857437147146
 40
45.99824629177389
 40
46.62333606565002
 40
47.27112687898809
 40
47.98227240096537
 40
48.779965861503
 40
49.67346850502032
 40
50.59949463069052
 40
51.51534028520792
 40
51.51534028520792
 40
51.51534028520792
 40
51.51534028520792
 10
42042.82895525065
 20
10241.35115567122
 30
0.0
 10
42041.73638486082
 20
10241.33407085225
 30
0.0
 10
42039.52800275025
 20
10241.27281512326
 30
0.0
 10
42036.23159184357
 20
10241.10216522323
 30
0.0
 10
42032.94797942965
 20
10240.87521870295
 30
0.0
 10
42029.68144437803
 20
10240.60376015702
 30
0.0
 10
42026.36287283239
 20
10240.2731405146
 30
0.0
 10
42022.91641921918
 20
10239.8828701662
 30
0.0
 10
42019.38340247417
 20
10239.43173331234
 30
0.0
 10
42015.97866468228
 20
10238.91578303208
 30
0.0
 10
42012.90793285496
 20
10238.33906069287
 30
0.0
 10
42010.27206423835
 20
10237.72158000566
 30
0.0
 10
42008.00850999201
 20
10237.08757674243
 30
0.0
 10
42006.08082179024
 20
10236.43105722085
 30
0.0
 10
42004.45036721544
 20
10235.76601051295
 30
0.0
 10
42003.08895495349
 20
10235.10203067017
 30
0.0
 10
42001.96739540016
 20
10234.45856558697
 30
0.0
 10
42001.05687822627
 20
10233.84162898933
 30
0.0
 10
42000.31843071079
 20
10233.25866776923
 30
0.0
 10
41999.71615848924
 20
10232.71175889872
 30
0.0
 10
41999.21213289404
 20
10232.19756344423
 30
0.0
 10
41998.77767132077
 20
10231.70132620238
 30
0.0
 10
41998.38418774818
 20
10231.19500967045
 30
0.0
 10
41998.01152213295
 20
10230.64815200031
 30
0.0
 10
41997.64494229939
 20
10230.02913486242
 30
0.0
 10
41997.28840013932
 20
10229.31117652758
 30
0.0
 10
41996.96718944267
 20
10228.49878846792
 30
0.0
 10
41996.70781684233
 20
10227.62354393601
 30
0.0
 10
41996.58013774961
 20
10227.02236569083
 30
0.0
 10
41996.52697994575
 20
10226.72174753253
 30
0.0
 11
42042.82895525065
 21
10241.35115567122
 31
0.0
 11
42039.55209684186
 21
10241.26051076672
 31
0.0
 11
42036.20759298915
 21
10241.09115613943
 31
0.0
 11
42032.94039963335
 21
10240.86705734343
 31
0.0
 11
42029.70132577785
 21
10240.59658256022
 31
0.0
 11
42026.40965199565
 21
10240.27049775883
 31
0.0
 11
42022.98507515515
 21
10239.88264610852
 31
0.0
 11
42019.36424982164
 21
10239.41481229903
 31
0.0
 11
42015.81890354066
 21
10238.86866975222
 31
0.0
 11
42012.78217724746
 21
10238.29052670962
 31
0.0
 11
42010.16149824564
 21
10237.67446542292
 31
0.0
 11
42007.91425408463
 21
10237.03726541762
 31
0.0
 11
42006.00225292713
 21
10236.38176884083
 31
0.0
 11
42004.38476990864
 21
10235.71678599032
 31
0.0
 11
42003.02968868615
 21
10235.05282632152
 31
0.0
 11
42001.91896733345
 21
10234.41083588492
 31
0.0
 11
42001.02264425156
 21
10233.80134019193
 31
0.0
 11
42000.29360535714
 21
10233.22448637193
 31
0.0
 11
41999.69637134206
 21
10232.68251275532
 31
0.0
 11
41999.20474930453
 21
10232.18024096372
 31
0.0
 11
41998.77724560553
 21
10231.69104346642
 31
0.0
 11
41998.39400153185
 21
10231.19722041573
 31
0.0
 11
41998.02893575185
 21
10230.66209434262
 31
0.0
 11
41997.66688119746
 21
10230.05001227862
 31
0.0
 11
41997.31228354805
 21
10229.33546671393
 31
0.0
 11
41996.98342611956
 21
10228.50468409153
 31
0.0
 11
41996.71872421775
 21
10227.61729618953
 31
0.0
 11
41996.52697994575
 21
10226.72174753253
 31
0.0
  0
SPLINE
  5
59DF
330
200
100
AcDbEntity
  8
11111外轮廓线
 62
     7
370
     9
100
AcDbSpline
210
0.0
220
0.0
230
1.0
 70
     8
 71
     3
 72
    35
 73
    31
 74
    29
 42
0.0000000001
 43
0.0000000001
 44
0.0000000001
 12
-0.1511685832654914
 22
0.9885079966462104
 32
0.0
 13
-0.9998441664339216
 23
-0.0176534089641795
 33
0.0
 40
0.0
 40
0.0
 40
0.0
 40
0.0
 40
0.7970903896609408
 40
1.646732560589189
 40
2.548854507330132
 40
3.422022654390961
 40
4.207300874439581
 40
4.91748691629943
 40
5.59097214045923
 40
6.287603001745589
 40
7.011764965877776
 40
7.795502156837875
 40
8.688107891693283
 40
9.708323263893719
 40
10.87506828355494
 40
12.22768178732416
 40
13.78449628632356
 40
15.56175073242156
 40
17.57825587284129
 40
19.9053150849956
 40
22.56019974861253
 40
25.58274529920029
 40
29.10906054456504
 40
32.77732379960426
 40
36.18061155778607
 40
39.39469345177451
 40
42.53118438083038
 40
45.64405595362113
 40
48.7377525586131
 40
51.76628836130092
 40
51.76628836130092
 40
51.76628836130092
 40
51.76628836130092
 10
42089.08902192666
 20
10226.66090374902
 30
0.0
 10
42089.04885691834
 20
10226.9235471571
 30
0.0
 10
42088.95039286186
 20
10227.4639431199
 30
0.0
 10
42088.74323132759
 20
10228.28863955729
 30
0.0
 10
42088.4645728588
 20
10229.1191512656
 30
0.0
 10
42088.1246328297
 20
10229.90322410784
 30
0.0
 10
42087.75148165152
 20
10230.59991504486
 30
0.0
 10
42087.36431091594
 20
10231.21119051844
 30
0.0
 10
42086.95332519178
 20
10231.77034018844
 30
0.0
 10
42086.50371870896
 20
10232.30499004412
 30
0.0
 10
42085.99686911047
 20
10232.83762769236
 30
0.0
 10
42085.4124390273
 20
10233.38486774074
 30
0.0
 10
42084.71796455373
 20
10233.95651974253
 30
0.0
 10
42083.88338749121
 20
10234.55560633523
 30
0.0
 10
42082.87778812169
 20
10235.17450942504
 30
0.0
 10
42081.67559314571
 20
10235.80965189006
 30
0.0
 10
42080.24991352401
 20
10236.45073957175
 30
0.0
 10
42078.58189976419
 20
10237.08527244076
 30
0.0
 10
42076.63276727068
 20
10237.69202893848
 30
0.0
 10
42074.3731764084
 20
10238.27469886125
 30
0.0
 10
42071.76438635973
 20
10238.83792281296
 30
0.0
 10
42068.74115380426
 20
10239.36336286697
 30
0.0
 10
42065.37030042185
 20
10239.85170015623
 30
0.0
 10
42061.86359561517
 20
10240.28040702297
 30
0.0
 10
42058.45460819484
 20
10240.64736394669
 30
0.0
 10
42055.21566867015
 20
10240.93317225825
 30
0.0
 10
42052.06814367516
 20
10241.14545230266
 30
0.0
 10
42048.95711678254
 20
10241.29470426671
 30
0.0
 10
42045.87939902813
 20
10241.36931096808
 30
0.0
 10
42043.83830986904
 20
10241.36897699825
 30
0.0
 10
42042.82895525065
 20
10241.35115567122
 30
0.0
 11
42089.08902192666
 21
10226.66090374902
 31
0.0
 11
42088.94524651295
 21
10227.44492015172
 31
0.0
 11
42088.73724295565
 21
10228.26870795132
 31
0.0
 11
42088.44930469105
 21
10229.12364395043
 31
0.0
 11
42088.10157314415
 21
10229.92458426302
 31
0.0
 11
42087.73100570185
 21
10230.61692930243
 31
0.0
 11
42087.35081401544
 21
10231.21677802972
 31
0.0
 11
42086.95222932444
 21
10231.75965240862
 31
0.0
 11
42086.50442730105
 21
10232.29328889982
 31
0.0
 11
42086.00585436075
 21
10232.81848940772
 31
0.0
 11
42085.43378522174
 21
10233.35419537622
 31
0.0
 11
42084.74522125722
 21
10233.92219596132
 31
0.0
 11
42083.91686444215
 21
10234.51773302362
 31
0.0
 11
42082.92474163565
 21
10235.13172510642
 31
0.0
 11
42081.72999192835
 21
10235.76586738343
 31
0.0
 11
42080.31148486083
 21
10236.40735712123
 31
0.0
 11
42078.65090803426
 21
10237.04069586883
 31
0.0
 11
42076.72751654135
 21
10237.64638402813
 31
0.0
 11
42074.47571099515
 21
10238.23339029642
 31
0.0
 11
42071.88103140075
 21
10238.79557387812
 31
0.0
 11
42068.90461770414
 21
10239.32163766893
 31
0.0
 11
42065.41546279395
 21
10239.83222284532
 31
0.0
 11
42061.77488303096
 21
10240.28203869382
 31
0.0
 11
42058.39078703496
 21
10240.64295676603
 31
0.0
 11
42055.18903979174
 21
10240.92426978003
 31
0.0
 11
42052.05969117016
 21
10241.13581777132
 31
0.0
 11
42048.95028607405
 21
10241.28268293742
 31
0.0
 11
42045.85748517495
 21
10241.35712272712
 31
0.0
 11
42042.82895525065
 21
10241.35115567122
 31
0.0
  0
SPLINE
  5
59E0
330
200
100
AcDbEntity
  8
11111外轮廓线
 62
     7
370
     9
100
AcDbSpline
210
0.0
220
0.0
230
1.0
 70
     8
 71
     3
 72
    12
 73
     8
 74
     6
 42
0.0000000001
 43
0.0000000001
 44
0.0000000001
 12
-0.0097574420097176
 22
0.9999523950295969
 32
0.0
 13
-0.1500725889957806
 23
0.9886749809882434
 33
0.0
 40
0.0
 40
0.0
 40
0.0
 40
0.0
 40
0.6479178751178347
 40
1.214400120632544
 40
1.699034886855009
 40
2.112750068993256
 40
2.461016511980505
 40
2.461016511980505
 40
2.461016511980505
 40
2.461016511980505
 10
42089.25789309756
 20
10224.20759488863
 30
0.0
 10
42089.25578575719
 20
10224.42355723229
 30
0.0
 10
42089.24716738514
 20
10224.82831473817
 30
0.0
 10
42089.22060569662
 20
10225.39410300914
 30
0.0
 10
42089.18398906988
 20
10225.88107279005
 30
0.0
 10
42089.14076479873
 20
10226.29442051809
 30
0.0
 10
42089.10644367557
 20
10226.54612964273
 30
0.0
 10
42089.08902192666
 20
10226.66090374902
 30
0.0
 11
42089.25789309756
 21
10224.20759488863
 31
0.0
 11
42089.24363849906
 21
10224.85535593972
 31
0.0
 11
42089.21646742425
 21
10225.42118618562
 31
0.0
 11
42089.17968648895
 21
10225.90442320762
 31
0.0
 11
42089.13616641543
 21
10226.31584301163
 31
0.0
 11
42089.08902192666
 21
10226.66090374902
 31
0.0
  0
SPLINE
  5
59E1
330
200
100
AcDbEntity
  8
11111外轮廓线
 62
     7
370
     9
100
AcDbSpline
210
0.0
220
0.0
230
1.0
 70
     8
 71
     3
 72
     9
 73
     5
 74
     3
 42
0.0000000001
 43
0.0000000001
 44
0.0000000001
 12
0.0564733329883977
 22
0.998404107894785
 32
0.0
 13
0.0141789078667349
 23
0.9998994742331383
 33
0.0
 40
0.0
 40
0.0
 40
0.0
 40
0.0
 40
0.153526090208867
 40
0.3009181130377004
 40
0.3009181130377004
 40
0.3009181130377004
 40
0.3009181130377004
 10
42089.24704859176
 20
10223.90689252183
 30
0.0
 10
42089.2499386351
 20
10223.95798621488
 30
0.0
 10
42089.25461255505
 20
10224.05819095047
 30
0.0
 10
42089.25719937465
 20
10224.15847265655
 30
0.0
 10
42089.25789599395
 20
10224.20759839193
 30
0.0
 11
42089.24704859176
 21
10223.90689252183
 31
0.0
 11
42089.25416456645
 21
10224.06025360972
 31
0.0
 11
42089.25789599395
 21
10224.20759839193
 31
0.0
  0
SPLINE
  5
59E2
330
200
100
AcDbEntity
  8
11111外轮廓线
 62
     7
370
     9
100
AcDbSpline
210
0.0
220
0.0
230
1.0
 70
     8
 71
     3
 72
     9
 73
     5
 74
     3
 42
0.0000000001
 43
0.0000000001
 44
0.0000000001
 12
0.0151219919355585
 22
-0.9998856561426915
 32
0.0
 13
0.0566438438416656
 23
-0.998394448579739
 33
0.0
 40
0.0
 40
0.0
 40
0.0
 40
0.0
 40
0.1453149165190922
 40
0.3006137763023154
 40
0.3006137763023154
 40
0.3006137763023154
 40
0.3006137763023154
 10
41996.32841229294
 20
10224.20746292562
 30
0.0
 10
41996.3291447766
 20
10224.15903015874
 30
0.0
 10
41996.33164922164
 20
10224.05884903281
 30
0.0
 10
41996.33631418138
 20
10223.95874424618
 30
0.0
 10
41996.33924642284
 20
10223.90706107302
 30
0.0
 11
41996.32841229294
 21
10224.20746292562
 31
0.0
 11
41996.33207089145
 21
10224.06219407273
 31
0.0
 11
41996.33924642284
 21
10223.90706107302
 31
0.0
  0
SPLINE
  5
59E3
330
200
100
AcDbEntity
  8
11111外轮廓线
 62
     7
370
     9
100
AcDbSpline
210
0.0
220
0.0
230
1.0
 70
     8
 71
     3
 72
    20
 73
    16
 74
    14
 42
0.0000000001
 43
0.0000000001
 44
0.0000000001
 12
0.0007027461569816
 22
0.9999997530738889
 32
0.0
 13
0.9999999999997998
 23
-0.0000006329085784
 33
0.0
 40
0.0
 40
0.0
 40
0.0
 40
0.0
 40
12.50557545716194
 40
23.32993332232585
 40
32.95626747773522
 40
42.25116937536795
 40
52.11547738609578
 40
63.33292296905222
 40
76.08270481256666
 40
90.7987154588884
 40
107.2922961723202
 40
124.079109665785
 40
140.1051304198242
 40
154.6633324684769
 40
167.0318646838954
 40
167.0318646838954
 40
167.0318646838954
 40
167.0318646838954
 10
41911.45886002796
 20
10206.03891734943
 30
0.0
 10
41911.46178944299
 20
10210.2074414725
 30
0.0
 10
41911.9986532861
 20
10218.00466278853
 30
0.0
 10
41914.638218321
 20
10228.72885690645
 30
0.0
 10
41918.7960850966
 20
10237.79670740759
 30
0.0
 10
41924.43621458726
 20
10245.6321339173
 30
0.0
 10
41931.86408781425
 20
10252.60224006414
 30
0.0
 10
41941.41673761892
 20
10258.70511905374
 30
0.0
 10
41953.30542467261
 20
10263.81643249241
 30
0.0
 10
41967.44918239011
 20
10267.7745078602
 30
0.0
 10
41983.2373562515
 20
10270.48636420308
 30
0.0
 10
41999.60434937024
 20
10272.08449047123
 30
0.0
 10
42015.37892058328
 20
10272.86676033501
 30
0.0
 10
42029.69466445576
 20
10273.15640381645
 30
0.0
 10
42038.67035151085
 20
10273.19293350891
 30
0.0
 10
42042.79319558265
 20
10273.19293089953
 30
0.0
 11
41911.45886002796
 21
10206.03891734943
 31
0.0
 11
41912.41997784413
 21
10218.50750468153
 31
0.0
 11
41915.07613770475
 21
10229.00090918092
 31
0.0
 11
41919.11743201605
 21
10237.73785656322
 31
0.0
 11
41924.54375356275
 21
10245.28439456144
 31
0.0
 11
41931.70783510425
 21
10252.06528743753
 31
0.0
 11
41941.11519017713
 21
10258.17534111482
 31
0.0
 11
41952.78643157185
 21
10263.30750063723
 31
0.0
 11
41966.92720809495
 21
10267.38173782552
 31
0.0
 11
41983.16541769155
 21
10270.27288878103
 31
0.0
 11
41999.86595793157
 21
10271.97261315742
 31
0.0
 11
42015.87014109016
 21
10272.80895198552
 31
0.0
 11
42030.42482977955
 21
10273.12877075333
 31
0.0
 11
42042.79319558265
 21
10273.19293089953
 31
0.0
  0
SPLINE
  5
59E4
330
200
100
AcDbEntity
  8
11111外轮廓线
 62
     7
370
     9
100
AcDbSpline
210
0.0
220
0.0
230
1.0
 70
     8
 71
     3
 72
    20
 73
    16
 74
    14
 42
0.0000000001
 43
0.0000000001
 44
0.0000000001
 12
0.9999999999997724
 22
0.0000006749292746
 32
0.0
 13
0.0007037838471253
 23
-0.9999997523441177
 33
0.0
 40
0.0
 40
0.0
 40
0.0
 40
0.0
 40
12.66311177411326
 40
27.02801816215911
 40
42.63663763442798
 40
59.02915315867248
 40
75.36781525470662
 40
90.23147278258614
 40
103.2066588485105
 40
114.5607932806251
 40
124.526172004994
 40
133.8858384765315
 40
143.5630550321312
 40
154.4455119714742
 40
167.0308345099685
 40
167.0308345099685
 40
167.0308345099685
 40
167.0308345099685
 10
42042.79319558265
 20
10273.19293089953
 30
0.0
 10
42047.0142328407
 20
10273.19293374843
 30
0.0
 10
42056.02369499441
 20
10273.15540735604
 30
0.0
 10
42070.233977779
 20
10272.86308383677
 30
0.0
 10
42085.67381632191
 20
10272.09979652441
 30
0.0
 10
42101.72190360749
 20
10270.55985871486
 30
0.0
 10
42117.38749993127
 20
10267.93439715289
 30
0.0
 10
42131.62542091166
 20
10264.04669184821
 30
0.0
 10
42143.70736623943
 20
10258.95346977931
 30
0.0
 10
42153.43225045827
 20
10252.83192174296
 30
0.0
 10
42160.97606927735
 20
10245.83627343319
 30
0.0
 10
42166.6954046812
 20
10237.96743751202
 30
0.0
 10
42170.90725304148
 20
10228.85932908669
 30
0.0
 10
42173.58118959166
 20
10218.07752232121
 30
0.0
 10
42174.12457878864
 20
10210.23387332971
 30
0.0
 10
42174.12753123754
 20
10206.03876685582
 30
0.0
 11
42042.79319558265
 21
10273.19293089953
 31
0.0
 11
42055.45612691845
 21
10273.12533068852
 31
0.0
 11
42069.81747192185
 21
10272.80547879972
 31
0.0
 11
42085.40506120515
 21
10271.99550215483
 31
0.0
 11
42101.71646552784
 21
10270.36680505772
 31
0.0
 11
42117.81433394303
 21
10267.57207580862
 31
0.0
 11
42132.12278552895
 21
10263.54758474522
 31
0.0
 11
42144.03616448826
 21
10258.40687903322
 31
0.0
 11
42153.59824515215
 21
10252.28454434132
 31
0.0
 11
42160.87479538555
 21
10245.47568321622
 31
0.0
 11
42166.37310658664
 21
10237.90125713933
 31
0.0
 11
42170.46383619055
 21
10229.13116868072
 31
0.0
 11
42173.15354759345
 21
10218.58634428172
 31
0.0
 11
42174.12753123754
 21
10206.03876685582
 31
0.0
  0
SPLINE
  5
59E5
330
200
100
AcDbEntity
  8
11111外轮廓线
 62
     7
370
     9
100
AcDbSpline
210
0.0
220
0.0
230
1.0
 70
     8
 71
     3
 72
    10
 73
     6
 74
     4
 42
0.0000000001
 43
0.0000000001
 44
0.0000000001
 12
0.0006965668724227
 22
-0.9999997573972667
 32
0.0
 13
-0.0000517641506584
 23
-0.9999999986602363
 33
0.0
 40
0.0
 40
0.0
 40
0.0
 40
0.0
 40
43.57743525604693
 40
85.91080073234371
 40
126.9985079714067
 40
126.9985079714067
 40
126.9985079714067
 40
126.9985079714067
 10
42174.12753126395
 20
10206.03876685002
 30
0.0
 10
42174.13764946321
 20
10191.51295862201
 30
0.0
 10
42174.14846732734
 20
10162.87602551428
 30
0.0
 10
42174.14848997358
 20
10120.54318934219
 30
0.0
 10
42174.14521476671
 20
10092.7361652793
 30
0.0
 10
42174.14450580995
 20
10079.04026288463
 30
0.0
 11
42174.12753126395
 21
10206.03876685002
 31
0.0
 11
42174.14584456225
 21
10162.46133544203
 31
0.0
 11
42174.14764292765
 21
10120.12797000393
 31
0.0
 11
42174.14450580995
 21
10079.04026288463
 31
0.0
  0
SPLINE
  5
59E6
330
200
100
AcDbEntity
  8
11111外轮廓线
 62
     7
370
     9
100
AcDbSpline
210
0.0
220
0.0
230
1.0
 70
     8
 71
     3
 72
    42
 73
    38
 74
    36
 42
0.0000000001
 43
0.0000000001
 44
0.0000000001
 12
-0.0000536335371098
 22
-0.9999999985617218
 32
0.0
 13
-0.0000535554823125
 23
0.9999999985659052
 33
0.0
 40
0.0
 40
0.0
 40
0.0
 40
0.0
 40
9.667854407193257
 40
19.83244571785782
 40
30.37425457317715
 40
41.18084747985931
 40
52.13978668306693
 40
63.14186557573641
 40
74.11389537926061
 40
85.06145683028696
 40
96.01564370772781
 40
107.021472615466
 40
118.0051808044032
 40
128.7859483107743
 40
139.6749676329413
 40
151.4777731639679
 40
164.9908907566966
 40
180.6784547325444
 40
197.814111647477
 40
215.397803751366
 40
232.442422485118
 40
247.961001773037
 40
261.2926916275904
 40
272.9760213648527
 40
283.8198554170271
 40
294.6090885062017
 40
305.6074592353713
 40
316.6122920839336
 40
327.5639470170909
 40
338.5109782475018
 40
349.4820176387275
 40
360.4806627366358
 40
371.4278522104723
 40
382.2130998745647
 40
392.7243163941523
 40
402.8492477230024
 40
412.4704856733908
 40
412.4704856733908
 40
412.4704856733908
 40
412.4704856733908
 10
42174.14450578135
 20
10079.04026288463
 30
0.0
 10
42174.14433294094
 20
10075.81764475354
 30
0.0
 10
42173.90049494095
 20
10069.20432419111
 30
0.0
 10
42172.76385163536
 20
10059.1338120872
 30
0.0
 10
42170.76508007782
 20
10048.80976507547
 30
0.0
 10
42167.8630054532
 20
10038.42643812943
 30
0.0
 10
42164.05766705414
 20
10028.1746573649
 30
0.0
 10
42159.38575722965
 20
10018.2265273075
 30
0.0
 10
42153.90065396045
 20
10008.70704731736
 30
0.0
 10
42147.6501196761
 20
9999.691201528401
 30
0.0
 10
42140.66307306093
 20
9991.218676966601
 30
0.0
 10
42132.98426447489
 20
9983.35061627346
 30
0.0
 10
42124.71806990877
 20
9976.19025339633
 30
0.0
 10
42115.91941833935
 20
9969.762045335283
 30
0.0
 10
42106.38749872423
 20
9963.938244782113
 30
0.0
 10
42095.57019477459
 20
9958.551150426586
 30
0.0
 10
42082.78351042997
 20
9953.655460187434
 30
0.0
 10
42067.79957372096
 20
9949.75830918711
 30
0.0
 10
42051.09018041658
 20
9947.583507860883
 30
0.0
 10
42033.78367244527
 20
9947.632417552391
 30
0.0
 10
42017.17268790029
 20
9949.884087787824
 30
0.0
 10
42002.34906397344
 20
9953.807878055991
 30
0.0
 10
41989.72397840353
 20
9958.684833666303
 30
0.0
 10
41979.0201497692
 20
9964.039883502501
 30
0.0
 10
41969.53977664845
 20
9969.847860359374
 30
0.0
 10
41960.75388180733
 20
9976.281083803407
 30
0.0
 10
41952.49033156144
 20
9983.455824996305
 30
0.0
 10
41944.81840802552
 20
9991.335779199348
 30
0.0
 10
41937.84231172154
 20
9999.81556111628
 30
0.0
 10
41931.60317436512
 20
10008.83765221422
 30
0.0
 10
41926.13006107301
 20
10018.36212118447
 30
0.0
 10
41921.47194270284
 20
10028.310748865
 30
0.0
 10
41917.68210019092
 20
10038.55524225979
 30
0.0
 10
41914.79583066476
 20
10048.92086421427
 30
0.0
 10
41912.81084739918
 20
10059.21637655968
 30
0.0
 10
41911.68366505142
 20
10069.2486389807
 30
0.0
 10
41911.44205714132
 20
10075.83316458184
 30
0.0
 10
41911.44188538464
 20
10079.04024389403
 30
0.0
 11
42174.14450578135
 21
10079.04026288463
 31
0.0
 11
42173.78818537104
 21
10069.37897701763
 31
0.0
 11
42172.64820706884
 21
10059.27851336573
 31
0.0
 11
42170.64444752764
 21
10048.92889107102
 31
0.0
 11
42167.73555681625
 21
10038.52116292892
 31
0.0
 11
42163.92196848374
 21
10028.24717185973
 31
0.0
 11
42159.24515817286
 21
10018.28859840383
 31
0.0
 11
42153.76736556494
 21
10008.78179946023
 31
0.0
 11
42147.52997512956
 21
9999.784907648026
 31
0.0
 11
42140.56057169766
 21
9991.333776010826
 31
0.0
 11
42132.87357840933
 21
9983.457329849535
 31
0.0
 11
42124.57149034075
 21
9976.265864124027
 31
0.0
 11
42115.86645798406
 21
9969.906040251037
 31
0.0
 11
42106.57450002645
 21
9964.228870259526
 31
0.0
 11
42096.00931359775
 21
9958.967401440837
 31
0.0
 11
42083.38949911575
 21
9954.135773401036
 31
0.0
 11
42068.20699102495
 21
9950.187215237725
 31
0.0
 11
42051.21463939585
 21
9947.975717098628
 31
0.0
 11
42033.63101749046
 21
9948.025403036627
 31
0.0
 11
42016.74084844855
 21
9950.314773586526
 31
0.0
 11
42001.73887019174
 21
9954.285535666727
 31
0.0
 11
41989.30273596595
 21
9959.089338316326
 31
0.0
 11
41978.85404768484
 21
9964.316680562035
 31
0.0
 11
41969.60745568055
 21
9969.981420031537
 31
0.0
 11
41960.90235904784
 21
9976.355495907125
 31
0.0
 11
41952.59748381294
 21
9983.566127365534
 31
0.0
 11
41944.92066880185
 21
9991.451104049726
 31
0.0
 11
41937.96293482956
 21
9999.908567247736
 31
0.0
 11
41931.73645082476
 21
10008.91236587373
 31
0.0
 11
41926.27030182545
 21
10018.42472207192
 31
0.0
 11
41921.60645905104
 21
10028.38558370962
 31
0.0
 11
41917.80822831055
 21
10038.65273524342
 31
0.0
 11
41914.91517781314
 21
10049.04272205743
 31
0.0
 11
41912.92521916745
 21
10059.36385267913
 31
0.0
 11
41911.79478149435
 21
10069.42548003662
 31
0.0
 11
41911.44188538464
 21
10079.04024389403
 31
0.0
  0
SPLINE
  5
59E7
330
200
100
AcDbEntity
  8
11111外轮廓线
 62
     7
370
     9
100
AcDbSpline
210
0.0
220
0.0
230
1.0
 70
     8
 71
     3
 72
    10
 73
     6
 74
     4
 42
0.0000000001
 43
0.0000000001
 44
0.0000000001
 12
-0.000051763272119
 22
0.9999999986602819
 32
0.0
 13
0.000696568127882
 23
0.9999997573963922
 33
0.0
 40
0.0
 40
0.0
 40
0.0
 40
0.0
 40
41.09940649337927
 40
83.43277159289085
 40
126.998677457395
 40
126.998677457395
 40
126.998677457395
 40
126.998677457395
 10
41911.44188535744
 20
10079.04024389403
 30
0.0
 10
41911.44117621085
 20
10092.74004604014
 30
0.0
 10
41911.43790001466
 20
10120.55096972876
 30
0.0
 10
41911.43792556119
 20
10162.88386239662
 30
0.0
 10
41911.44874446566
 20
10191.5169522467
 30
0.0
 10
41911.45886000616
 20
10206.03891734512
 30
0.0
 11
41911.44188535744
 21
10079.04024389403
 31
0.0
 11
41911.43874754265
 21
10120.13965026763
 31
0.0
 11
41911.44054878105
 21
10162.47301532882
 31
0.0
 11
41911.45886000616
 21
10206.03891734512
 31
0.0
  0
LINE
  5
59F4
330
200
100
AcDbEntity
  8
11111外轮廓线
 62
     7
370
     9
100
AcDbLine
 10
43056.5915588247
 20
10957.92605485239
 30
0.0
 11
43056.5915588247
 21
10999.04745495569
 31
0.0
  0
LWPOLYLINE
  5
59F6
330
200
100
AcDbEntity
  8
11111外轮廓线
 62
     7
370
     9
100
AcDbPolyline
 90
       16
 70
     0
 43
0.0
 10
43045.5215529975
 20
10946.41333626059
 10
43040.69026741769
 20
10926.83969905859
 10
43034.99603915349
 20
10906.05686946529
 10
43028.75992889778
 20
10885.43093221809
 10
43021.9879324134
 20
10864.97514618269
 10
43014.6860846066
 20
10844.70289483089
 10
43006.86047581869
 20
10824.62768038079
 10
42998.5171938159
 20
10804.76294730079
 10
42989.66221356999
 20
10785.12186180629
 10
42980.30145137098
 20
10765.71750647979
 10
42970.4408340313
 20
10746.56303740819
 10
42960.0864402813
 20
10727.67191522459
 10
42949.244413771
 20
10709.05767362189
 10
42937.9208248071
 20
10690.73367793829
 10
42926.12164991889
 20
10672.71313636999
 10
42914.5915588247
 20
10656.04745495569
  0
LINE
  5
59F7
330
200
100
AcDbEntity
  8
11111外轮廓线
 62
     7
370
     9
100
AcDbLine
 10
42914.5915762326
 20
10656.04745495569
 30
0.0
 11
42486.59155882471
 21
10656.04745495569
 31
0.0
  0
LWPOLYLINE
  5
59F8
330
200
100
AcDbEntity
  8
11111外轮廓线
 62
     7
370
     9
100
AcDbPolyline
 90
       13
 70
     0
 43
0.0
 10
43050.54595722619
 20
10950.99142491379
 10
43050.12894365999
 20
10950.91896217799
 10
43049.5286535534
 20
10950.75984919669
 10
43048.94802454479
 20
10950.53953935469
 10
43048.39327704659
 20
10950.26039253629
 10
43047.87035431769
 20
10949.92539903809
 10
43047.3848586292
 20
10949.53814745909
 10
43046.9419912457
 20
10949.10278620639
 10
43046.5464968199
 20
10948.62397912839
 10
43046.2026125385
 20
10948.10685555209
 10
43045.91402272429
 20
10947.55695535119
 10
43045.6838193424
 20
10946.98016958479
 10
43045.5215517896
 20
10946.41333654299
  0
LINE
  5
59F9
330
200
100
AcDbEntity
  8
11111外轮廓线
 62
     7
370
     9
100
AcDbLine
 10
42486.59155882471
 20
10957.75133011909
 30
0.0
 11
42489.5915588247
 21
10957.75133008019
 31
0.0
  0
LINE
  5
59FA
330
200
100
AcDbEntity
  8
11111外轮廓线
 62
     7
370
     9
100
AcDbLine
 10
42486.59155882471
 20
10999.04745495569
 30
0.0
 11
43056.59155882458
 21
10999.04745495569
 31
0.0
  0
LINE
  5
59FB
330
200
100
AcDbEntity
  8
11111外轮廓线
 62
     7
370
     9
100
AcDbLine
 10
42489.5915588247
 20
11006.04745495569
 30
0.0
 11
43049.5895438517
 21
11006.04745495569
 31
0.0
  0
LINE
  5
59FD
330
200
100
AcDbEntity
  8
11111外轮廓线
 62
     7
370
     9
100
AcDbLine
 10
42489.5915588247
 20
11006.04745495569
 30
0.0
 11
42489.59025292518
 21
10950.91062653039
 31
0.0
  0
LINE
  5
59FF
330
200
100
AcDbEntity
  8
11111外轮廓线
 62
     7
370
     9
100
AcDbLine
 10
42486.59155882471
 20
11003.04745495569
 30
0.0
 11
42486.59155882471
 21
10656.04745495569
 31
0.0
  0
ARC
  5
5A00
330
200
100
AcDbEntity
  8
11111外轮廓线
 62
     7
370
     9
100
AcDbCircle
 10
43049.59155775018
 20
10957.92605649559
 30
0.0
 40
7.000000009799999
100
AcDbArc
 50
277.8362741565017
 51
359.9999999039088
  0
ARC
  5
5A01
330
200
100
AcDbEntity
  8
11111外轮廓线
 62
     7
370
     9
100
AcDbCircle
 10
43049.5915588247
 20
10999.04745495569
 30
0.0
 40
7.0
100
AcDbArc
 50
0.0
 51
90.0
  0
ARC
  5
5A02
330
200
100
AcDbEntity
  8
11111外轮廓线
 62
     7
370
     9
100
AcDbCircle
 10
42489.5915588247
 20
11003.04745495569
 30
0.0
 40
3.0
100
AcDbArc
 50
90.0
 51
180.0
  0
SPLINE
  5
5A04
330
200
100
AcDbEntity
  8
11111外轮廓线
 62
     7
370
     9
100
AcDbSpline
210
0.0
220
0.0
230
1.0
 70
     8
 71
     3
 72
    13
 73
     9
 74
     7
 42
0.0000000001
 43
0.0000000001
 44
0.0000000001
 12
-0.0010520839742707
 22
-0.9999994465595026
 32
0.0
 13
0.0006226872661895
 23
-0.9999998061302656
 33
0.0
 40
0.0
 40
0.0
 40
0.0
 40
0.0
 40
61.99835282548242
 40
117.3829149448952
 40
167.1419636897427
 40
211.9597948396291
 40
252.4563354085138
 40
289.260761348408
 40
289.260761348408
 40
289.260761348408
 40
289.260761348408
 10
42489.58540815629
 20
10945.30817370489
 30
0.0
 10
42489.56366566514
 20
10924.64206753387
 30
0.0
 10
42489.53107961401
 20
10885.51444079471
 30
0.0
 10
42489.51403811339
 20
10829.80045320403
 30
0.0
 10
42489.52143858096
 20
10779.81330517212
 30
0.0
 10
42489.54205183785
 20
10734.78883603352
 30
0.0
 10
42489.5671460752
 20
10694.08257784402
 30
0.0
 10
42489.58391960891
 20
10668.31559446894
 30
0.0
 10
42489.5915588247
 20
10656.04745486739
 30
0.0
 11
42489.58540815629
 21
10945.30817370489
 31
0.0
 11
42489.53499527639
 21
10883.30984137559
 31
0.0
 11
42489.517878773
 21
10827.92528190109
 31
0.0
 11
42489.5243856722
 21
10778.16623358169
 31
0.0
 11
42489.5439563657
 21
10733.34840670479
 31
0.0
 11
42489.5681487374
 21
10692.85187336209
 31
0.0
 11
42489.5915588247
 21
10656.04745486739
 31
0.0
  0
SPLINE
  5
5A05
330
200
100
AcDbEntity
  8
11111外轮廓线
 62
     7
370
     9
100
AcDbSpline
210
0.0
220
0.0
230
1.0
 70
     8
 71
     3
 72
    56
 73
    52
 74
    50
 42
0.0000000001
 43
0.0000000001
 44
0.0000000001
 12
0.9999978160887646
 22
-0.0020899324633935
 32
0.0
 13
0.9999988199334334
 23
0.001536272026939
 33
0.0
 40
0.0
 40
0.0
 40
0.0
 40
0.0
 40
19.92108885842897
 40
39.32484064436522
 40
57.07055134876254
 40
73.63285321426784
 40
89.83907741459173
 40
106.1537522054275
 40
122.7732117440309
 40
139.538164930758
 40
155.5206080678505
 40
169.8609084672994
 40
182.5411346108895
 40
193.853986154158
 40
204.0061904602215
 40
213.1582315942108
 40
221.4480314914065
 40
228.9652253070841
 40
235.7957041858207
 40
242.0333928955455
 40
247.7545235729347
 40
253.0026127604898
 40
257.7957810589664
 40
262.1863663902527
 40
266.2270056114741
 40
269.9471166474785
 40
273.3703303077649
 40
276.52181525034
 40
279.4281000072463
 40
282.1065506829866
 40
284.5428999904722
 40
286.760201080511
 40
288.8905704650392
 40
291.1261656698287
 40
293.6277286227163
 40
296.3660801694058
 40
299.3659037092227
 40
302.6618264801901
 40
306.2518166525491
 40
310.1662046385288
 40
314.4427133983713
 40
319.144960431441
 40
324.4149291693606
 40
330.3820994871173
 40
336.8921029616003
 40
343.9122153703382
 40
351.4722000027807
 40
359.6188197466704
 40
368.3945501094475
 40
377.8577005828004
 40
388.2633237738208
 40
388.2633237738208
 40
388.2633237738208
 40
388.2633237738208
 10
42489.58540815629
 20
10945.30817370489
 30
0.0
 10
42496.22575660714
 20
10945.29429579479
 30
0.0
 10
42509.33401127228
 20
10945.2683045823
 30
0.0
 10
42528.35750304014
 20
10945.2370358087
 30
0.0
 10
42546.26140866341
 20
10945.21303218298
 30
0.0
 10
42563.09947878302
 20
10945.19557221884
 30
0.0
 10
42579.46054140455
 20
10945.18336579621
 30
0.0
 10
42595.8406593961
 20
10945.1758238301
 30
0.0
 10
42612.40702183239
 20
10945.17280547098
 30
0.0
 10
42628.86264057672
 20
10945.17416443274
 30
0.0
 10
42644.55853880574
 20
10945.17919444746
 30
0.0
 10
42658.89286017769
 20
10945.18663141235
 30
0.0
 10
42671.67064998581
 20
10945.19528297259
 30
0.0
 10
42683.05240700483
 20
10945.20442186664
 30
0.0
 10
42693.25810184271
 20
10945.21364814308
 30
0.0
 10
42702.45611249283
 20
10945.22271681213
 30
0.0
 10
42710.77578616882
 20
10945.23147636847
 30
0.0
 10
42718.32160573756
 20
10945.2398368857
 30
0.0
 10
42725.18338830827
 20
10945.24775277724
 30
0.0
 10
42731.44648328369
 20
10945.25521696182
 30
0.0
 10
42737.18211517985
 20
10945.26223716416
 30
0.0
 10
42742.4362404555
 20
10945.26881114339
 30
0.0
 10
42747.24685082359
 20
10945.27494042599
 30
0.0
 10
42751.65497808429
 20
10945.28064401392
 30
0.0
 10
42755.7054197976
 20
10945.28595587001
 30
0.0
 10
42759.43340448932
 20
10945.29090179618
 30
0.0
 10
42762.8650046273
 20
10945.29549577852
 30
0.0
 10
42766.02532954218
 20
10945.29975619532
 30
0.0
 10
42768.93740032386
 20
10945.30370463587
 30
0.0
 10
42771.61109272346
 20
10945.307371055
 30
0.0
 10
42774.05512406708
 20
10945.31075855539
 30
0.0
 10
42776.31646185253
 20
10945.31387074408
 30
0.0
 10
42778.51088172668
 20
10945.31684868168
 30
0.0
 10
42780.80005575774
 20
10945.31973491934
 30
0.0
 10
42783.29189055382
 20
10945.32270770176
 30
0.0
 10
42786.03846812597
 20
10945.32583084397
 30
0.0
 10
42789.04983230086
 20
10945.32910380719
 30
0.0
 10
42792.34507599801
 20
10945.3325462176
 30
0.0
 10
42795.94517447482
 20
10945.33617967534
 30
0.0
 10
42799.87213489717
 20
10945.34002651537
 30
0.0
 10
42804.16984752953
 20
10945.34413202218
 30
0.0
 10
42808.91942029225
 20
10945.3485782239
 30
0.0
 10
42814.23254672976
 20
10945.35347752556
 30
0.0
 10
42820.14825843638
 20
10945.35888352298
 30
0.0
 10
42826.64735112944
 20
10945.3648156297
 30
0.0
 10
42833.67738165662
 20
10945.3712865172
 30
0.0
 10
42841.25295057841
 20
10945.37840137481
 30
0.0
 10
42849.41372496052
 20
10945.38634378829
 30
0.0
 10
42858.20888717019
 20
10945.39540264199
 30
0.0
 10
42867.75704908481
 20
10945.40618581423
 30
0.0
 10
42874.37996811813
 20
10945.41484724598
 30
0.0
 10
42877.84850508869
 20
10945.42017586859
 30
0.0
 11
42489.58540815629
 21
10945.30817370489
 31
0.0
 11
42509.5064587013
 21
10945.26910340189
 31
0.0
 11
42528.910184179
 21
10945.23715099509
 31
0.0
 11
42546.65587903288
 21
10945.21343270959
 31
0.0
 11
42563.21817199638
 21
10945.19626077479
 31
0.0
 11
42579.4243916803
 21
10945.18416169399
 31
0.0
 11
42595.73906472808
 21
10945.17662016159
 31
0.0
 11
42612.35852398209
 21
10945.17354453179
 31
0.0
 11
42629.1234771167
 21
10945.17486654029
 31
0.0
 11
42645.10591945271
 21
10945.17992684609
 31
0.0
 11
42659.44621794639
 21
10945.18731998379
 31
0.0
 11
42672.12644120558
 21
10945.19587273599
 31
0.0
 11
42683.43928912041
 21
10945.20493341919
 31
0.0
 11
42693.59148929239
 21
10945.21409530389
 31
0.0
 11
42702.7435259893
 21
10945.22310732909
 31
0.0
 11
42711.0333213002
 21
10945.23182736059
 31
0.0
 11
42718.55051050819
 21
10945.24015043989
 31
0.0
 11
42725.38098484651
 21
10945.24802613179
 31
0.0
 11
42731.61866913
 21
10945.25545707959
 31
0.0
 11
42737.3397955248
 21
10945.26245725329
 31
0.0
 11
42742.5878806067
 21
10945.26902182659
 31
0.0
 11
42747.38104501589
 21
10945.27512788479
 31
0.0
 11
42751.77162667258
 21
10945.28080831589
 31
0.0
 11
42755.81226241999
 21
10945.28610669859
 31
0.0
 11
42759.53237018378
 21
10945.29104086079
 31
0.0
 11
42762.95558077789
 21
10945.29562259969
 31
0.0
 11
42766.1070628574
 21
10945.29987063849
 31
0.0
 11
42769.01334493718
 21
10945.30381537539
 31
0.0
 11
42771.69179309418
 21
10945.30748860839
 31
0.0
 11
42774.1281400751
 21
10945.31085560389
 31
0.0
 11
42776.34543907049
 21
10945.31390338329
 31
0.0
 11
42778.4758065294
 21
10945.31676773899
 31
0.0
 11
42780.711399941
 21
10945.31959929249
 31
0.0
 11
42783.2129611046
 21
10945.32259128269
 31
0.0
 11
42785.95131087549
 21
10945.32570985609
 31
0.0
 11
42788.9511326368
 21
10945.32897642209
 31
0.0
 11
42792.2470536034
 21
10945.33242520509
 31
0.0
 11
42795.83704194219
 21
10945.33605355639
 31
0.0
 11
42799.7514280451
 21
10945.33989310629
 31
0.0
 11
42804.0279348488
 21
10945.34398345389
 31
0.0
 11
42808.73017981648
 21
10945.34839071329
 31
0.0
 11
42814.00014630818
 21
10945.35325640849
 31
0.0
 11
42819.9673141273
 21
10945.35871714389
 31
0.0
 11
42826.47731488149
 21
10945.36466847169
 31
0.0
 11
42833.4974243055
 21
10945.37114196579
 31
0.0
 11
42841.05740558789
 21
10945.37825903219
 31
0.0
 11
42849.204021448
 21
10945.38621387009
 31
0.0
 11
42857.9797471003
 21
10945.39530648619
 31
0.0
 11
42867.4428914192
 21
10945.40609912289
 31
0.0
 11
42877.84850508869
 21
10945.42017586859
 31
0.0
  0
SPLINE
  5
5A06
330
200
100
AcDbEntity
  8
11111外轮廓线
 62
     7
370
     9
100
AcDbSpline
210
0.0
220
0.0
230
1.0
 70
     8
 71
     3
 72
    26
 73
    22
 74
    20
 42
0.0000000001
 43
0.0000000001
 44
0.0000000001
 12
0.9999989723060272
 22
0.0014336620556541
 32
0.0
 13
-0.9999993751622842
 23
-0.0011178886533335
 33
0.0
 40
0.0
 40
0.0
 40
0.0
 40
0.0
 40
16.88660572305503
 40
41.31339352439333
 40
64.49028952022986
 40
85.59524308753962
 40
104.2755817795752
 40
120.1498868947345
 40
132.8691683710279
 40
142.1600206380103
 40
147.8499782620646
 40
149.7716454095764
 40
151.6535287337591
 40
157.3046511116183
 40
166.5850714124144
 40
179.3341261196314
 40
195.2143517773
 40
213.9759965048792
 40
235.1000776384591
 40
258.2729473442711
 40
268.5972955666512
 40
268.5972955666512
 40
268.5972955666512
 40
268.5972955666512
 10
42906.81991148819
 20
10957.81987904759
 30
0.0
 10
42912.44877427779
 20
10957.82794894288
 30
0.0
 10
42926.21968632673
 20
10957.84629066
 30
0.0
 10
42947.71769356718
 20
10957.87082316111
 30
0.0
 10
42970.61601005455
 20
10957.89092666924
 30
0.0
 10
42991.61812416191
 20
10957.90465487777
 30
0.0
 10
43010.12574020735
 20
10957.9139673933
 30
0.0
 10
43026.0166118865
 20
10957.91962284725
 30
0.0
 10
43038.28955264543
 20
10957.92279892332
 30
0.0
 10
43048.35162162655
 20
10957.92476204543
 30
0.0
 10
43052.49741731124
 20
10957.92535976508
 30
0.0
 10
43057.61177296505
 20
10957.92623139607
 30
0.0
 10
43052.560937535
 20
10957.925360797
 30
0.0
 10
43048.41059728539
 20
10957.92477896674
 30
0.0
 10
43038.36836794006
 20
10957.92283210367
 30
0.0
 10
43026.08251906111
 20
10957.91964948419
 30
0.0
 10
43010.15429659386
 20
10957.91397207458
 30
0.0
 10
42991.61079172494
 20
10957.90464534542
 30
0.0
 10
42970.57659628619
 20
10957.89090097423
 30
0.0
 10
42952.37350958834
 20
10957.8749241128
 30
0.0
 10
42941.20732899112
 20
10957.86303427954
 30
0.0
 10
42937.765881734
 20
10957.85918712229
 30
0.0
 11
42906.81991148819
 21
10957.81987904759
 31
0.0
 11
42923.70650205409
 21
10957.84250437489
 31
0.0
 11
42948.1332741568
 21
10957.87019794279
 31
0.0
 11
42971.31016114778
 21
10957.89062853749
 31
0.0
 11
42992.4151100802
 21
10957.90461562059
 31
0.0
 11
43011.0954464374
 21
10957.91395536909
 31
0.0
 11
43026.9697505186
 21
10957.91968482259
 31
0.0
 11
43039.68903156519
 21
10957.92299105049
 31
0.0
 11
43048.97988365359
 21
10957.92481264609
 31
0.0
 11
43054.6698412032
 21
10957.92573313169
 31
0.0
 11
43056.5915083235
 21
10957.92605650839
 31
0.0
 11
43054.70962502679
 21
10957.92573489489
 31
0.0
 11
43049.05850272168
 21
10957.92482814479
 31
0.0
 11
43039.77808259649
 21
10957.92302281689
 31
0.0
 11
43027.02902831998
 21
10957.91970883909
 31
0.0
 11
43011.1488036986
 21
10957.91397185949
 31
0.0
 11
42992.3871613153
 21
10957.90459289519
 31
0.0
 11
42971.26308481849
 21
10957.89059664579
 31
0.0
 11
42948.09022412019
 21
10957.87016481639
 31
0.0
 11
42937.765881734
 21
10957.85918712229
 31
0.0
  0
SPLINE
  5
5A07
330
200
100
AcDbEntity
  8
11111外轮廓线
 62
     7
370
     9
100
AcDbSpline
210
0.0
220
0.0
230
1.0
 70
     8
 71
     3
 72
     9
 73
     5
 74
     3
 42
0.0000000001
 43
0.0000000001
 44
0.0000000001
 12
-0.9999996482707128
 22
-0.0008387242993988
 32
0.0
 13
-0.9999993751622852
 23
-0.0011178886523631
 33
0.0
 40
0.0
 40
0.0
 40
0.0
 40
0.0
 40
15.56041125614093
 40
25.884759478521
 40
25.884759478521
 40
25.884759478521
 40
25.884759478521
 10
42963.65062876208
 20
10957.88451196619
 30
0.0
 10
42958.46382683439
 20
10957.88016166785
 30
0.0
 10
42949.83557727624
 20
10957.87222177442
 30
0.0
 10
42941.20732899112
 20
10957.86303427954
 30
0.0
 10
42937.765881734
 20
10957.85918712229
 30
0.0
 11
42963.65062876208
 21
10957.88451196619
 31
0.0
 11
42948.09022412019
 21
10957.87016481639
 31
0.0
 11
42937.765881734
 21
10957.85918712229
 31
0.0
  0
LINE
  5
5A08
330
200
100
AcDbEntity
  8
11111外轮廓线
 62
     7
370
     9
100
AcDbLine
 10
42963.78065503648
 20
10957.88462093389
 30
0.0
 11
42963.65062876208
 21
10957.88451196619
 31
0.0
  0
LINE
  5
5A09
330
200
100
AcDbEntity
  8
11111外轮廓线
 62
     7
370
     9
100
AcDbLine
 10
42969.6508880651
 20
10957.88935765569
 30
0.0
 11
42963.78065503648
 21
10957.88462093389
 31
0.0
  0
LINE
  5
5A0A
330
200
100
AcDbEntity
  8
11111外轮廓线
 62
     7
370
     9
100
AcDbLine
 10
43026.3166793413
 20
10957.91949103129
 30
0.0
 11
43025.31167874939
 21
10957.91917774029
 31
0.0
  0
SPLINE
  5
5A0B
330
200
100
AcDbEntity
  8
11111外轮廓线
 62
     7
370
     9
100
AcDbSpline
210
0.0
220
0.0
230
1.0
 70
     8
 71
     3
 72
    16
 73
    12
 74
    10
 42
0.0000000001
 43
0.0000000001
 44
0.0000000001
 12
0.9999999541348824
 22
0.0003028699937973
 32
0.0
 13
-0.9999999524970686
 23
-0.0003082302076162
 33
0.0
 40
0.0
 40
0.0
 40
0.0
 40
0.0
 40
12.71928147629339
 40
22.01013374327589
 40
27.70009136733014
 40
29.62175851484196
 40
31.50364183902464
 40
37.15476421688382
 40
46.43518451767997
 40
59.18423922489701
 40
59.89658823687818
 40
59.89658823687818
 40
59.89658823687818
 40
59.89658823687818
 10
43026.9697505186
 20
10957.91968482259
 30
0.0
 10
43031.20951081624
 20
10957.92096891882
 30
0.0
 10
43038.27229428063
 20
10957.92279369627
 30
0.0
 10
43048.35403644398
 20
10957.92476277684
 30
0.0
 10
43052.49725091912
 20
10957.92535971463
 30
0.0
 10
43057.61181259034
 20
10957.92623140813
 30
0.0
 10
43052.56078804799
 20
10957.92536075134
 30
0.0
 10
43048.41276137731
 20
10957.92477962857
 30
0.0
 10
43038.35279609439
 20
10957.92282734124
 30
0.0
 10
43031.0456628313
 20
10957.92093739751
 30
0.0
 10
43026.55412900069
 20
10957.91956422045
 30
0.0
 10
43026.3166793413
 20
10957.91949103129
 30
0.0
 11
43026.9697505186
 21
10957.91968482259
 31
0.0
 11
43039.68903156519
 21
10957.92299105049
 31
0.0
 11
43048.97988365359
 21
10957.92481264609
 31
0.0
 11
43054.6698412032
 21
10957.92573313169
 31
0.0
 11
43056.5915083235
 21
10957.92605650839
 31
0.0
 11
43054.70962502679
 21
10957.92573489489
 31
0.0
 11
43049.05850272168
 21
10957.92482814479
 31
0.0
 11
43039.77808259649
 21
10957.92302281689
 31
0.0
 11
43027.02902831998
 21
10957.91970883909
 31
0.0
 11
43026.3166793413
 21
10957.91949103129
 31
0.0
  0
LINE
  5
5A0C
330
200
100
AcDbEntity
  8
11111外轮廓线
 62
     7
370
     9
100
AcDbLine
 10
43026.9697505186
 20
10957.91968482259
 30
0.0
 11
43027.1006059215
 21
10957.91972439569
 31
0.0
  0
SPLINE
  5
5A0D
330
200
100
AcDbEntity
  8
11111外轮廓线
 62
     7
370
     9
100
AcDbSpline
210
0.0
220
0.0
230
1.0
 70
     8
 71
     3
 72
    15
 73
    11
 74
     9
 42
0.0000000001
 43
0.0000000001
 44
0.0000000001
 12
0.999999900834558
 22
-0.0004453435462137
 32
0.0
 13
0.9999999566072331
 23
0.0002945938429905
 33
0.0
 40
0.0
 40
0.0
 40
0.0
 40
0.0
 40
67.47992686960673
 40
127.6751698171252
 40
181.5350154769617
 40
229.9865947909253
 40
273.9570667860757
 40
314.3737190245395
 40
352.1635484699252
 40
388.2616990188197
 40
388.2616990188197
 40
388.2616990188197
 40
388.2616990188197
 10
42489.5915588247
 20
10957.75133011909
 30
0.0
 10
42512.08486555068
 20
10957.74131286912
 30
0.0
 10
42554.64325307436
 20
10957.7257504644
 30
0.0
 10
42615.15492518561
 20
10957.71930014473
 30
0.0
 10
42669.32381441393
 20
10957.72507762202
 30
0.0
 10
42718.08444558808
 20
10957.73592246308
 30
0.0
 10
42762.36401157085
 20
10957.74876659674
 30
0.0
 10
42803.08966148105
 20
10957.75929087675
 30
0.0
 10
42841.19120499462
 20
10957.76582025159
 30
0.0
 10
42865.8205312234
 20
10957.77075873239
 30
0.0
 10
42877.85324755089
 20
10957.77430349669
 30
0.0
 11
42489.5915588247
 21
10957.75133011909
 31
0.0
 11
42557.0714816414
 21
10957.72794251009
 31
0.0
 11
42617.26672422609
 21
10957.72133334519
 31
0.0
 11
42671.126569651
 21
10957.72636389769
 31
0.0
 11
42719.5781478351
 21
10957.73682753459
 31
0.0
 11
42763.54861818158
 21
10957.74886850129
 31
0.0
 11
42803.96526917238
 21
10957.75891106809
 31
0.0
 11
42841.75509793309
 21
10957.76610464819
 31
0.0
 11
42877.85324755089
 21
10957.77430349669
 31
0.0
  0
SPLINE
  5
5A0E
330
200
100
AcDbEntity
  8
11111外轮廓线
 62
     7
370
     9
100
AcDbSpline
210
0.0
220
0.0
230
1.0
 70
     8
 71
     3
 72
    11
 73
     7
 74
     5
 42
0.0000000001
 43
0.0000000001
 44
0.0000000001
 12
-0.0001131486933338
 22
-0.9999999935986865
 32
0.0
 13
0.9999999094648764
 23
-0.0004255234883547
 33
0.0
 40
0.0
 40
0.0
 40
0.0
 40
0.0
 40
1.144625706765904
 40
2.296505413657982
 40
3.458570479982553
 40
4.627789191081419
 40
4.627789191081419
 40
4.627789191081419
 40
4.627789191081419
 10
42486.59175910399
 20
10953.84244475449
 30
0.0
 10
42486.59171593302
 20
10953.46090285468
 30
0.0
 10
42486.74894943841
 20
10952.68675212285
 30
0.0
 10
42487.418789307
 20
10951.71234698549
 30
0.0
 10
42488.41524734097
 20
10951.06236222988
 30
0.0
 10
42489.20051299071
 20
10950.91073126513
 30
0.0
 10
42489.59025252579
 20
10950.91056542179
 30
0.0
 11
42486.59175910399
 21
10953.84244475449
 31
0.0
 11
42486.81988511689
 21
10952.72078235839
 31
0.0
 11
42487.4698010282
 21
10951.76976386889
 31
0.0
 11
42488.4426034531
 21
10951.13411407499
 31
0.0
 11
42489.59025252579
 21
10950.91056542179
 31
0.0
  0
SPLINE
  5
5A0F
330
200
100
AcDbEntity
  8
11111外轮廓线
 62
     7
370
     9
100
AcDbSpline
210
0.0
220
0.0
230
1.0
 70
     8
 71
     3
 72
    11
 73
     7
 74
     5
 42
0.0000000001
 43
0.0000000001
 44
0.0000000001
 12
0.0005239517154294
 22
-0.9999998627372905
 32
0.0
 13
0.9999999960390457
 23
-0.0000890051033043
 33
0.0
 40
0.0
 40
0.0
 40
0.0
 40
0.0
 40
0.2331722544837027
 40
0.8832871757715832
 40
1.854870867065852
 40
3.001050390114847
 40
3.001050390114847
 40
3.001050390114847
 40
3.001050390114847
 10
42486.5915588254
 20
10945.43815471639
 30
0.0
 10
42486.59159954907
 20
10945.36043064223
 30
0.0
 10
42487.0549095018
 20
10945.43054312073
 30
0.0
 10
42487.51993838586
 20
10945.30449006417
 30
0.0
 10
42488.51925096382
 20
10945.32694107483
 30
0.0
 10
42489.20334804848
 20
10945.30795842427
 30
0.0
 10
42489.58540788798
 20
10945.30792441899
 30
0.0
 11
42486.5915588254
 21
10945.43815471639
 31
0.0
 11
42486.8193561922
 21
10945.38837861829
 31
0.0
 11
42487.46809892829
 21
10945.34616164019
 31
0.0
 11
42488.43927189748
 21
10945.31791393029
 31
0.0
 11
42489.58540788798
 21
10945.30792441899
 31
0.0
  0
SPLINE
  5
5A10
330
200
100
AcDbEntity
  8
11111外轮廓线
 62
     7
370
     9
100
AcDbSpline
210
0.0
220
0.0
230
1.0
 70
     8
 71
     3
 72
    12
 73
     8
 74
     6
 42
0.0000000001
 43
0.0000000001
 44
0.0000000001
 12
-0.0047381074317089
 22
-0.9999887751059837
 32
0.0
 13
-0.0000441992238079
 23
-0.9999999990232144
 33
0.0
 40
0.0
 40
0.0
 40
0.0
 40
0.0
 40
0.5280876344156665
 40
1.424535265909594
 40
2.627886830249013
 40
4.052502137165081
 40
5.602455850273483
 40
5.602455850273483
 40
5.602455850273483
 40
5.602455850273483
 10
42489.59025197438
 20
10950.91062577969
 30
0.0
 10
42489.58941792907
 20
10950.73459854413
 30
0.0
 10
42489.58845556747
 20
10950.25975358805
 30
0.0
 10
42489.58718355281
 20
10949.38379269452
 30
0.0
 10
42489.58625863852
 20
10948.20898794789
 30
0.0
 10
42489.58560104444
 20
10946.81634797711
 30
0.0
 10
42489.58543073048
 20
10945.82482494669
 30
0.0
 10
42489.58540789489
 20
10945.30817370949
 30
0.0
 11
42489.59025197438
 21
10950.91062577969
 31
0.0
 11
42489.58874191008
 21
10950.38254030429
 31
0.0
 11
42489.5874169224
 21
10949.48609365199
 31
0.0
 11
42489.58637457999
 21
10948.28274253909
 31
0.0
 11
42489.58568909778
 21
10946.85812739709
 31
0.0
 11
42489.58540789489
 21
10945.30817370949
 31
0.0
  0
SPLINE
  5
5A11
330
200
100
AcDbEntity
  8
11111外轮廓线
 62
     7
370
     9
100
AcDbSpline
210
0.0
220
0.0
230
1.0
 70
     8
 71
     3
 72
    15
 73
    11
 74
     9
 42
0.0000000001
 43
0.0000000001
 44
0.0000000001
 12
0.9999999788556735
 22
-0.000205642049384
 32
0.0
 13
0.9999999907697507
 23
0.0001358694169048
 33
0.0
 40
0.0
 40
0.0
 40
0.0
 40
0.0
 40
67.48102622105394
 40
127.6775586065804
 40
181.5382509326626
 40
229.9901928284131
 40
273.9607289541552
 40
314.3766044763188
 40
352.1662917069298
 40
388.2650422865971
 40
388.2650422865971
 40
388.2650422865971
 40
388.2650422865971
 10
42489.59025197438
 20
10950.91062577969
 30
0.0
 10
42512.08392690579
 20
10950.90600013419
 30
0.0
 10
42554.643112629
 20
10950.8990402854
 30
0.0
 10
42615.15586298813
 20
10950.89598407029
 30
0.0
 10
42669.32558517643
 20
10950.89867115266
 30
0.0
 10
42718.08664171425
 20
10950.90366608981
 30
0.0
 10
42762.36609249706
 20
10950.90960319188
 30
0.0
 10
42803.09145850999
 20
10950.91445606147
 30
0.0
 10
42841.19289616753
 20
10950.91746764399
 30
0.0
 10
42865.82237534448
 20
10950.9197491714
 30
0.0
 10
42877.8552920933
 20
10950.92138407679
 30
0.0
 11
42489.59025197438
 21
10950.91062577969
 31
0.0
 11
42557.07127735679
 21
10950.89998693539
 31
0.0
 11
42617.26780966509
 21
10950.89693757979
 31
0.0
 11
42671.1285019411
 21
10950.89925992059
 31
0.0
 11
42719.5804435964
 21
10950.90408704949
 31
0.0
 11
42763.55097937048
 21
10950.90964810569
 31
0.0
 11
42803.96685462711
 21
10950.91428105409
 31
0.0
 11
42841.75654171199
 21
10950.91759976589
 31
0.0
 11
42877.8552920933
 21
10950.92138407679
 31
0.0
  0
SPLINE
  5
5A12
330
200
100
AcDbEntity
  8
11111外轮廓线
 62
     7
370
     9
100
AcDbSpline
210
0.0
220
0.0
230
1.0
 70
     8
 71
     3
 72
     9
 73
     5
 74
     3
 42
0.0000000001
 43
0.0000000001
 44
0.0000000001
 12
0.9999996607299074
 22
0.0008237354368788
 32
0.0
 13
0.9999997535338385
 23
0.0007020913488112
 33
0.0
 40
0.0
 40
0.0
 40
0.0
 40
0.0
 40
20.51042717462008
 40
23.7148505141405
 40
23.7148505141405
 40
23.7148505141405
 40
23.7148505141405
 10
42879.10393263519
 20
10950.92198663979
 30
0.0
 10
42885.94073937388
 20
10950.92761836169
 30
0.0
 10
42893.8456870787
 20
10950.9338891346
 30
0.0
 10
42901.75063524467
 20
10950.93952072056
 30
0.0
 10
42902.81877609459
 20
10950.94027065319
 30
0.0
 11
42879.10393263519
 21
10950.92198663979
 31
0.0
 11
42899.6143535687
 21
10950.93798713579
 31
0.0
 11
42902.81877609459
 21
10950.94027065319
 31
0.0
  0
LINE
  5
5A13
330
200
100
AcDbEntity
  8
11111外轮廓线
 62
     7
370
     9
100
AcDbLine
 10
42902.81877609459
 20
10950.94027065319
 30
0.0
 11
42906.80557770669
 21
10950.94301980199
 31
0.0
  0
LINE
  5
5A14
330
200
100
AcDbEntity
  8
11111外轮廓线
 62
     7
370
     9
100
AcDbLine
 10
42906.80557770669
 20
10950.94301980199
 30
0.0
 11
42906.97479827249
 21
10950.94313433739
 31
0.0
  0
SPLINE
  5
5A15
330
200
100
AcDbEntity
  8
11111外轮廓线
 62
     7
370
     9
100
AcDbSpline
210
0.0
220
0.0
230
1.0
 70
     8
 71
     3
 72
     9
 73
     5
 74
     3
 42
0.0000000001
 43
0.0000000001
 44
0.0000000001
 12
0.9999997712844736
 22
0.0006763364552511
 32
0.0
 13
0.9999998505309548
 23
0.0005467522912458
 33
0.0
 40
0.0
 40
0.0
 40
0.0
 40
0.0
 40
15.29219942186849
 40
26.79009533829491
 40
26.79009533829491
 40
26.79009533829491
 40
26.79009533829491
 10
42906.97479827249
 20
10950.94313433739
 30
0.0
 10
42912.07219691393
 20
10950.94658189471
 30
0.0
 10
42921.00222692707
 20
10950.95221518177
 30
0.0
 10
42929.93225723222
 20
10950.95735206428
 30
0.0
 10
42933.7648886315
 20
10950.95944756459
 30
0.0
 11
42906.97479827249
 21
10950.94313433739
 31
0.0
 11
42922.26699460719
 21
10950.95285128529
 31
0.0
 11
42933.7648886315
 21
10950.95944756459
 31
0.0
  0
LINE
  5
5A16
330
200
100
AcDbEntity
  8
11111外轮廓线
 62
     7
370
     9
100
AcDbLine
 10
42933.7648886315
 20
10950.95944756459
 30
0.0
 11
42937.64755967119
 21
10950.96153239259
 31
0.0
  0
LINE
  5
5A17
330
200
100
AcDbEntity
  8
11111外轮廓线
 62
     7
370
     9
100
AcDbLine
 10
42937.64755967119
 20
10950.96153239259
 30
0.0
 11
42937.7647139071
 21
10950.96159409529
 31
0.0
  0
LINE
  5
5A18
330
200
100
AcDbEntity
  8
11111外轮廓线
 62
     7
370
     9
100
AcDbLine
 10
42937.7647139071
 20
10950.96159409529
 30
0.0
 11
42938.05181526429
 21
10950.96174500159
 31
0.0
  0
SPLINE
  5
5A19
330
200
100
AcDbEntity
  8
11111外轮廓线
 62
     7
370
     9
100
AcDbSpline
210
0.0
220
0.0
230
1.0
 70
     8
 71
     3
 72
     9
 73
     5
 74
     3
 42
0.0000000001
 43
0.0000000001
 44
0.0000000001
 12
0.9999998622573571
 22
0.0005248669040428
 32
0.0
 13
0.9999999134448744
 23
0.0004160651920808
 33
0.0
 40
0.0
 40
0.0
 40
0.0
 40
0.0
 40
7.813508794093541
 40
19.59900543658661
 40
19.59900543658661
 40
19.59900543658661
 40
19.59900543658661
 10
42938.05181526429
 20
10950.96174500159
 30
0.0
 10
42940.6563178369
 20
10950.96311201898
 30
0.0
 10
42947.18931882023
 20
10950.96640684928
 30
0.0
 10
42953.72231998441
 20
10950.96933008755
 30
0.0
 10
42957.65081852521
 20
10950.97096459919
 30
0.0
 11
42938.05181526429
 21
10950.96174500159
 31
0.0
 11
42945.86532306749
 21
10950.96568005039
 31
0.0
 11
42957.65081852521
 21
10950.97096459919
 31
0.0
  0
LINE
  5
5A1A
330
200
100
AcDbEntity
  8
11111外轮廓线
 62
     7
370
     9
100
AcDbLine
 10
42957.65081852521
 20
10950.97096459919
 30
0.0
 11
42968.24092725689
 21
10950.97508019289
 31
0.0
  0
LINE
  5
5A1B
330
200
100
AcDbEntity
  8
11111外轮廓线
 62
     7
370
     9
100
AcDbLine
 10
42968.24092725689
 20
10950.97508019289
 30
0.0
 11
42969.650202416
 21
10950.97558545789
 31
0.0
  0
SPLINE
  5
5A1C
330
200
100
AcDbEntity
  8
11111外轮廓线
 62
     7
370
     9
100
AcDbSpline
210
0.0
220
0.0
230
1.0
 70
     8
 71
     3
 72
    21
 73
    17
 74
    15
 42
0.0000000001
 43
0.0000000001
 44
0.0000000001
 12
0.9999999369437382
 22
0.00035512324553
 32
0.0
 13
-0.999999958352928
 23
-0.0002886072456915
 33
0.0
 40
0.0
 40
0.0
 40
0.0
 40
0.0
 40
18.95920137110558
 40
36.98527842984335
 40
52.30432115609801
 40
64.58019047378882
 40
73.54794741969347
 40
79.04085066509306
 40
80.89570807146939
 40
82.7122154134587
 40
88.16759709262006
 40
97.12535757994809
 40
109.4300053291294
 40
124.7547821787673
 40
142.8593240179114
 40
146.4254722710659
 40
146.4254722710659
 40
146.4254722710659
 40
146.4254722710659
 10
42969.650202416
 20
10950.97558545789
 30
0.0
 10
42975.96993580787
 20
10950.97782974227
 30
0.0
 10
42988.3091218863
 20
10950.98165001061
 30
0.0
 10
43005.6997407146
 20
10950.98586692345
 30
0.0
 10
43021.0352598494
 20
10950.98847213945
 30
0.0
 10
43032.87996672826
 20
10950.98997697962
 30
0.0
 10
43042.59201431888
 20
10950.99076186201
 30
0.0
 10
43046.59378111859
 20
10950.99112079014
 30
0.0
 10
43051.53070991942
 20
10950.99150169877
 30
0.0
 10
43046.65505786689
 20
10950.99111641417
 30
0.0
 10
43042.64891056477
 20
10950.99078393418
 30
0.0
 10
43032.9559105341
 20
10950.98998276164
 30
0.0
 10
43021.09903580535
 20
10950.98848139482
 30
0.0
 10
43005.72575923204
 20
10950.9858711389
 30
0.0
 10
42993.43033622443
 20
10950.98289204591
 30
0.0
 10
42986.20486153469
 20
10950.98085643987
 30
0.0
 10
42985.01614549981
 20
10950.98051336779
 30
0.0
 11
42969.650202416
 21
10950.97558545789
 31
0.0
 11
42988.60940285639
 21
10950.98152608029
 31
0.0
 11
43006.6354793951
 21
10950.98585600469
 31
0.0
 11
43021.9545218914
 21
10950.98851029819
 31
0.0
 11
43034.2303911151
 21
10950.99002941639
 31
0.0
 11
43043.1981480259
 21
10950.99082295569
 31
0.0
 11
43048.69105125218
 21
10950.99128116509
 31
0.0
 11
43050.545908653
 21
10950.99142478169
 31
0.0
 11
43048.72940131679
 21
10950.99127988859
 31
0.0
 11
43043.27401965569
 21
10950.99083606649
 31
0.0
 11
43034.3162592036
 21
10950.99004142619
 31
0.0
 11
43022.01161154879
 21
10950.98851743339
 31
0.0
 11
43006.6868349287
 21
10950.98586504379
 31
0.0
 11
42988.5822936113
 21
10950.98151853389
 31
0.0
 11
42985.01614549981
 21
10950.98051336779
 31
0.0
  0
LINE
  5
5A1D
330
200
100
AcDbEntity
  8
11111外轮廓线
 62
     7
370
     9
100
AcDbLine
 10
42988.40555186028
 20
10950.98146982909
 30
0.0
 11
42985.01614549981
 21
10950.98051336779
 31
0.0
  0
SPLINE
  5
5A1E
330
200
100
AcDbEntity
  8
11111外轮廓线
 62
     7
370
     9
100
AcDbSpline
210
0.0
220
0.0
230
1.0
 70
     8
 71
     3
 72
    19
 73
    15
 74
    13
 42
0.0000000001
 43
0.0000000001
 44
0.0000000001
 12
0.9999999621197737
 22
0.0002752461646585
 32
0.0
 13
-0.9999999619415413
 23
-0.0002758929430983
 33
0.0
 40
0.0
 40
0.0
 40
0.0
 40
0.0
 40
18.02607705873776
 40
33.34511978499243
 40
45.62098910268324
 40
54.5887460485879
 40
60.08164929398748
 40
61.93650670036381
 40
63.75301404235312
 40
69.20839572151449
 40
78.16615620884251
 40
90.47080395802389
 40
105.7955808076618
 40
124.0768644044264
 40
124.0768644044264
 40
124.0768644044264
 40
124.0768644044264
 10
42988.60940285639
 20
10950.98152608029
 30
0.0
 10
42994.61809498169
 20
10950.98317994982
 30
0.0
 10
43005.69766489447
 20
10950.98586637002
 30
0.0
 10
43021.03566910203
 20
10950.98847224855
 30
0.0
 10
43032.87989540721
 20
10950.98997696061
 30
0.0
 10
43042.59202427029
 20
10950.99076186466
 30
0.0
 10
43046.59378048214
 20
10950.99112078997
 30
0.0
 10
43051.53071002522
 20
10950.9915016988
 30
0.0
 10
43046.65505765124
 20
10950.99111641412
 30
0.0
 10
43042.64891290658
 20
10950.9907839348
 30
0.0
 10
43032.95589392599
 20
10950.98998275727
 30
0.0
 10
43021.09913124709
 20
10950.98848141995
 30
0.0
 10
43005.66586216159
 20
10950.98586092338
 30
0.0
 10
42994.49931282728
 20
10950.9831510548
 30
0.0
 10
42988.40555186028
 20
10950.98146982909
 30
0.0
 11
42988.60940285639
 21
10950.98152608029
 31
0.0
 11
43006.6354793951
 21
10950.98585600469
 31
0.0
 11
43021.9545218914
 21
10950.98851029819
 31
0.0
 11
43034.2303911151
 21
10950.99002941639
 31
0.0
 11
43043.1981480259
 21
10950.99082295569
 31
0.0
 11
43048.69105125218
 21
10950.99128116509
 31
0.0
 11
43050.545908653
 21
10950.99142478169
 31
0.0
 11
43048.72940131679
 21
10950.99127988859
 31
0.0
 11
43043.27401965569
 21
10950.99083606649
 31
0.0
 11
43034.3162592036
 21
10950.99004142619
 31
0.0
 11
43022.01161154879
 21
10950.98851743339
 31
0.0
 11
43006.6868349287
 21
10950.98586504379
 31
0.0
 11
42988.40555186028
 21
10950.98146982909
 31
0.0
  0
LINE
  5
5A1F
330
200
100
AcDbEntity
  8
11111外轮廓线
 62
     7
370
     9
100
AcDbLine
 10
42988.60940285639
 20
10950.98152608029
 30
0.0
 11
42989.01593438018
 21
10950.98163767589
 31
0.0
  0
SPLINE
  5
5A20
330
200
100
AcDbEntity
  8
11111外轮廓线
 62
     7
370
     9
100
AcDbSpline
210
0.0
220
0.0
230
1.0
 70
     8
 71
     3
 72
     8
 73
     4
 74
     2
 42
0.0000000001
 43
0.0000000001
 44
0.0000000001
 12
0.9999999625261681
 22
0.0002737657072317
 32
0.0
 13
0.9999999785264813
 23
0.0002072366691675
 33
0.0
 40
0.0
 40
0.0
 40
0.0
 40
0.0
 40
16.64850359674756
 40
16.64850359674756
 40
16.64850359674756
 40
16.64850359674756
 10
42989.01593438018
 20
10950.98163767589
 30
0.0
 10
42994.56543537114
 20
10950.98315693901
 30
0.0
 10
43000.11493641205
 20
10950.98450674375
 30
0.0
 10
43005.6644374918
 20
10950.98565680389
 30
0.0
 11
42989.01593438018
 21
10950.98163767589
 31
0.0
 11
43005.6644374918
 21
10950.98565680389
 31
0.0
  0
LINE
  5
5A21
330
200
100
AcDbEntity
  8
11111外轮廓线
 62
     7
370
     9
100
AcDbLine
 10
43005.6644374918
 20
10950.98565680389
 30
0.0
 11
43006.6354793951
 21
10950.98585600469
 31
0.0
  0
LINE
  5
5A22
330
200
100
AcDbEntity
  8
11111外轮廓线
 62
     7
370
     9
100
AcDbLine
 10
43006.6354793951
 20
10950.98585600469
 30
0.0
 11
43016.20376917099
 21
10950.98761375969
 31
0.0
  0
LINE
  5
5A23
330
200
100
AcDbEntity
  8
11111外轮廓线
 62
     7
370
     9
100
AcDbLine
 10
43016.20376917099
 20
10950.98761375969
 30
0.0
 11
43017.1715170778
 21
10950.98777243859
 31
0.0
  0
LINE
  5
5A24
330
200
100
AcDbEntity
  8
11111外轮廓线
 62
     7
370
     9
100
AcDbLine
 10
43017.1715170778
 20
10950.98777243859
 30
0.0
 11
43017.59457510258
 21
10950.98784078529
 31
0.0
  0
SPLINE
  5
5A25
330
200
100
AcDbEntity
  8
11111外轮廓线
 62
     7
370
     9
100
AcDbSpline
210
0.0
220
0.0
230
1.0
 70
     8
 71
     3
 72
     9
 73
     5
 74
     3
 42
0.0000000001
 43
0.0000000001
 44
0.0000000001
 12
0.9999999906843077
 22
0.0001364968303079
 32
0.0
 13
0.9999996597936055
 23
0.0008248713071028
 33
0.0
 40
0.0
 40
0.0
 40
0.0
 40
0.0
 40
0.6241065717436857
 40
1.248640716570765
 40
1.248640716570765
 40
1.248640716570765
 40
1.248640716570765
 10
42877.8552920816
 20
10950.92138602479
 30
0.0
 10
42878.06332760357
 20
10950.92141442098
 30
0.0
 10
42878.47954116524
 20
10950.92154285778
 30
0.0
 10
42878.89575465774
 20
10950.92181491969
 30
0.0
 10
42879.10393263519
 20
10950.92198663979
 30
0.0
 11
42877.8552920816
 21
10950.92138602479
 31
0.0
 11
42878.4793986236
 21
10950.92157869549
 31
0.0
 11
42879.10393263519
 21
10950.92198663979
 31
0.0
  0
LINE
  5
5A26
330
200
100
AcDbEntity
  8
11111外轮廓线
 62
     7
370
     9
100
AcDbLine
 10
42877.84850508868
 20
10945.42017586859
 30
0.0
 11
43045.27641503817
 21
10945.42017586859
 31
0.0
  0
LINE
  5
5A27
330
200
100
AcDbEntity
  8
11111外轮廓线
 62
     7
370
     9
100
AcDbLine
 10
42906.81991148819
 20
10957.81987904759
 30
0.0
 11
42877.85324755089
 21
10957.77430349669
 31
0.0
  0
CIRCLE
  5
5A2A
330
200
100
AcDbEntity
  8
11111外轮廓线
 62
     7
370
     9
100
AcDbCircle
 10
42554.5915588247
 20
10926.36449858131
 30
0.0
 40
10.52
  0
ENDSEC
  0
SECTION
  2
OBJECTS
  0
DICTIONARY
  5
C
330
0
100
AcDbDictionary
281
     1
  3
ACAD_COLOR
350
31C
  3
ACAD_DETAILVIEWSTYLE
350
3E0
  3
ACAD_GROUP
350
D
  3
ACAD_LAYOUT
350
1A
  3
ACAD_MATERIAL
350
2F2
  3
ACAD_MLEADERSTYLE
350
341
  3
ACAD_MLINESTYLE
350
17
  3
ACAD_PLOTSETTINGS
350
19
  3
ACAD_PLOTSTYLENAME
350
E
  3
ACAD_SCALELIST
350
31F
  3
ACAD_SECTIONVIEWSTYLE
350
3E1
  3
ACAD_TABLESTYLE
350
31D
  3
ACAD_VISUALSTYLE
350
30B
  3
ACDB_RECOMPOSE_DATA
350
3DE
  3
ACDBHEADERROUNDTRIPXREC
350
5D53
  3
AcDbVariableDictionary
350
347
  0
DICTIONARY
  5
38E
330
2
100
AcDbDictionary
280
     1
281
     1
  3
ACAD_LAYERSTATES
360
38F
  0
DICTIONARY
  5
467B
330
200
100
AcDbDictionary
280
     1
281
     1
  3
ACAD_SORTENTS
360
467C
  0
DICTIONARY
  5
31C
102
{ACAD_REACTORS
330
C
102
}
330
C
100
AcDbDictionary
281
     1
  0
DICTIONARY
  5
3E0
102
{ACAD_REACTORS
330
C
102
}
330
C
100
AcDbDictionary
281
     1
  0
DICTIONARY
  5
D
102
{ACAD_REACTORS
330
C
102
}
330
C
100
AcDbDictionary
281
     1
  0
DICTIONARY
  5
1A
102
{ACAD_REACTORS
330
C
102
}
330
C
100
AcDbDictionary
281
     1
  3
Layout1
350
2EF
  3
Model
350
2EE
  0
DICTIONARY
  5
2F2
102
{ACAD_REACTORS
330
C
102
}
330
C
100
AcDbDictionary
281
     1
  3
ByBlock
350
2FB
  3
ByLayer
350
2F3
  3
Global
350
303
  0
DICTIONARY
  5
341
102
{ACAD_REACTORS
330
C
102
}
330
C
100
AcDbDictionary
281
     1
  3
Standard
350
342
  0
DICTIONARY
  5
17
102
{ACAD_REACTORS
330
C
102
}
330
C
100
AcDbDictionary
281
     1
  3
Standard
350
18
  0
DICTIONARY
  5
19
102
{ACAD_REACTORS
330
C
102
}
330
C
100
AcDbDictionary
281
     1
  0
ACDBDICTIONARYWDFLT
  5
E
102
{ACAD_REACTORS
330
C
102
}
330
C
100
AcDbDictionary
281
     1
  3
Normal
350
F
100
AcDbDictionaryWithDefault
340
F
  0
DICTIONARY
  5
31F
102
{ACAD_REACTORS
330
C
102
}
330
C
100
AcDbDictionary
281
     1
  3
A0
350
320
  3
A1
350
321
  3
A2
350
322
  3
A3
350
323
  3
A4
350
324
  3
A5
350
325
  3
A6
350
326
  3
A7
350
327
  3
A8
350
328
  3
A9
350
329
  3
B0
350
32A
  3
B1
350
32B
  3
B2
350
32C
  3
B3
350
32D
  3
B4
350
32E
  3
B5
350
32F
  3
B6
350
330
  3
B7
350
331
  3
B8
350
332
  3
B9
350
333
  3
C0
350
334
  3
C1
350
335
  3
C2
350
336
  3
C3
350
337
  3
C4
350
338
  3
C5
350
339
  3
C6
350
33A
  3
C7
350
33B
  3
C8
350
33C
  3
C9
350
33D
  3
D0
350
33E
  3
D1
350
33F
  3
D2
350
340
  0
DICTIONARY
  5
3E1
102
{ACAD_REACTORS
330
C
102
}
330
C
100
AcDbDictionary
281
     1
  0
DICTIONARY
  5
31D
102
{ACAD_REACTORS
330
C
102
}
330
C
100
AcDbDictionary
281
     1
  3
Standard
350
31E
  0
DICTIONARY
  5
30B
102
{ACAD_REACTORS
330
C
102
}
330
C
100
AcDbDictionary
281
     1
  3
2dWireframe
350
311
  3
3D Hidden
350
313
  3
3dWireframe
350
312
  3
Basic
350
310
  3
Brighten
350
317
  3
ColorChange
350
31B
  3
Conceptual
350
314
  3
Dim
350
316
  3
EdgeColorOff
350
39F
  3
Facepattern
350
31A
  3
Flat
350
30C
  3
FlatWithEdges
350
30D
  3
Gouraud
350
30E
  3
GouraudWithEdges
350
30F
  3
Hidden
350
39C
  3
JitterOff
350
39D
  3
Linepattern
350
319
  3
OverhangOff
350
39E
  3
Realistic
350
315
  3
Shaded
350
3A4
  3
Shaded with edges
350
3A3
  3
Shades of Gray
350
3A0
  3
Sketchy
350
3A1
  3
Thicken
350
318
  3
Wireframe
350
39B
  3
X-Ray
350
3A2
  0
XRECORD
  5
3DE
102
{ACAD_REACTORS
330
C
102
}
330
C
100
AcDbXrecord
280
     1
 90
        1
330
31E
  0
DICTIONARY
  5
5D53
102
{ACAD_REACTORS
330
C
102
}
330
C
100
AcDbDictionary
281
     1
  0
DICTIONARY
  5
347
102
{ACAD_REACTORS
330
C
102
}
330
C
100
AcDbDictionary
281
     1
  3
CANNOSCALE
350
34A
  3
CMLEADERSTYLE
350
349
  3
CTABLESTYLE
350
348
  3
XCLIPFRAME
350
3DF
  0
DICTIONARY
  5
38F
102
{ACAD_REACTORS
330
38E
102
}
330
38E
100
AcDbDictionary
281
     1
  0
SORTENTSTABLE
  5
467C
102
{ACAD_REACTORS
330
467B
102
}
330
467B
100
AcDbSortentsTable
330
200
331
399
  5
399
  0
LAYOUT
  5
2EF
102
{ACAD_REACTORS
330
1A
102
}
330
1A
100
AcDbPlotSettings
  1

  2
none_device
  4
ISO_A4_(297.00_x_210.00_MM)
  6

 40
0.0
 41
0.0
 42
0.0
 43
0.0
 44
297.0
 45
210.0
 46
0.0
 47
0.0
 48
0.0
 49
0.0
140
0.0
141
0.0
142
1.0
143
1.0
 70
     0
 72
     1
 73
     0
 74
     0
  7

 75
     0
147
1.0
 76
     0
 77
     2
 78
   300
148
0.0
149
0.0
100
AcDbLayout
  1
Layout1
 70
     1
 71
     1
 10
0.0
 20
0.0
 11
12.0
 21
9.0
 12
0.0
 22
0.0
 32
0.0
 14
1.000000000000000E+20
 24
1.000000000000000E+20
 34
1.000000000000000E+20
 15
-1.000000000000000E+20
 25
-1.000000000000000E+20
 35
-1.000000000000000E+20
146
0.0
 13
0.0
 23
0.0
 33
0.0
 16
1.0
 26
0.0
 36
0.0
 17
0.0
 27
1.0
 37
0.0
 76
     0
330
201
  0
LAYOUT
  5
2EE
102
{ACAD_REACTORS
330
1A
102
}
330
1A
100
AcDbPlotSettings
  1

  2
none_device
  4
ISO_A4_(297.00_x_210.00_MM)
  6

 40
0.0
 41
0.0
 42
0.0
 43
0.0
 44
297.0
 45
210.0
 46
0.0
 47
0.0
 48
0.0
 49
0.0
140
0.0
141
0.0
142
1.0
143
1.0
 70
  1024
 72
     1
 73
     0
 74
     0
  7

 75
     0
147
1.0
 76
     0
 77
     2
 78
   300
148
0.0
149
0.0
100
AcDbLayout
  1
Model
 70
     0
 71
     0
 10
0.0
 20
0.0
 11
297.0
 21
210.0
 12
0.0
 22
0.0
 32
0.0
 14
0.0
 24
0.0
 34
0.0
 15
0.0
 25
0.0
 35
0.0
146
0.0
 13
0.0
 23
0.0
 33
0.0
 16
1.0
 26
0.0
 36
0.0
 17
0.0
 27
1.0
 37
0.0
 76
     0
330
200
  0
MATERIAL
  5
2FB
102
{ACAD_REACTORS
330
2F2
102
}
330
2F2
100
AcDbMaterial
  1
ByBlock
  2

 72
     0
 73
     2
 43
0.0008202099737533
 43
0.0
 43
0.0
 43
0.0
 43
0.0
 43
0.0008202099737533
 43
0.0
 43
0.0
 43
0.0
 43
0.0
 43
1.0
 43
0.0
 43
0.0
 43
0.0
 43
0.0
 43
1.0
 77
     0
 78
     2
 47
0.0008202099737533
 47
0.0
 47
0.0
 47
0.0
 47
0.0
 47
0.0008202099737533
 47
0.0
 47
0.0
 47
0.0
 47
0.0
 47
1.0
 47
0.0
 47
0.0
 47
0.0
 47
0.0
 47
1.0
171
     0
172
     2
 49
0.0008202099737533
 49
0.0
 49
0.0
 49
0.0
 49
0.0
 49
0.0008202099737533
 49
0.0
 49
0.0
 49
0.0
 49
0.0
 49
1.0
 49
0.0
 49
0.0
 49
0.0
 49
0.0
 49
1.0
175
     0
176
     2
142
0.0008202099737533
142
0.0
142
0.0
142
0.0
142
0.0
142
0.0008202099737533
142
0.0
142
0.0
142
0.0
142
0.0
142
1.0
142
0.0
142
0.0
142
0.0
142
0.0
142
1.0
179
     0
270
     2
144
0.0008202099737533
144
0.0
144
0.0
144
0.0
144
0.0
144
0.0008202099737533
144
0.0
144
0.0
144
0.0
144
0.0
144
1.0
144
0.0
144
0.0
144
0.0
144
0.0
144
1.0
274
     2
147
0.0008202099737533
147
0.0
147
0.0
147
0.0
147
0.0
147
0.0008202099737533
147
0.0
147
0.0
147
0.0
147
0.0
147
1.0
147
0.0
147
0.0
147
0.0
147
0.0
147
1.0
  0
MATERIAL
  5
2F3
102
{ACAD_REACTORS
330
2F2
102
}
330
2F2
100
AcDbMaterial
  1
ByLayer
  2

 72
     0
 73
     2
 43
0.0008202099737533
 43
0.0
 43
0.0
 43
0.0
 43
0.0
 43
0.0008202099737533
 43
0.0
 43
0.0
 43
0.0
 43
0.0
 43
1.0
 43
0.0
 43
0.0
 43
0.0
 43
0.0
 43
1.0
 77
     0
 78
     2
 47
0.0008202099737533
 47
0.0
 47
0.0
 47
0.0
 47
0.0
 47
0.0008202099737533
 47
0.0
 47
0.0
 47
0.0
 47
0.0
 47
1.0
 47
0.0
 47
0.0
 47
0.0
 47
0.0
 47
1.0
171
     0
172
     2
 49
0.0008202099737533
 49
0.0
 49
0.0
 49
0.0
 49
0.0
 49
0.0008202099737533
 49
0.0
 49
0.0
 49
0.0
 49
0.0
 49
1.0
 49
0.0
 49
0.0
 49
0.0
 49
0.0
 49
1.0
175
     0
176
     2
142
0.0008202099737533
142
0.0
142
0.0
142
0.0
142
0.0
142
0.0008202099737533
142
0.0
142
0.0
142
0.0
142
0.0
142
1.0
142
0.0
142
0.0
142
0.0
142
0.0
142
1.0
179
     0
270
     2
144
0.0008202099737533
144
0.0
144
0.0
144
0.0
144
0.0
144
0.0008202099737533
144
0.0
144
0.0
144
0.0
144
0.0
144
1.0
144
0.0
144
0.0
144
0.0
144
0.0
144
1.0
274
     2
147
0.0008202099737533
147
0.0
147
0.0
147
0.0
147
0.0
147
0.0008202099737533
147
0.0
147
0.0
147
0.0
147
0.0
147
1.0
147
0.0
147
0.0
147
0.0
147
0.0
147
1.0
  0
MATERIAL
  5
303
102
{ACAD_REACTORS
330
2F2
102
}
330
2F2
100
AcDbMaterial
  1
Global
  2

 72
     0
 73
     2
 43
0.0008202099737533
 43
0.0
 43
0.0
 43
0.0
 43
0.0
 43
0.0008202099737533
 43
0.0
 43
0.0
 43
0.0
 43
0.0
 43
1.0
 43
0.0
 43
0.0
 43
0.0
 43
0.0
 43
1.0
 77
     0
 78
     2
 47
0.0008202099737533
 47
0.0
 47
0.0
 47
0.0
 47
0.0
 47
0.0008202099737533
 47
0.0
 47
0.0
 47
0.0
 47
0.0
 47
1.0
 47
0.0
 47
0.0
 47
0.0
 47
0.0
 47
1.0
171
     0
172
     2
 49
0.0008202099737533
 49
0.0
 49
0.0
 49
0.0
 49
0.0
 49
0.0008202099737533
 49
0.0
 49
0.0
 49
0.0
 49
0.0
 49
1.0
 49
0.0
 49
0.0
 49
0.0
 49
0.0
 49
1.0
175
     0
176
     2
142
0.0008202099737533
142
0.0
142
0.0
142
0.0
142
0.0
142
0.0008202099737533
142
0.0
142
0.0
142
0.0
142
0.0
142
1.0
142
0.0
142
0.0
142
0.0
142
0.0
142
1.0
179
     0
270
     2
144
0.0008202099737533
144
0.0
144
0.0
144
0.0
144
0.0
144
0.0008202099737533
144
0.0
144
0.0
144
0.0
144
0.0
144
1.0
144
0.0
144
0.0
144
0.0
144
0.0
144
1.0
274
     2
147
0.0008202099737533
147
0.0
147
0.0
147
0.0
147
0.0
147
0.0008202099737533
147
0.0
147
0.0
147
0.0
147
0.0
147
1.0
147
0.0
147
0.0
147
0.0
147
0.0
147
1.0
  0
MLEADERSTYLE
  5
342
102
{ACAD_REACTORS
330
341
102
}
330
341
100
AcDbMLeaderStyle
170
     2
171
     1
172
     0
 90
        2
 40
0.0
 41
0.0
173
     1
 91
-1056964608
340
14
 92
       -2
290
     1
 42
2.0
291
     1
 43
0.36
  3
Standard
341
0
 44
4.0
300

342
11
174
     1
178
     6
175
     1
176
     0
 93
-1056964608
 45
4.0
292
     0
297
     0
 46
4.0
343
0
 94
-1056964608
 47
1.0
 49
1.0
140
1.0
293
     1
141
0.0
294
     1
177
     0
142
1.0
295
     0
296
     0
143
0.125
1001
ACAD_MLEADERVER
1070
     2
  0
MLINESTYLE
  5
18
102
{ACAD_REACTORS
330
17
102
}
330
17
100
AcDbMlineStyle
  2
STANDARD
 70
     0
  3

 62
   256
 51
90.0
 52
90.0
 71
     2
 49
0.5
 62
   256
  6
BYLAYER
 49
-0.5
 62
   256
  6
BYLAYER
  0
ACDBPLACEHOLDER
  5
F
102
{ACAD_REACTORS
330
E
102
}
330
E
  0
SCALE
  5
320
102
{ACAD_REACTORS
330
31F
102
}
330
31F
100
AcDbScale
 70
     0
300
1:1
140
1.0
141
1.0
290
     1
  0
SCALE
  5
321
102
{ACAD_REACTORS
330
31F
102
}
330
31F
100
AcDbScale
 70
     0
300
1:2
140
1.0
141
2.0
290
     0
  0
SCALE
  5
322
102
{ACAD_REACTORS
330
31F
102
}
330
31F
100
AcDbScale
 70
     0
300
1:4
140
1.0
141
4.0
290
     0
  0
SCALE
  5
323
102
{ACAD_REACTORS
330
31F
102
}
330
31F
100
AcDbScale
 70
     0
300
1:5
140
1.0
141
5.0
290
     0
  0
SCALE
  5
324
102
{ACAD_REACTORS
330
31F
102
}
330
31F
100
AcDbScale
 70
     0
300
1:8
140
1.0
141
8.0
290
     0
  0
SCALE
  5
325
102
{ACAD_REACTORS
330
31F
102
}
330
31F
100
AcDbScale
 70
     0
300
1:10
140
1.0
141
10.0
290
     0
  0
SCALE
  5
326
102
{ACAD_REACTORS
330
31F
102
}
330
31F
100
AcDbScale
 70
     0
300
1:16
140
1.0
141
16.0
290
     0
  0
SCALE
  5
327
102
{ACAD_REACTORS
330
31F
102
}
330
31F
100
AcDbScale
 70
     0
300
1:20
140
1.0
141
20.0
290
     0
  0
SCALE
  5
328
102
{ACAD_REACTORS
330
31F
102
}
330
31F
100
AcDbScale
 70
     0
300
1:30
140
1.0
141
30.0
290
     0
  0
SCALE
  5
329
102
{ACAD_REACTORS
330
31F
102
}
330
31F
100
AcDbScale
 70
     0
300
1:40
140
1.0
141
40.0
290
     0
  0
SCALE
  5
32A
102
{ACAD_REACTORS
330
31F
102
}
330
31F
100
AcDbScale
 70
     0
300
1:50
140
1.0
141
50.0
290
     0
  0
SCALE
  5
32B
102
{ACAD_REACTORS
330
31F
102
}
330
31F
100
AcDbScale
 70
     0
300
1:100
140
1.0
141
100.0
290
     0
  0
SCALE
  5
32C
102
{ACAD_REACTORS
330
31F
102
}
330
31F
100
AcDbScale
 70
     0
300
2:1
140
2.0
141
1.0
290
     0
  0
SCALE
  5
32D
102
{ACAD_REACTORS
330
31F
102
}
330
31F
100
AcDbScale
 70
     0
300
4:1
140
4.0
141
1.0
290
     0
  0
SCALE
  5
32E
102
{ACAD_REACTORS
330
31F
102
}
330
31F
100
AcDbScale
 70
     0
300
8:1
140
8.0
141
1.0
290
     0
  0
SCALE
  5
32F
102
{ACAD_REACTORS
330
31F
102
}
330
31F
100
AcDbScale
 70
     0
300
10:1
140
10.0
141
1.0
290
     0
  0
SCALE
  5
330
102
{ACAD_REACTORS
330
31F
102
}
330
31F
100
AcDbScale
 70
     0
300
100:1
140
100.0
141
1.0
290
     0
  0
SCALE
  5
331
102
{ACAD_REACTORS
330
31F
102
}
330
31F
100
AcDbScale
 70
     0
300
1/128" = 1'-0"
140
0.0078125
141
12.0
290
     0
  0
SCALE
  5
332
102
{ACAD_REACTORS
330
31F
102
}
330
31F
100
AcDbScale
 70
     0
300
1/64" = 1'-0"
140
0.015625
141
12.0
290
     0
  0
SCALE
  5
333
102
{ACAD_REACTORS
330
31F
102
}
330
31F
100
AcDbScale
 70
     0
300
1/32" = 1'-0"
140
0.03125
141
12.0
290
     0
  0
SCALE
  5
334
102
{ACAD_REACTORS
330
31F
102
}
330
31F
100
AcDbScale
 70
     0
300
1/16" = 1'-0"
140
0.0625
141
12.0
290
     0
  0
SCALE
  5
335
102
{ACAD_REACTORS
330
31F
102
}
330
31F
100
AcDbScale
 70
     0
300
3/32" = 1'-0"
140
0.09375
141
12.0
290
     0
  0
SCALE
  5
336
102
{ACAD_REACTORS
330
31F
102
}
330
31F
100
AcDbScale
 70
     0
300
1/8" = 1'-0"
140
0.125
141
12.0
290
     0
  0
SCALE
  5
337
102
{ACAD_REACTORS
330
31F
102
}
330
31F
100
AcDbScale
 70
     0
300
3/16" = 1'-0"
140
0.1875
141
12.0
290
     0
  0
SCALE
  5
338
102
{ACAD_REACTORS
330
31F
102
}
330
31F
100
AcDbScale
 70
     0
300
1/4" = 1'-0"
140
0.25
141
12.0
290
     0
  0
SCALE
  5
339
102
{ACAD_REACTORS
330
31F
102
}
330
31F
100
AcDbScale
 70
     0
300
3/8" = 1'-0"
140
0.375
141
12.0
290
     0
  0
SCALE
  5
33A
102
{ACAD_REACTORS
330
31F
102
}
330
31F
100
AcDbScale
 70
     0
300
1/2" = 1'-0"
140
0.5
141
12.0
290
     0
  0
SCALE
  5
33B
102
{ACAD_REACTORS
330
31F
102
}
330
31F
100
AcDbScale
 70
     0
300
3/4" = 1'-0"
140
0.75
141
12.0
290
     0
  0
SCALE
  5
33C
102
{ACAD_REACTORS
330
31F
102
}
330
31F
100
AcDbScale
 70
     0
300
1" = 1'-0"
140
1.0
141
12.0
290
     0
  0
SCALE
  5
33D
102
{ACAD_REACTORS
330
31F
102
}
330
31F
100
AcDbScale
 70
     0
300
1-1/2" = 1'-0"
140
1.5
141
12.0
290
     0
  0
SCALE
  5
33E
102
{ACAD_REACTORS
330
31F
102
}
330
31F
100
AcDbScale
 70
     0
300
3" = 1'-0"
140
3.0
141
12.0
290
     0
  0
SCALE
  5
33F
102
{ACAD_REACTORS
330
31F
102
}
330
31F
100
AcDbScale
 70
     0
300
6" = 1'-0"
140
6.0
141
12.0
290
     0
  0
SCALE
  5
340
102
{ACAD_REACTORS
330
31F
102
}
330
31F
100
AcDbScale
 70
     0
300
1'-0" = 1'-0"
140
12.0
141
12.0
290
     0
  0
TABLESTYLE
  5
31E
102
{ACAD_XDICTIONARY
360
3A8
102
}
102
{ACAD_REACTORS
330
31D
102
}
330
31D
100
AcDbTableStyle
  3
Standard
 70
     0
 71
     0
 40
1.5
 41
1.5
280
     0
281
     0
  7
STANDARD
140
4.5
170
     2
 62
     0
 63
   257
283
     1
274
    -2
284
     1
 64
     0
275
    -2
285
     1
 65
     0
276
    -2
286
     1
 66
     0
277
    -2
287
     1
 67
     0
278
    -2
288
     1
 68
     0
279
    -2
289
     1
 69
     0
  7
STANDARD
140
6.0
170
     5
 62
     0
 63
   257
283
     1
274
    -2
284
     1
 64
     0
275
    -2
285
     1
 65
     0
276
    -2
286
     1
 66
     0
277
    -2
287
     1
 67
     0
278
    -2
288
     1
 68
     0
279
    -2
289
     1
 69
     0
  7
STANDARD
140
4.5
170
     5
 62
     0
 63
   257
283
     1
274
    -2
284
     1
 64
     0
275
    -2
285
     1
 65
     0
276
    -2
286
     1
 66
     0
277
    -2
287
     1
 67
     0
278
    -2
288
     1
 68
     0
279
    -2
289
     1
 69
     0
  0
VISUALSTYLE
  5
311
102
{ACAD_XDICTIONARY
360
5D5E
102
}
102
{ACAD_REACTORS
330
30B
102
}
330
30B
100
AcDbVisualStyle
  2
2dWireframe
 70
     4
 71
     0
 72
     2
 73
     0
 90
        0
 40
-0.6
 41
-30.0
 62
     5
 63
     7
421
 16777215
 74
     1
 91
        4
 64
     7
 65
   257
 75
     1
175
     1
 42
1.0
 92
        0
 66
   257
 43
1.0
 76
     1
 77
     6
 78
     2
 67
     7
 79
     5
170
     0
171
     0
290
     0
174
     0
 93
        1
 44
0.0
173
     0
291
     0
 45
0.0
1001
ACAD
1000
AcDbSavedByObjectVersion
1070
     0
  0
VISUALSTYLE
  5
313
102
{ACAD_XDICTIONARY
360
5D62
102
}
102
{ACAD_REACTORS
330
30B
102
}
330
30B
100
AcDbVisualStyle
  2
3D Hidden
 70
     6
 71
     1
 72
     2
 73
     2
 90
        0
 40
-0.6
 41
-30.0
 62
     5
 63
     7
421
 16777215
 74
     2
 91
        2
 64
     7
 65
   257
 75
     2
175
     1
 42
40.0
 92
        0
 66
   257
 43
1.0
 76
     1
 77
     6
 78
     2
 67
     7
 79
     3
170
     0
171
     0
290
     0
174
     0
 93
        1
 44
0.0
173
     0
291
     0
 45
0.0
1001
ACAD
1000
AcDbSavedByObjectVersion
1070
     0
  0
VISUALSTYLE
  5
312
102
{ACAD_XDICTIONARY
360
5D60
102
}
102
{ACAD_REACTORS
330
30B
102
}
330
30B
100
AcDbVisualStyle
  2
3dWireframe
 70
     5
 71
     0
 72
     2
 73
     0
 90
        0
 40
-0.6
 41
-30.0
 62
     5
 63
     7
421
 16777215
 74
     1
 91
        4
 64
     7
 65
   257
 75
     1
175
     1
 42
1.0
 92
        0
 66
   257
 43
1.0
 76
     1
 77
     6
 78
     2
 67
     7
 79
     5
170
     0
171
     0
290
     0
174
     0
 93
        1
 44
0.0
173
     0
291
     0
 45
0.0
1001
ACAD
1000
AcDbSavedByObjectVersion
1070
     0
  0
VISUALSTYLE
  5
310
102
{ACAD_XDICTIONARY
360
5D5C
102
}
102
{ACAD_REACTORS
330
30B
102
}
330
30B
100
AcDbVisualStyle
  2
Basic
 70
     7
 71
     1
 72
     0
 73
     1
 90
        0
 40
-0.6
 41
-30.0
 62
     5
 63
     7
421
 16777215
 74
     0
 91
        4
 64
     7
 65
   257
 75
     1
175
     1
 42
1.0
 92
        8
 66
     7
 43
1.0
 76
     1
 77
     6
 78
     2
 67
     7
 79
     5
170
     0
171
     0
290
     0
174
     0
 93
        1
 44
0.0
173
     0
291
     1
 45
0.0
1001
ACAD
1000
AcDbSavedByObjectVersion
1070
     0
  0
VISUALSTYLE
  5
317
102
{ACAD_XDICTIONARY
360
5D6A
102
}
102
{ACAD_REACTORS
330
30B
102
}
330
30B
100
AcDbVisualStyle
  2
Brighten
 70
    12
 71
     2
 72
     2
 73
     0
 90
        0
 40
-0.6
 41
-30.0
 62
     5
 63
     7
421
 16777215
 74
     1
 91
        4
 64
     7
 65
   257
 75
     1
175
     1
 42
1.0
 92
        8
 66
     7
 43
1.0
 76
     1
 77
     6
 78
     2
 67
     7
 79
     5
170
     0
171
     0
290
     0
174
     0
 93
        1
 44
50.0
173
     0
291
     1
 45
0.0
1001
ACAD
1000
AcDbSavedByObjectVersion
1070
     0
  0
VISUALSTYLE
  5
31B
102
{ACAD_XDICTIONARY
360
5D72
102
}
102
{ACAD_REACTORS
330
30B
102
}
330
30B
100
AcDbVisualStyle
  2
ColorChange
 70
    16
 71
     2
 72
     2
 73
     3
 90
        0
 40
-0.6
 41
-30.0
 62
     5
 63
     8
421
  8421504
 74
     1
 91
        4
 64
     7
 65
   257
 75
     1
175
     1
 42
1.0
 92
        8
 66
     8
424
  8421504
 43
1.0
 76
     1
 77
     6
 78
     2
 67
     7
 79
     5
170
     0
171
     0
290
     0
174
     0
 93
        1
 44
0.0
173
     0
291
     1
 45
0.0
1001
ACAD
1000
AcDbSavedByObjectVersion
1070
     0
  0
VISUALSTYLE
  5
314
102
{ACAD_XDICTIONARY
360
5D64
102
}
102
{ACAD_REACTORS
330
30B
102
}
330
30B
100
AcDbVisualStyle
  2
Conceptual
 70
     9
 71
     3
 72
     2
 73
     0
 90
        0
 40
-0.6
 41
-30.0
 62
     5
 63
     7
421
 16777215
 74
     2
 91
        2
 64
     7
 65
   257
 75
     1
175
     1
 42
40.0
 92
        8
 66
     7
 43
1.0
 76
     1
 77
     6
 78
     2
 67
     7
 79
     3
170
     0
171
     0
290
     0
174
     0
 93
        1
 44
0.0
173
     0
291
     0
 45
0.0
1001
ACAD
1000
AcDbSavedByObjectVersion
1070
     0
  0
VISUALSTYLE
  5
316
102
{ACAD_XDICTIONARY
360
5D68
102
}
102
{ACAD_REACTORS
330
30B
102
}
330
30B
100
AcDbVisualStyle
  2
Dim
 70
    11
 71
     2
 72
     2
 73
     0
 90
        0
 40
-0.6
 41
-30.0
 62
     5
 63
     7
421
 16777215
 74
     1
 91
        4
 64
     7
 65
   257
 75
     1
175
     1
 42
1.0
 92
        8
 66
     7
 43
1.0
 76
     1
 77
     6
 78
     2
 67
     7
 79
     5
170
     0
171
     0
290
     0
174
     0
 93
        1
 44
-50.0
173
     0
291
     1
 45
0.0
1001
ACAD
1000
AcDbSavedByObjectVersion
1070
     0
  0
VISUALSTYLE
  5
39F
102
{ACAD_XDICTIONARY
360
5D7E
102
}
102
{ACAD_REACTORS
330
30B
102
}
330
30B
100
AcDbVisualStyle
  2
EdgeColorOff
 70
    22
 71
     2
 72
     2
 73
     0
 90
        0
 40
-0.6
 41
-30.0
 62
     5
 63
     7
421
 16777215
 74
     1
 91
        4
 64
     7
 65
   257
 75
     1
175
     1
 42
1.0
 92
        8
 66
     7
 43
1.0
 76
     1
 77
     6
 78
     2
 67
     7
 79
     5
170
     0
171
     0
290
     0
174
     0
 93
        1
 44
0.0
173
     0
291
     1
 45
0.0
1001
ACAD
1000
AcDbSavedByObjectVersion
1070
     0
  0
VISUALSTYLE
  5
31A
102
{ACAD_XDICTIONARY
360
5D70
102
}
102
{ACAD_REACTORS
330
30B
102
}
330
30B
100
AcDbVisualStyle
  2
Facepattern
 70
    15
 71
     2
 72
     2
 73
     0
 90
        0
 40
-0.6
 41
-30.0
 62
     5
 63
     7
421
 16777215
 74
     1
 91
        4
 64
     7
 65
   257
 75
     1
175
     1
 42
1.0
 92
        8
 66
     7
 43
1.0
 76
     1
 77
     6
 78
     2
 67
     7
 79
     5
170
     0
171
     0
290
     0
174
     0
 93
        1
 44
0.0
173
     0
291
     1
 45
0.0
1001
ACAD
1000
AcDbSavedByObjectVersion
1070
     0
  0
VISUALSTYLE
  5
30C
102
{ACAD_XDICTIONARY
360
5D54
102
}
102
{ACAD_REACTORS
330
30B
102
}
330
30B
100
AcDbVisualStyle
  2
Flat
 70
     0
 71
     2
 72
     1
 73
     1
 90
        2
 40
-0.6
 41
30.0
 62
     5
 63
     7
421
 16777215
 74
     0
 91
        4
 64
     7
 65
   257
 75
     1
175
     1
 42
1.0
 92
        8
 66
     7
 43
1.0
 76
     1
 77
     6
 78
     2
 67
     7
 79
     5
170
     0
171
     0
290
     0
174
     0
 93
       13
 44
0.0
173
     0
291
     1
 45
0.0
1001
ACAD
1000
AcDbSavedByObjectVersion
1070
     0
  0
VISUALSTYLE
  5
30D
102
{ACAD_XDICTIONARY
360
5D56
102
}
102
{ACAD_REACTORS
330
30B
102
}
330
30B
100
AcDbVisualStyle
  2
FlatWithEdges
 70
     1
 71
     2
 72
     1
 73
     1
 90
        2
 40
-0.6
 41
30.0
 62
     5
 63
     7
421
 16777215
 74
     1
 91
        4
 64
     7
 65
   257
 75
     1
175
     1
 42
1.0
 92
        0
 66
   257
 43
1.0
 76
     1
 77
     6
 78
     2
 67
     7
 79
     5
170
     0
171
     0
290
     0
174
     0
 93
       13
 44
0.0
173
     0
291
     1
 45
0.0
1001
ACAD
1000
AcDbSavedByObjectVersion
1070
     0
  0
VISUALSTYLE
  5
30E
102
{ACAD_XDICTIONARY
360
5D58
102
}
102
{ACAD_REACTORS
330
30B
102
}
330
30B
100
AcDbVisualStyle
  2
Gouraud
 70
     2
 71
     2
 72
     2
 73
     1
 90
        2
 40
-0.6
 41
30.0
 62
     5
 63
     7
421
 16777215
 74
     0
 91
        4
 64
     7
 65
   257
 75
     1
175
     1
 42
1.0
 92
        0
 66
     7
 43
1.0
 76
     1
 77
     6
 78
     2
 67
     7
 79
     5
170
     0
171
     0
290
     0
174
     0
 93
       13
 44
0.0
173
     0
291
     1
 45
0.0
1001
ACAD
1000
AcDbSavedByObjectVersion
1070
     0
  0
VISUALSTYLE
  5
30F
102
{ACAD_XDICTIONARY
360
5D5A
102
}
102
{ACAD_REACTORS
330
30B
102
}
330
30B
100
AcDbVisualStyle
  2
GouraudWithEdges
 70
     3
 71
     2
 72
     2
 73
     1
 90
        2
 40
-0.6
 41
30.0
 62
     5
 63
     7
421
 16777215
 74
     1
 91
        4
 64
     7
 65
   257
 75
     1
175
     1
 42
1.0
 92
        0
 66
   257
 43
1.0
 76
     1
 77
     6
 78
     2
 67
     7
 79
     5
170
     0
171
     0
290
     0
174
     0
 93
       13
 44
0.0
173
     0
291
     1
 45
0.0
1001
ACAD
1000
AcDbSavedByObjectVersion
1070
     0
  0
VISUALSTYLE
  5
39C
102
{ACAD_XDICTIONARY
360
5D78
102
}
102
{ACAD_REACTORS
330
30B
102
}
330
30B
100
AcDbVisualStyle
  2
Hidden
 70
     6
 71
     1
 72
     2
 73
     2
 90
        0
 40
-0.6
 41
-30.0
 62
     5
 63
     7
421
 16777215
 74
     2
 91
        2
 64
     7
 65
   257
 75
     2
175
     1
 42
40.0
 92
        0
 66
   257
 43
1.0
 76
     1
 77
     6
 78
     2
 67
     7
 79
     3
170
     0
171
     0
290
     0
174
     0
 93
        1
 44
0.0
173
     0
291
     0
 45
0.0
1001
ACAD
1000
AcDbSavedByObjectVersion
1070
     0
  0
VISUALSTYLE
  5
39D
102
{ACAD_XDICTIONARY
360
5D7A
102
}
102
{ACAD_REACTORS
330
30B
102
}
330
30B
100
AcDbVisualStyle
  2
JitterOff
 70
    20
 71
     2
 72
     2
 73
     0
 90
        0
 40
-0.6
 41
-30.0
 62
     5
 63
     7
421
 16777215
 74
     1
 91
        4
 64
     7
 65
   257
 75
     1
175
     1
 42
1.0
 92
       10
 66
     7
 43
1.0
 76
     1
 77
     6
 78
     2
 67
     7
 79
     5
170
     0
171
     0
290
     0
174
     0
 93
        1
 44
0.0
173
     0
291
     1
 45
0.0
1001
ACAD
1000
AcDbSavedByObjectVersion
1070
     0
  0
VISUALSTYLE
  5
319
102
{ACAD_XDICTIONARY
360
5D6E
102
}
102
{ACAD_REACTORS
330
30B
102
}
330
30B
100
AcDbVisualStyle
  2
Linepattern
 70
    14
 71
     2
 72
     2
 73
     0
 90
        0
 40
-0.6
 41
-30.0
 62
     5
 63
     7
421
 16777215
 74
     1
 91
        4
 64
     7
 65
   257
 75
     7
175
     7
 42
1.0
 92
        8
 66
     7
 43
1.0
 76
     1
 77
     6
 78
     2
 67
     7
 79
     5
170
     0
171
     0
290
     0
174
     0
 93
        1
 44
0.0
173
     0
291
     1
 45
0.0
1001
ACAD
1000
AcDbSavedByObjectVersion
1070
     0
  0
VISUALSTYLE
  5
39E
102
{ACAD_XDICTIONARY
360
5D7C
102
}
102
{ACAD_REACTORS
330
30B
102
}
330
30B
100
AcDbVisualStyle
  2
OverhangOff
 70
    21
 71
     2
 72
     2
 73
     0
 90
        0
 40
-0.6
 41
-30.0
 62
     5
 63
     7
421
 16777215
 74
     1
 91
        4
 64
     7
 65
   257
 75
     1
175
     1
 42
1.0
 92
        9
 66
     7
 43
1.0
 76
     1
 77
     6
 78
     2
 67
     7
 79
     5
170
     0
171
     0
290
     0
174
     0
 93
        1
 44
0.0
173
     0
291
     1
 45
0.0
1001
ACAD
1000
AcDbSavedByObjectVersion
1070
     0
  0
VISUALSTYLE
  5
315
102
{ACAD_XDICTIONARY
360
5D66
102
}
102
{ACAD_REACTORS
330
30B
102
}
330
30B
100
AcDbVisualStyle
  2
Realistic
 70
     8
 71
     2
 72
     2
 73
     0
 90
        0
 40
-0.6
 41
-30.0
 62
     5
 63
     7
421
 16777215
 74
     1
 91
        0
 64
     7
 65
   257
 75
     1
175
     1
 42
1.0
 92
        8
 66
     8
424
  7895160
 43
1.0
 76
     1
 77
     6
 78
     2
 67
     7
 79
     5
170
     0
171
     0
290
     0
174
     0
 93
       13
 44
0.0
173
     0
291
     0
 45
0.0
1001
ACAD
1000
AcDbSavedByObjectVersion
1070
     0
  0
VISUALSTYLE
  5
3A4
102
{ACAD_XDICTIONARY
360
5D88
102
}
102
{ACAD_REACTORS
330
30B
102
}
330
30B
100
AcDbVisualStyle
  2
Shaded
 70
    27
 71
     2
 72
     2
 73
     1
 90
        2
 40
-0.6
 41
30.0
 62
     5
 63
     7
421
 16777215
 74
     0
 91
        4
 64
     7
 65
   257
 75
     1
175
     1
 42
1.0
 92
        8
 66
   257
 43
1.0
 76
     1
 77
     6
 78
     2
 67
     8
425
  7895160
 79
     3
170
     0
171
     0
290
     0
174
     0
 93
        5
 44
0.0
173
     0
291
     0
 45
0.0
1001
ACAD
1000
AcDbSavedByObjectVersion
1070
     0
  0
VISUALSTYLE
  5
3A3
102
{ACAD_XDICTIONARY
360
5D86
102
}
102
{ACAD_REACTORS
330
30B
102
}
330
30B
100
AcDbVisualStyle
  2
Shaded with edges
 70
    26
 71
     2
 72
     2
 73
     1
 90
        2
 40
-0.6
 41
30.0
 62
     5
 63
     7
421
 16777215
 74
     1
 91
       10
 64
     7
 65
   257
 75
     2
175
     1
 42
1.0
 92
        8
 66
   257
 43
1.0
 76
     1
 77
     6
 78
     2
 67
     7
 79
     3
170
     0
171
     0
290
     0
174
     0
 93
        5
 44
0.0
173
     0
291
     0
 45
0.0
1001
ACAD
1000
AcDbSavedByObjectVersion
1070
     0
  0
VISUALSTYLE
  5
3A0
102
{ACAD_XDICTIONARY
360
5D80
102
}
102
{ACAD_REACTORS
330
30B
102
}
330
30B
100
AcDbVisualStyle
  2
Shades of Gray
 70
    23
 71
     2
 72
     2
 73
     3
 90
        0
 40
-0.6
 41
-30.0
 62
     5
 63
     7
421
 16777215
 74
     2
 91
        2
 64
     7
 65
     7
 75
     1
175
     1
 42
40.0
 92
        8
 66
     7
 43
1.0
 76
     1
 77
     6
 78
     2
 67
     7
 79
     3
170
     0
171
     0
290
     0
174
     0
 93
        1
 44
0.0
173
     0
291
     0
 45
0.0
1001
ACAD
1000
AcDbSavedByObjectVersion
1070
     0
  0
VISUALSTYLE
  5
3A1
102
{ACAD_XDICTIONARY
360
5D82
102
}
102
{ACAD_REACTORS
330
30B
102
}
330
30B
100
AcDbVisualStyle
  2
Sketchy
 70
    24
 71
     1
 72
     2
 73
     2
 90
        0
 40
-0.6
 41
-30.0
 62
     5
 63
     7
421
 16777215
 74
     2
 91
        2
 64
     7
 65
     7
 75
     1
175
     1
 42
40.0
 92
       11
 66
     7
 43
1.0
 76
     1
 77
     6
 78
     2
 67
     7
 79
     6
170
     0
171
     0
290
     0
174
     0
 93
        1
 44
0.0
173
     0
291
     0
 45
0.0
1001
ACAD
1000
AcDbSavedByObjectVersion
1070
     0
  0
VISUALSTYLE
  5
318
102
{ACAD_XDICTIONARY
360
5D6C
102
}
102
{ACAD_REACTORS
330
30B
102
}
330
30B
100
AcDbVisualStyle
  2
Thicken
 70
    13
 71
     2
 72
     2
 73
     0
 90
        0
 40
-0.6
 41
-30.0
 62
     5
 63
     7
421
 16777215
 74
     1
 91
        4
 64
     7
 65
   257
 75
     1
175
     1
 42
1.0
 92
       12
 66
     7
 43
1.0
 76
     1
 77
     6
 78
     2
 67
     7
 79
     5
170
     0
171
     0
290
     0
174
     0
 93
        1
 44
0.0
173
     0
291
     1
 45
0.0
1001
ACAD
1000
AcDbSavedByObjectVersion
1070
     0
  0
VISUALSTYLE
  5
39B
102
{ACAD_XDICTIONARY
360
5D76
102
}
102
{ACAD_REACTORS
330
30B
102
}
330
30B
100
AcDbVisualStyle
  2
Wireframe
 70
     5
 71
     0
 72
     2
 73
     0
 90
        0
 40
-0.6
 41
-30.0
 62
     5
 63
     7
421
 16777215
 74
     1
 91
        4
 64
     7
 65
   257
 75
     1
175
     1
 42
1.0
 92
        0
 66
   257
 43
1.0
 76
     1
 77
     6
 78
     2
 67
     7
 79
     3
170
     0
171
     0
290
     0
174
     0
 93
        1
 44
0.0
173
     0
291
     0
 45
0.0
1001
ACAD
1000
AcDbSavedByObjectVersion
1070
     0
  0
VISUALSTYLE
  5
3A2
102
{ACAD_XDICTIONARY
360
5D84
102
}
102
{ACAD_REACTORS
330
30B
102
}
330
30B
100
AcDbVisualStyle
  2
X-Ray
 70
    25
 71
     2
 72
     2
 73
     1
 90
        1
 40
0.5
 41
-30.0
 62
     5
 63
     7
421
 16777215
 74
     1
 91
        0
 64
     7
 65
   257
 75
     1
175
     1
 42
1.0
 92
        8
 66
     7
 43
1.0
 76
     1
 77
     6
 78
     2
 67
     7
 79
     3
170
     0
171
     0
290
     0
174
     0
 93
       13
 44
0.0
173
     0
291
     0
 45
0.0
1001
ACAD
1000
AcDbSavedByObjectVersion
1070
     0
  0
DICTIONARYVAR
  5
34A
102
{ACAD_REACTORS
330
347
102
}
330
347
100
DictionaryVariables
280
     0
  1
1:1
  0
DICTIONARYVAR
  5
349
102
{ACAD_REACTORS
330
347
102
}
330
347
100
DictionaryVariables
280
     0
  1
STANDARD
  0
DICTIONARYVAR
  5
348
102
{ACAD_REACTORS
330
347
102
}
330
347
100
DictionaryVariables
280
     0
  1
STANDARD
  0
DICTIONARYVAR
  5
3DF
102
{ACAD_REACTORS
330
347
102
}
330
347
100
DictionaryVariables
280
     0
  1
0
  0
DICTIONARY
  5
3A8
330
31E
100
AcDbDictionary
280
     1
281
     1
  3
ACAD_ROUNDTRIP_2008_TABLESTYLE_CELLSTYLEMAP
360
5D75
  3
ACAD_XREC_ROUNDTRIP
360
5D74
  0
DICTIONARY
  5
5D5E
330
311
100
AcDbDictionary
280
     1
281
     1
  3
ACAD_XREC_ROUNDTRIP
360
5D5F
  0
DICTIONARY
  5
5D62
330
313
100
AcDbDictionary
280
     1
281
     1
  3
ACAD_XREC_ROUNDTRIP
360
5D63
  0
DICTIONARY
  5
5D60
330
312
100
AcDbDictionary
280
     1
281
     1
  3
ACAD_XREC_ROUNDTRIP
360
5D61
  0
DICTIONARY
  5
5D5C
330
310
100
AcDbDictionary
280
     1
281
     1
  3
ACAD_XREC_ROUNDTRIP
360
5D5D
  0
DICTIONARY
  5
5D6A
330
317
100
AcDbDictionary
280
     1
281
     1
  3
ACAD_XREC_ROUNDTRIP
360
5D6B
  0
DICTIONARY
  5
5D72
330
31B
100
AcDbDictionary
280
     1
281
     1
  3
ACAD_XREC_ROUNDTRIP
360
5D73
  0
DICTIONARY
  5
5D64
330
314
100
AcDbDictionary
280
     1
281
     1
  3
ACAD_XREC_ROUNDTRIP
360
5D65
  0
DICTIONARY
  5
5D68
330
316
100
AcDbDictionary
280
     1
281
     1
  3
ACAD_XREC_ROUNDTRIP
360
5D69
  0
DICTIONARY
  5
5D7E
330
39F
100
AcDbDictionary
280
     1
281
     1
  3
ACAD_XREC_ROUNDTRIP
360
5D7F
  0
DICTIONARY
  5
5D70
330
31A
100
AcDbDictionary
280
     1
281
     1
  3
ACAD_XREC_ROUNDTRIP
360
5D71
  0
DICTIONARY
  5
5D54
330
30C
100
AcDbDictionary
280
     1
281
     1
  3
ACAD_XREC_ROUNDTRIP
360
5D55
  0
DICTIONARY
  5
5D56
330
30D
100
AcDbDictionary
280
     1
281
     1
  3
ACAD_XREC_ROUNDTRIP
360
5D57
  0
DICTIONARY
  5
5D58
330
30E
100
AcDbDictionary
280
     1
281
     1
  3
ACAD_XREC_ROUNDTRIP
360
5D59
  0
DICTIONARY
  5
5D5A
330
30F
100
AcDbDictionary
280
     1
281
     1
  3
ACAD_XREC_ROUNDTRIP
360
5D5B
  0
DICTIONARY
  5
5D78
330
39C
100
AcDbDictionary
280
     1
281
     1
  3
ACAD_XREC_ROUNDTRIP
360
5D79
  0
DICTIONARY
  5
5D7A
330
39D
100
AcDbDictionary
280
     1
281
     1
  3
ACAD_XREC_ROUNDTRIP
360
5D7B
  0
DICTIONARY
  5
5D6E
330
319
100
AcDbDictionary
280
     1
281
     1
  3
ACAD_XREC_ROUNDTRIP
360
5D6F
  0
DICTIONARY
  5
5D7C
330
39E
100
AcDbDictionary
280
     1
281
     1
  3
ACAD_XREC_ROUNDTRIP
360
5D7D
  0
DICTIONARY
  5
5D66
330
315
100
AcDbDictionary
280
     1
281
     1
  3
ACAD_XREC_ROUNDTRIP
360
5D67
  0
DICTIONARY
  5
5D88
330
3A4
100
AcDbDictionary
280
     1
281
     1
  3
ACAD_XREC_ROUNDTRIP
360
5D89
  0
DICTIONARY
  5
5D86
330
3A3
100
AcDbDictionary
280
     1
281
     1
  3
ACAD_XREC_ROUNDTRIP
360
5D87
  0
DICTIONARY
  5
5D80
330
3A0
100
AcDbDictionary
280
     1
281
     1
  3
ACAD_XREC_ROUNDTRIP
360
5D81
  0
DICTIONARY
  5
5D82
330
3A1
100
AcDbDictionary
280
     1
281
     1
  3
ACAD_XREC_ROUNDTRIP
360
5D83
  0
DICTIONARY
  5
5D6C
330
318
100
AcDbDictionary
280
     1
281
     1
  3
ACAD_XREC_ROUNDTRIP
360
5D6D
  0
DICTIONARY
  5
5D76
330
39B
100
AcDbDictionary
280
     1
281
     1
  3
ACAD_XREC_ROUNDTRIP
360
5D77
  0
DICTIONARY
  5
5D84
330
3A2
100
AcDbDictionary
280
     1
281
     1
  3
ACAD_XREC_ROUNDTRIP
360
5D85
  0
CELLSTYLEMAP
  5
5D75
102
{ACAD_REACTORS
330
3A8
102
}
330
3A8
100
AcDbCellStyleMap
 90
        3
300
CELLSTYLE
  1
TABLEFORMAT_BEGIN
 90
        5
170
     1
 91
        0
 92
        0
 62
   257
 93
        1
300
CONTENTFORMAT
  1
CONTENTFORMAT_BEGIN
 90
        0
 91
        0
 92
        4
 93
        0
300

 40
0.0
140
1.0
 94
        5
 62
     0
340
11
144
6.0
309
CONTENTFORMAT_END
171
     1
301
MARGIN
  1
CELLMARGIN_BEGIN
 40
1.5
 40
1.5
 40
1.5
 40
1.5
 40
4.5
 40
4.5
309
CELLMARGIN_END
 94
        6
 95
        1
302
GRIDFORMAT
  1
GRIDFORMAT_BEGIN
 90
        0
 91
        1
 62
     0
 92
       -2
340
0
 93
        0
 40
0.045
309
GRIDFORMAT_END
 95
        2
302
GRIDFORMAT
  1
GRIDFORMAT_BEGIN
 90
        0
 91
        1
 62
     0
 92
       -2
340
0
 93
        0
 40
0.045
309
GRIDFORMAT_END
 95
        4
302
GRIDFORMAT
  1
GRIDFORMAT_BEGIN
 90
        0
 91
        1
 62
     0
 92
       -2
340
0
 93
        0
 40
0.045
309
GRIDFORMAT_END
 95
        8
302
GRIDFORMAT
  1
GRIDFORMAT_BEGIN
 90
        0
 91
        1
 62
     0
 92
       -2
340
0
 93
        0
 40
0.045
309
GRIDFORMAT_END
 95
       16
302
GRIDFORMAT
  1
GRIDFORMAT_BEGIN
 90
        0
 91
        1
 62
     0
 92
       -2
340
0
 93
        0
 40
0.045
309
GRIDFORMAT_END
 95
       32
302
GRIDFORMAT
  1
GRIDFORMAT_BEGIN
 90
        0
 91
        1
 62
     0
 92
       -2
340
0
 93
        0
 40
0.045
309
GRIDFORMAT_END
309
TABLEFORMAT_END
  1
CELLSTYLE_BEGIN
 90
        1
 91
        1
300
_TITLE
309
CELLSTYLE_END
300
CELLSTYLE
  1
TABLEFORMAT_BEGIN
 90
        5
170
     1
 91
        0
 92
        0
 62
   257
 93
        1
300
CONTENTFORMAT
  1
CONTENTFORMAT_BEGIN
 90
        0
 91
        0
 92
        4
 93
        0
300

 40
0.0
140
1.0
 94
        5
 62
     0
340
11
144
4.5
309
CONTENTFORMAT_END
171
     1
301
MARGIN
  1
CELLMARGIN_BEGIN
 40
1.5
 40
1.5
 40
1.5
 40
1.5
 40
4.5
 40
4.5
309
CELLMARGIN_END
 94
        6
 95
        1
302
GRIDFORMAT
  1
GRIDFORMAT_BEGIN
 90
        0
 91
        1
 62
     0
 92
       -2
340
0
 93
        0
 40
0.045
309
GRIDFORMAT_END
 95
        2
302
GRIDFORMAT
  1
GRIDFORMAT_BEGIN
 90
        0
 91
        1
 62
     0
 92
       -2
340
0
 93
        0
 40
0.045
309
GRIDFORMAT_END
 95
        4
302
GRIDFORMAT
  1
GRIDFORMAT_BEGIN
 90
        0
 91
        1
 62
     0
 92
       -2
340
0
 93
        0
 40
0.045
309
GRIDFORMAT_END
 95
        8
302
GRIDFORMAT
  1
GRIDFORMAT_BEGIN
 90
        0
 91
        1
 62
     0
 92
       -2
340
0
 93
        0
 40
0.045
309
GRIDFORMAT_END
 95
       16
302
GRIDFORMAT
  1
GRIDFORMAT_BEGIN
 90
        0
 91
        1
 62
     0
 92
       -2
340
0
 93
        0
 40
0.045
309
GRIDFORMAT_END
 95
       32
302
GRIDFORMAT
  1
GRIDFORMAT_BEGIN
 90
        0
 91
        1
 62
     0
 92
       -2
340
0
 93
        0
 40
0.045
309
GRIDFORMAT_END
309
TABLEFORMAT_END
  1
CELLSTYLE_BEGIN
 90
        2
 91
        1
300
_HEADER
309
CELLSTYLE_END
300
CELLSTYLE
  1
TABLEFORMAT_BEGIN
 90
        5
170
     1
 91
        0
 92
        0
 62
   257
 93
        1
300
CONTENTFORMAT
  1
CONTENTFORMAT_BEGIN
 90
        0
 91
        0
 92
        4
 93
        0
300

 40
0.0
140
1.0
 94
        2
 62
     0
340
11
144
4.5
309
CONTENTFORMAT_END
171
     1
301
MARGIN
  1
CELLMARGIN_BEGIN
 40
1.5
 40
1.5
 40
1.5
 40
1.5
 40
4.5
 40
4.5
309
CELLMARGIN_END
 94
        6
 95
        1
302
GRIDFORMAT
  1
GRIDFORMAT_BEGIN
 90
        0
 91
        1
 62
     0
 92
       -2
340
0
 93
        0
 40
0.045
309
GRIDFORMAT_END
 95
        2
302
GRIDFORMAT
  1
GRIDFORMAT_BEGIN
 90
        0
 91
        1
 62
     0
 92
       -2
340
0
 93
        0
 40
0.045
309
GRIDFORMAT_END
 95
        4
302
GRIDFORMAT
  1
GRIDFORMAT_BEGIN
 90
        0
 91
        1
 62
     0
 92
       -2
340
0
 93
        0
 40
0.045
309
GRIDFORMAT_END
 95
        8
302
GRIDFORMAT
  1
GRIDFORMAT_BEGIN
 90
        0
 91
        1
 62
     0
 92
       -2
340
0
 93
        0
 40
0.045
309
GRIDFORMAT_END
 95
       16
302
GRIDFORMAT
  1
GRIDFORMAT_BEGIN
 90
        0
 91
        1
 62
     0
 92
       -2
340
0
 93
        0
 40
0.045
309
GRIDFORMAT_END
 95
       32
302
GRIDFORMAT
  1
GRIDFORMAT_BEGIN
 90
        0
 91
        1
 62
     0
 92
       -2
340
0
 93
        0
 40
0.045
309
GRIDFORMAT_END
309
TABLEFORMAT_END
  1
CELLSTYLE_BEGIN
 90
        3
 91
        2
300
_DATA
309
CELLSTYLE_END
  0
XRECORD
  5
5D74
102
{ACAD_REACTORS
330
3A8
102
}
330
3A8
100
AcDbXrecord
280
     1
102
ACAD_ROUNDTRIP_PRE2007_TABLESTYLE
 90
        4
 91
        0
  1

 92
        4
 93
        0
  2

 94
        4
 95
        0
  3

  0
XRECORD
  5
5D5F
102
{ACAD_REACTORS
330
5D5E
102
}
330
5D5E
100
AcDbXrecord
280
     1
102
RTVSPropertyOp0
 70
     1
102
RTVSPropertyOp1
 70
     1
102
RTVSPropertyOp2
 70
     1
102
RTVSPropertyOp3
 70
     1
102
RTVSPropertyOp4
 70
     1
102
RTVSPropertyOp5
 70
     1
102
RTVSPropertyOp6
 70
     1
102
RTVSPropertyOp7
 70
     1
102
RTVSPropertyOp8
 70
     1
102
RTVSPropertyOp9
 70
     1
102
RTVSPropertyOp10
 70
     1
102
RTVSPropertyOp11
 70
     1
102
RTVSPropertyOp12
 70
     1
102
RTVSPropertyOp13
 70
     1
102
RTVSPropertyOp14
 70
     1
102
RTVSPropertyOp15
 70
     1
102
RTVSPropertyOp16
 70
     1
102
RTVSPropertyOp17
 70
     1
102
RTVSPropertyOp18
 70
     1
102
RTVSPropertyOp19
 70
     1
102
RTVSPropertyOp20
 70
     1
102
RTVSPropertyOp21
 70
     1
102
RTVSPropertyOp22
 70
     1
102
RTVSPropertyOp23
 70
     1
102
RTVSPropertyOp24
 70
     1
102
RTVSPropertyOp25
 70
     1
102
RTVSPropertyOp26
 70
     1
102
RTVSPropertyOp27
 70
     1
  0
XRECORD
  5
5D63
102
{ACAD_REACTORS
330
5D62
102
}
330
5D62
100
AcDbXrecord
280
     1
102
RTVSPropertyOp0
 70
     1
102
RTVSPropertyOp1
 70
     1
102
RTVSPropertyOp2
 70
     1
102
RTVSPropertyOp3
 70
     1
102
RTVSPropertyOp4
 70
     1
102
RTVSPropertyOp5
 70
     1
102
RTVSPropertyOp6
 70
     1
102
RTVSPropertyOp7
 70
     1
102
RTVSPropertyOp8
 70
     1
102
RTVSPropertyOp9
 70
     1
102
RTVSPropertyOp10
 70
     1
102
RTVSPropertyOp11
 70
     1
102
RTVSPropertyOp12
 70
     1
102
RTVSPropertyOp13
 70
     1
102
RTVSPropertyOp14
 70
     1
102
RTVSPropertyOp15
 70
     1
102
RTVSPropertyOp16
 70
     1
102
RTVSPropertyOp17
 70
     1
102
RTVSPropertyOp18
 70
     1
102
RTVSPropertyOp19
 70
     1
102
RTVSPropertyOp20
 70
     1
102
RTVSPropertyOp21
 70
     1
102
RTVSPropertyOp22
 70
     1
102
RTVSPropertyOp23
 70
     1
102
RTVSPropertyOp24
 70
     1
102
RTVSPropertyOp25
 70
     1
102
RTVSPropertyOp26
 70
     1
102
RTVSPropertyOp27
 70
     1
  0
XRECORD
  5
5D61
102
{ACAD_REACTORS
330
5D60
102
}
330
5D60
100
AcDbXrecord
280
     1
102
RTVSPropertyOp0
 70
     1
102
RTVSPropertyOp1
 70
     1
102
RTVSPropertyOp2
 70
     1
102
RTVSPropertyOp3
 70
     1
102
RTVSPropertyOp4
 70
     1
102
RTVSPropertyOp5
 70
     1
102
RTVSPropertyOp6
 70
     1
102
RTVSPropertyOp7
 70
     1
102
RTVSPropertyOp8
 70
     1
102
RTVSPropertyOp9
 70
     1
102
RTVSPropertyOp10
 70
     1
102
RTVSPropertyOp11
 70
     1
102
RTVSPropertyOp12
 70
     1
102
RTVSPropertyOp13
 70
     1
102
RTVSPropertyOp14
 70
     1
102
RTVSPropertyOp15
 70
     1
102
RTVSPropertyOp16
 70
     1
102
RTVSPropertyOp17
 70
     1
102
RTVSPropertyOp18
 70
     1
102
RTVSPropertyOp19
 70
     1
102
RTVSPropertyOp20
 70
     1
102
RTVSPropertyOp21
 70
     1
102
RTVSPropertyOp22
 70
     1
102
RTVSPropertyOp23
 70
     1
102
RTVSPropertyOp24
 70
     1
102
RTVSPropertyOp25
 70
     1
102
RTVSPropertyOp26
 70
     1
102
RTVSPropertyOp27
 70
     1
  0
XRECORD
  5
5D5D
102
{ACAD_REACTORS
330
5D5C
102
}
330
5D5C
100
AcDbXrecord
280
     1
102
RTVSPropertyOp0
 70
     1
102
RTVSPropertyOp1
 70
     1
102
RTVSPropertyOp2
 70
     1
102
RTVSPropertyOp3
 70
     1
102
RTVSPropertyOp4
 70
     1
102
RTVSPropertyOp5
 70
     1
102
RTVSPropertyOp6
 70
     1
102
RTVSPropertyOp7
 70
     1
102
RTVSPropertyOp8
 70
     1
102
RTVSPropertyOp9
 70
     1
102
RTVSPropertyOp10
 70
     1
102
RTVSPropertyOp11
 70
     1
102
RTVSPropertyOp12
 70
     1
102
RTVSPropertyOp13
 70
     1
102
RTVSPropertyOp14
 70
     1
102
RTVSPropertyOp15
 70
     1
102
RTVSPropertyOp16
 70
     1
102
RTVSPropertyOp17
 70
     1
102
RTVSPropertyOp18
 70
     1
102
RTVSPropertyOp19
 70
     1
102
RTVSPropertyOp20
 70
     1
102
RTVSPropertyOp21
 70
     1
102
RTVSPropertyOp22
 70
     1
102
RTVSPropertyOp23
 70
     1
102
RTVSPropertyOp24
 70
     1
102
RTVSPropertyOp25
 70
     1
102
RTVSPropertyOp26
 70
     1
102
RTVSPropertyOp27
 70
     1
  0
XRECORD
  5
5D6B
102
{ACAD_REACTORS
330
5D6A
102
}
330
5D6A
100
AcDbXrecord
280
     1
102
RTVSPropertyOp0
 70
     1
102
RTVSPropertyOp1
 70
     1
102
RTVSPropertyOp2
 70
     1
102
RTVSPropertyOp3
 70
     1
102
RTVSPropertyOp4
 70
     1
102
RTVSPropertyOp5
 70
     1
102
RTVSPropertyOp6
 70
     1
102
RTVSPropertyOp7
 70
     1
102
RTVSPropertyOp8
 70
     1
102
RTVSPropertyOp9
 70
     1
102
RTVSPropertyOp10
 70
     1
102
RTVSPropertyOp11
 70
     1
102
RTVSPropertyOp12
 70
     1
102
RTVSPropertyOp13
 70
     1
102
RTVSPropertyOp14
 70
     1
102
RTVSPropertyOp15
 70
     1
102
RTVSPropertyOp16
 70
     1
102
RTVSPropertyOp17
 70
     1
102
RTVSPropertyOp18
 70
     1
102
RTVSPropertyOp19
 70
     1
102
RTVSPropertyOp20
 70
     1
102
RTVSPropertyOp21
 70
     1
102
RTVSPropertyOp22
 70
     1
102
RTVSPropertyOp23
 70
     1
102
RTVSPropertyOp24
 70
     1
102
RTVSPropertyOp25
 70
     1
102
RTVSPropertyOp26
 70
     1
102
RTVSPropertyOp27
 70
     1
  0
XRECORD
  5
5D73
102
{ACAD_REACTORS
330
5D72
102
}
330
5D72
100
AcDbXrecord
280
     1
102
RTVSPropertyOp0
 70
     1
102
RTVSPropertyOp1
 70
     1
102
RTVSPropertyOp2
 70
     1
102
RTVSPropertyOp3
 70
     1
102
RTVSPropertyOp4
 70
     1
102
RTVSPropertyOp5
 70
     1
102
RTVSPropertyOp6
 70
     1
102
RTVSPropertyOp7
 70
     1
102
RTVSPropertyOp8
 70
     1
102
RTVSPropertyOp9
 70
     1
102
RTVSPropertyOp10
 70
     1
102
RTVSPropertyOp11
 70
     1
102
RTVSPropertyOp12
 70
     1
102
RTVSPropertyOp13
 70
     1
102
RTVSPropertyOp14
 70
     1
102
RTVSPropertyOp15
 70
     1
102
RTVSPropertyOp16
 70
     1
102
RTVSPropertyOp17
 70
     1
102
RTVSPropertyOp18
 70
     1
102
RTVSPropertyOp19
 70
     1
102
RTVSPropertyOp20
 70
     1
102
RTVSPropertyOp21
 70
     1
102
RTVSPropertyOp22
 70
     1
102
RTVSPropertyOp23
 70
     1
102
RTVSPropertyOp24
 70
     1
102
RTVSPropertyOp25
 70
     1
102
RTVSPropertyOp26
 70
     1
102
RTVSPropertyOp27
 70
     1
  0
XRECORD
  5
5D65
102
{ACAD_REACTORS
330
5D64
102
}
330
5D64
100
AcDbXrecord
280
     1
102
RTVSPropertyOp0
 70
     1
102
RTVSPropertyOp1
 70
     1
102
RTVSPropertyOp2
 70
     1
102
RTVSPropertyOp3
 70
     1
102
RTVSPropertyOp4
 70
     1
102
RTVSPropertyOp5
 70
     1
102
RTVSPropertyOp6
 70
     1
102
RTVSPropertyOp7
 70
     1
102
RTVSPropertyOp8
 70
     1
102
RTVSPropertyOp9
 70
     1
102
RTVSPropertyOp10
 70
     1
102
RTVSPropertyOp11
 70
     1
102
RTVSPropertyOp12
 70
     1
102
RTVSPropertyOp13
 70
     1
102
RTVSPropertyOp14
 70
     1
102
RTVSPropertyOp15
 70
     1
102
RTVSPropertyOp16
 70
     1
102
RTVSPropertyOp17
 70
     1
102
RTVSPropertyOp18
 70
     1
102
RTVSPropertyOp19
 70
     1
102
RTVSPropertyOp20
 70
     1
102
RTVSPropertyOp21
 70
     1
102
RTVSPropertyOp22
 70
     1
102
RTVSPropertyOp23
 70
     1
102
RTVSPropertyOp24
 70
     1
102
RTVSPropertyOp25
 70
     1
102
RTVSPropertyOp26
 70
     1
102
RTVSPropertyOp27
 70
     1
  0
XRECORD
  5
5D69
102
{ACAD_REACTORS
330
5D68
102
}
330
5D68
100
AcDbXrecord
280
     1
102
RTVSPropertyOp0
 70
     1
102
RTVSPropertyOp1
 70
     1
102
RTVSPropertyOp2
 70
     1
102
RTVSPropertyOp3
 70
     1
102
RTVSPropertyOp4
 70
     1
102
RTVSPropertyOp5
 70
     1
102
RTVSPropertyOp6
 70
     1
102
RTVSPropertyOp7
 70
     1
102
RTVSPropertyOp8
 70
     1
102
RTVSPropertyOp9
 70
     1
102
RTVSPropertyOp10
 70
     1
102
RTVSPropertyOp11
 70
     1
102
RTVSPropertyOp12
 70
     1
102
RTVSPropertyOp13
 70
     1
102
RTVSPropertyOp14
 70
     1
102
RTVSPropertyOp15
 70
     1
102
RTVSPropertyOp16
 70
     1
102
RTVSPropertyOp17
 70
     1
102
RTVSPropertyOp18
 70
     1
102
RTVSPropertyOp19
 70
     1
102
RTVSPropertyOp20
 70
     1
102
RTVSPropertyOp21
 70
     1
102
RTVSPropertyOp22
 70
     1
102
RTVSPropertyOp23
 70
     1
102
RTVSPropertyOp24
 70
     1
102
RTVSPropertyOp25
 70
     1
102
RTVSPropertyOp26
 70
     1
102
RTVSPropertyOp27
 70
     1
  0
XRECORD
  5
5D7F
102
{ACAD_REACTORS
330
5D7E
102
}
330
5D7E
100
AcDbXrecord
280
     1
102
RTVSPropertyOp0
 70
     0
102
RTVSPropertyOp1
 70
     0
102
RTVSPropertyOp2
 70
     0
102
RTVSPropertyOp3
 70
     0
102
RTVSPropertyOp4
 70
     0
102
RTVSPropertyOp5
 70
     0
102
RTVSPropertyOp6
 70
     0
102
RTVSPropertyOp7
 70
     0
102
RTVSPropertyOp8
 70
     0
102
RTVSPropertyOp9
 70
     0
102
RTVSPropertyOp10
 70
     0
102
RTVSPropertyOp11
 70
     0
102
RTVSPropertyOp12
 70
     0
102
RTVSPropertyOp13
 70
     0
102
RTVSPropertyOp14
 70
     2
102
RTVSPropertyOp15
 70
     0
102
RTVSPropertyOp16
 70
     0
102
RTVSPropertyOp17
 70
     0
102
RTVSPropertyOp18
 70
     0
102
RTVSPropertyOp19
 70
     0
102
RTVSPropertyOp20
 70
     0
102
RTVSPropertyOp21
 70
     0
102
RTVSPropertyOp22
 70
     0
102
RTVSPropertyOp23
 70
     0
102
RTVSPropertyOp24
 70
     0
102
RTVSPropertyOp25
 70
     0
102
RTVSPropertyOp26
 70
     0
102
RTVSPropertyOp27
 70
     0
  0
XRECORD
  5
5D71
102
{ACAD_REACTORS
330
5D70
102
}
330
5D70
100
AcDbXrecord
280
     1
102
RTVSPropertyOp0
 70
     1
102
RTVSPropertyOp1
 70
     1
102
RTVSPropertyOp2
 70
     1
102
RTVSPropertyOp3
 70
     1
102
RTVSPropertyOp4
 70
     1
102
RTVSPropertyOp5
 70
     1
102
RTVSPropertyOp6
 70
     1
102
RTVSPropertyOp7
 70
     1
102
RTVSPropertyOp8
 70
     1
102
RTVSPropertyOp9
 70
     1
102
RTVSPropertyOp10
 70
     1
102
RTVSPropertyOp11
 70
     1
102
RTVSPropertyOp12
 70
     1
102
RTVSPropertyOp13
 70
     1
102
RTVSPropertyOp14
 70
     1
102
RTVSPropertyOp15
 70
     1
102
RTVSPropertyOp16
 70
     1
102
RTVSPropertyOp17
 70
     1
102
RTVSPropertyOp18
 70
     1
102
RTVSPropertyOp19
 70
     1
102
RTVSPropertyOp20
 70
     1
102
RTVSPropertyOp21
 70
     1
102
RTVSPropertyOp22
 70
     1
102
RTVSPropertyOp23
 70
     1
102
RTVSPropertyOp24
 70
     1
102
RTVSPropertyOp25
 70
     1
102
RTVSPropertyOp26
 70
     1
102
RTVSPropertyOp27
 70
     1
  0
XRECORD
  5
5D55
102
{ACAD_REACTORS
330
5D54
102
}
330
5D54
100
AcDbXrecord
280
     1
102
RTVSPropertyOp0
 70
     1
102
RTVSPropertyOp1
 70
     1
102
RTVSPropertyOp2
 70
     1
102
RTVSPropertyOp3
 70
     1
102
RTVSPropertyOp4
 70
     1
102
RTVSPropertyOp5
 70
     1
102
RTVSPropertyOp6
 70
     1
102
RTVSPropertyOp7
 70
     1
102
RTVSPropertyOp8
 70
     1
102
RTVSPropertyOp9
 70
     1
102
RTVSPropertyOp10
 70
     1
102
RTVSPropertyOp11
 70
     1
102
RTVSPropertyOp12
 70
     1
102
RTVSPropertyOp13
 70
     1
102
RTVSPropertyOp14
 70
     1
102
RTVSPropertyOp15
 70
     1
102
RTVSPropertyOp16
 70
     1
102
RTVSPropertyOp17
 70
     1
102
RTVSPropertyOp18
 70
     1
102
RTVSPropertyOp19
 70
     1
102
RTVSPropertyOp20
 70
     1
102
RTVSPropertyOp21
 70
     1
102
RTVSPropertyOp22
 70
     1
102
RTVSPropertyOp23
 70
     1
102
RTVSPropertyOp24
 70
     1
102
RTVSPropertyOp25
 70
     1
102
RTVSPropertyOp26
 70
     1
102
RTVSPropertyOp27
 70
     1
  0
XRECORD
  5
5D57
102
{ACAD_REACTORS
330
5D56
102
}
330
5D56
100
AcDbXrecord
280
     1
102
RTVSPropertyOp0
 70
     1
102
RTVSPropertyOp1
 70
     1
102
RTVSPropertyOp2
 70
     1
102
RTVSPropertyOp3
 70
     1
102
RTVSPropertyOp4
 70
     1
102
RTVSPropertyOp5
 70
     1
102
RTVSPropertyOp6
 70
     1
102
RTVSPropertyOp7
 70
     1
102
RTVSPropertyOp8
 70
     1
102
RTVSPropertyOp9
 70
     1
102
RTVSPropertyOp10
 70
     1
102
RTVSPropertyOp11
 70
     1
102
RTVSPropertyOp12
 70
     1
102
RTVSPropertyOp13
 70
     1
102
RTVSPropertyOp14
 70
     1
102
RTVSPropertyOp15
 70
     1
102
RTVSPropertyOp16
 70
     1
102
RTVSPropertyOp17
 70
     1
102
RTVSPropertyOp18
 70
     1
102
RTVSPropertyOp19
 70
     1
102
RTVSPropertyOp20
 70
     1
102
RTVSPropertyOp21
 70
     1
102
RTVSPropertyOp22
 70
     1
102
RTVSPropertyOp23
 70
     1
102
RTVSPropertyOp24
 70
     1
102
RTVSPropertyOp25
 70
     1
102
RTVSPropertyOp26
 70
     1
102
RTVSPropertyOp27
 70
     1
  0
XRECORD
  5
5D59
102
{ACAD_REACTORS
330
5D58
102
}
330
5D58
100
AcDbXrecord
280
     1
102
RTVSPropertyOp0
 70
     1
102
RTVSPropertyOp1
 70
     1
102
RTVSPropertyOp2
 70
     1
102
RTVSPropertyOp3
 70
     1
102
RTVSPropertyOp4
 70
     1
102
RTVSPropertyOp5
 70
     1
102
RTVSPropertyOp6
 70
     1
102
RTVSPropertyOp7
 70
     1
102
RTVSPropertyOp8
 70
     1
102
RTVSPropertyOp9
 70
     1
102
RTVSPropertyOp10
 70
     1
102
RTVSPropertyOp11
 70
     1
102
RTVSPropertyOp12
 70
     1
102
RTVSPropertyOp13
 70
     1
102
RTVSPropertyOp14
 70
     1
102
RTVSPropertyOp15
 70
     1
102
RTVSPropertyOp16
 70
     1
102
RTVSPropertyOp17
 70
     1
102
RTVSPropertyOp18
 70
     1
102
RTVSPropertyOp19
 70
     1
102
RTVSPropertyOp20
 70
     1
102
RTVSPropertyOp21
 70
     1
102
RTVSPropertyOp22
 70
     1
102
RTVSPropertyOp23
 70
     1
102
RTVSPropertyOp24
 70
     1
102
RTVSPropertyOp25
 70
     1
102
RTVSPropertyOp26
 70
     1
102
RTVSPropertyOp27
 70
     1
  0
XRECORD
  5
5D5B
102
{ACAD_REACTORS
330
5D5A
102
}
330
5D5A
100
AcDbXrecord
280
     1
102
RTVSPropertyOp0
 70
     1
102
RTVSPropertyOp1
 70
     1
102
RTVSPropertyOp2
 70
     1
102
RTVSPropertyOp3
 70
     1
102
RTVSPropertyOp4
 70
     1
102
RTVSPropertyOp5
 70
     1
102
RTVSPropertyOp6
 70
     1
102
RTVSPropertyOp7
 70
     1
102
RTVSPropertyOp8
 70
     1
102
RTVSPropertyOp9
 70
     1
102
RTVSPropertyOp10
 70
     1
102
RTVSPropertyOp11
 70
     1
102
RTVSPropertyOp12
 70
     1
102
RTVSPropertyOp13
 70
     1
102
RTVSPropertyOp14
 70
     1
102
RTVSPropertyOp15
 70
     1
102
RTVSPropertyOp16
 70
     1
102
RTVSPropertyOp17
 70
     1
102
RTVSPropertyOp18
 70
     1
102
RTVSPropertyOp19
 70
     1
102
RTVSPropertyOp20
 70
     1
102
RTVSPropertyOp21
 70
     1
102
RTVSPropertyOp22
 70
     1
102
RTVSPropertyOp23
 70
     1
102
RTVSPropertyOp24
 70
     1
102
RTVSPropertyOp25
 70
     1
102
RTVSPropertyOp26
 70
     1
102
RTVSPropertyOp27
 70
     1
  0
XRECORD
  5
5D79
102
{ACAD_REACTORS
330
5D78
102
}
330
5D78
100
AcDbXrecord
280
     1
102
RTVSPropertyOp0
 70
     1
102
RTVSPropertyOp1
 70
     1
102
RTVSPropertyOp2
 70
     1
102
RTVSPropertyOp3
 70
     1
102
RTVSPropertyOp4
 70
     1
102
RTVSPropertyOp5
 70
     1
102
RTVSPropertyOp6
 70
     1
102
RTVSPropertyOp7
 70
     1
102
RTVSPropertyOp8
 70
     1
102
RTVSPropertyOp9
 70
     1
102
RTVSPropertyOp10
 70
     1
102
RTVSPropertyOp11
 70
     1
102
RTVSPropertyOp12
 70
     1
102
RTVSPropertyOp13
 70
     1
102
RTVSPropertyOp14
 70
     1
102
RTVSPropertyOp15
 70
     1
102
RTVSPropertyOp16
 70
     1
102
RTVSPropertyOp17
 70
     1
102
RTVSPropertyOp18
 70
     1
102
RTVSPropertyOp19
 70
     1
102
RTVSPropertyOp20
 70
     1
102
RTVSPropertyOp21
 70
     1
102
RTVSPropertyOp22
 70
     1
102
RTVSPropertyOp23
 70
     1
102
RTVSPropertyOp24
 70
     1
102
RTVSPropertyOp25
 70
     1
102
RTVSPropertyOp26
 70
     1
102
RTVSPropertyOp27
 70
     1
  0
XRECORD
  5
5D7B
102
{ACAD_REACTORS
330
5D7A
102
}
330
5D7A
100
AcDbXrecord
280
     1
102
RTVSPropertyOp0
 70
     0
102
RTVSPropertyOp1
 70
     0
102
RTVSPropertyOp2
 70
     0
102
RTVSPropertyOp3
 70
     0
102
RTVSPropertyOp4
 70
     0
102
RTVSPropertyOp5
 70
     0
102
RTVSPropertyOp6
 70
     0
102
RTVSPropertyOp7
 70
     0
102
RTVSPropertyOp8
 70
     0
102
RTVSPropertyOp9
 70
     0
102
RTVSPropertyOp10
 70
     0
102
RTVSPropertyOp11
 70
     0
102
RTVSPropertyOp12
 70
     0
102
RTVSPropertyOp13
 70
     0
102
RTVSPropertyOp14
 70
     2
102
RTVSPropertyOp15
 70
     0
102
RTVSPropertyOp16
 70
     0
102
RTVSPropertyOp17
 70
     0
102
RTVSPropertyOp18
 70
     0
102
RTVSPropertyOp19
 70
     0
102
RTVSPropertyOp20
 70
     0
102
RTVSPropertyOp21
 70
     0
102
RTVSPropertyOp22
 70
     0
102
RTVSPropertyOp23
 70
     0
102
RTVSPropertyOp24
 70
     0
102
RTVSPropertyOp25
 70
     0
102
RTVSPropertyOp26
 70
     0
102
RTVSPropertyOp27
 70
     0
  0
XRECORD
  5
5D6F
102
{ACAD_REACTORS
330
5D6E
102
}
330
5D6E
100
AcDbXrecord
280
     1
102
RTVSPropertyOp0
 70
     1
102
RTVSPropertyOp1
 70
     1
102
RTVSPropertyOp2
 70
     1
102
RTVSPropertyOp3
 70
     1
102
RTVSPropertyOp4
 70
     1
102
RTVSPropertyOp5
 70
     1
102
RTVSPropertyOp6
 70
     1
102
RTVSPropertyOp7
 70
     1
102
RTVSPropertyOp8
 70
     1
102
RTVSPropertyOp9
 70
     1
102
RTVSPropertyOp10
 70
     1
102
RTVSPropertyOp11
 70
     1
102
RTVSPropertyOp12
 70
     1
102
RTVSPropertyOp13
 70
     1
102
RTVSPropertyOp14
 70
     1
102
RTVSPropertyOp15
 70
     1
102
RTVSPropertyOp16
 70
     1
102
RTVSPropertyOp17
 70
     1
102
RTVSPropertyOp18
 70
     1
102
RTVSPropertyOp19
 70
     1
102
RTVSPropertyOp20
 70
     1
102
RTVSPropertyOp21
 70
     1
102
RTVSPropertyOp22
 70
     1
102
RTVSPropertyOp23
 70
     1
102
RTVSPropertyOp24
 70
     1
102
RTVSPropertyOp25
 70
     1
102
RTVSPropertyOp26
 70
     1
102
RTVSPropertyOp27
 70
     1
  0
XRECORD
  5
5D7D
102
{ACAD_REACTORS
330
5D7C
102
}
330
5D7C
100
AcDbXrecord
280
     1
102
RTVSPropertyOp0
 70
     0
102
RTVSPropertyOp1
 70
     0
102
RTVSPropertyOp2
 70
     0
102
RTVSPropertyOp3
 70
     0
102
RTVSPropertyOp4
 70
     0
102
RTVSPropertyOp5
 70
     0
102
RTVSPropertyOp6
 70
     0
102
RTVSPropertyOp7
 70
     0
102
RTVSPropertyOp8
 70
     0
102
RTVSPropertyOp9
 70
     0
102
RTVSPropertyOp10
 70
     0
102
RTVSPropertyOp11
 70
     0
102
RTVSPropertyOp12
 70
     0
102
RTVSPropertyOp13
 70
     0
102
RTVSPropertyOp14
 70
     2
102
RTVSPropertyOp15
 70
     0
102
RTVSPropertyOp16
 70
     0
102
RTVSPropertyOp17
 70
     0
102
RTVSPropertyOp18
 70
     0
102
RTVSPropertyOp19
 70
     0
102
RTVSPropertyOp20
 70
     0
102
RTVSPropertyOp21
 70
     0
102
RTVSPropertyOp22
 70
     0
102
RTVSPropertyOp23
 70
     0
102
RTVSPropertyOp24
 70
     0
102
RTVSPropertyOp25
 70
     0
102
RTVSPropertyOp26
 70
     0
102
RTVSPropertyOp27
 70
     0
  0
XRECORD
  5
5D67
102
{ACAD_REACTORS
330
5D66
102
}
330
5D66
100
AcDbXrecord
280
     1
102
RTVSPropertyOp0
 70
     1
102
RTVSPropertyOp1
 70
     1
102
RTVSPropertyOp2
 70
     1
102
RTVSPropertyOp3
 70
     1
102
RTVSPropertyOp4
 70
     1
102
RTVSPropertyOp5
 70
     1
102
RTVSPropertyOp6
 70
     1
102
RTVSPropertyOp7
 70
     1
102
RTVSPropertyOp8
 70
     1
102
RTVSPropertyOp9
 70
     1
102
RTVSPropertyOp10
 70
     1
102
RTVSPropertyOp11
 70
     1
102
RTVSPropertyOp12
 70
     1
102
RTVSPropertyOp13
 70
     1
102
RTVSPropertyOp14
 70
     1
102
RTVSPropertyOp15
 70
     1
102
RTVSPropertyOp16
 70
     1
102
RTVSPropertyOp17
 70
     1
102
RTVSPropertyOp18
 70
     1
102
RTVSPropertyOp19
 70
     1
102
RTVSPropertyOp20
 70
     1
102
RTVSPropertyOp21
 70
     1
102
RTVSPropertyOp22
 70
     1
102
RTVSPropertyOp23
 70
     1
102
RTVSPropertyOp24
 70
     1
102
RTVSPropertyOp25
 70
     1
102
RTVSPropertyOp26
 70
     1
102
RTVSPropertyOp27
 70
     1
  0
XRECORD
  5
5D89
102
{ACAD_REACTORS
330
5D88
102
}
330
5D88
100
AcDbXrecord
280
     1
102
RTVSPropertyOp0
 70
     1
102
RTVSPropertyOp1
 70
     1
102
RTVSPropertyOp2
 70
     1
102
RTVSPropertyOp3
 70
     1
102
RTVSPropertyOp4
 70
     1
102
RTVSPropertyOp5
 70
     1
102
RTVSPropertyOp6
 70
     1
102
RTVSPropertyOp7
 70
     1
102
RTVSPropertyOp8
 70
     1
102
RTVSPropertyOp9
 70
     1
102
RTVSPropertyOp10
 70
     1
102
RTVSPropertyOp11
 70
     1
102
RTVSPropertyOp12
 70
     1
102
RTVSPropertyOp13
 70
     1
102
RTVSPropertyOp14
 70
     1
102
RTVSPropertyOp15
 70
     1
102
RTVSPropertyOp16
 70
     1
102
RTVSPropertyOp17
 70
     1
102
RTVSPropertyOp18
 70
     1
102
RTVSPropertyOp19
 70
     1
102
RTVSPropertyOp20
 70
     1
102
RTVSPropertyOp21
 70
     1
102
RTVSPropertyOp22
 70
     1
102
RTVSPropertyOp23
 70
     1
102
RTVSPropertyOp24
 70
     1
102
RTVSPropertyOp25
 70
     1
102
RTVSPropertyOp26
 70
     1
102
RTVSPropertyOp27
 70
     1
  0
XRECORD
  5
5D87
102
{ACAD_REACTORS
330
5D86
102
}
330
5D86
100
AcDbXrecord
280
     1
102
RTVSPropertyOp0
 70
     1
102
RTVSPropertyOp1
 70
     1
102
RTVSPropertyOp2
 70
     1
102
RTVSPropertyOp3
 70
     1
102
RTVSPropertyOp4
 70
     1
102
RTVSPropertyOp5
 70
     1
102
RTVSPropertyOp6
 70
     1
102
RTVSPropertyOp7
 70
     1
102
RTVSPropertyOp8
 70
     1
102
RTVSPropertyOp9
 70
     1
102
RTVSPropertyOp10
 70
     1
102
RTVSPropertyOp11
 70
     1
102
RTVSPropertyOp12
 70
     1
102
RTVSPropertyOp13
 70
     1
102
RTVSPropertyOp14
 70
     1
102
RTVSPropertyOp15
 70
     1
102
RTVSPropertyOp16
 70
     1
102
RTVSPropertyOp17
 70
     1
102
RTVSPropertyOp18
 70
     1
102
RTVSPropertyOp19
 70
     1
102
RTVSPropertyOp20
 70
     1
102
RTVSPropertyOp21
 70
     1
102
RTVSPropertyOp22
 70
     1
102
RTVSPropertyOp23
 70
     1
102
RTVSPropertyOp24
 70
     1
102
RTVSPropertyOp25
 70
     1
102
RTVSPropertyOp26
 70
     1
102
RTVSPropertyOp27
 70
     1
  0
XRECORD
  5
5D81
102
{ACAD_REACTORS
330
5D80
102
}
330
5D80
100
AcDbXrecord
280
     1
102
RTVSPropertyOp0
 70
     1
102
RTVSPropertyOp1
 70
     1
102
RTVSPropertyOp2
 70
     1
102
RTVSPropertyOp3
 70
     1
102
RTVSPropertyOp4
 70
     1
102
RTVSPropertyOp5
 70
     1
102
RTVSPropertyOp6
 70
     1
102
RTVSPropertyOp7
 70
     1
102
RTVSPropertyOp8
 70
     1
102
RTVSPropertyOp9
 70
     1
102
RTVSPropertyOp10
 70
     1
102
RTVSPropertyOp11
 70
     1
102
RTVSPropertyOp12
 70
     1
102
RTVSPropertyOp13
 70
     1
102
RTVSPropertyOp14
 70
     1
102
RTVSPropertyOp15
 70
     1
102
RTVSPropertyOp16
 70
     1
102
RTVSPropertyOp17
 70
     1
102
RTVSPropertyOp18
 70
     1
102
RTVSPropertyOp19
 70
     1
102
RTVSPropertyOp20
 70
     1
102
RTVSPropertyOp21
 70
     1
102
RTVSPropertyOp22
 70
     1
102
RTVSPropertyOp23
 70
     1
102
RTVSPropertyOp24
 70
     1
102
RTVSPropertyOp25
 70
     1
102
RTVSPropertyOp26
 70
     1
102
RTVSPropertyOp27
 70
     1
  0
XRECORD
  5
5D83
102
{ACAD_REACTORS
330
5D82
102
}
330
5D82
100
AcDbXrecord
280
     1
102
RTVSPropertyOp0
 70
     1
102
RTVSPropertyOp1
 70
     1
102
RTVSPropertyOp2
 70
     1
102
RTVSPropertyOp3
 70
     1
102
RTVSPropertyOp4
 70
     1
102
RTVSPropertyOp5
 70
     1
102
RTVSPropertyOp6
 70
     1
102
RTVSPropertyOp7
 70
     1
102
RTVSPropertyOp8
 70
     1
102
RTVSPropertyOp9
 70
     1
102
RTVSPropertyOp10
 70
     1
102
RTVSPropertyOp11
 70
     1
102
RTVSPropertyOp12
 70
     1
102
RTVSPropertyOp13
 70
     1
102
RTVSPropertyOp14
 70
     1
102
RTVSPropertyOp15
 70
     1
102
RTVSPropertyOp16
 70
     1
102
RTVSPropertyOp17
 70
     1
102
RTVSPropertyOp18
 70
     1
102
RTVSPropertyOp19
 70
     1
102
RTVSPropertyOp20
 70
     1
102
RTVSPropertyOp21
 70
     1
102
RTVSPropertyOp22
 70
     1
102
RTVSPropertyOp23
 70
     1
102
RTVSPropertyOp24
 70
     1
102
RTVSPropertyOp25
 70
     1
102
RTVSPropertyOp26
 70
     1
102
RTVSPropertyOp27
 70
     1
  0
XRECORD
  5
5D6D
102
{ACAD_REACTORS
330
5D6C
102
}
330
5D6C
100
AcDbXrecord
280
     1
102
RTVSPropertyOp0
 70
     1
102
RTVSPropertyOp1
 70
     1
102
RTVSPropertyOp2
 70
     1
102
RTVSPropertyOp3
 70
     1
102
RTVSPropertyOp4
 70
     1
102
RTVSPropertyOp5
 70
     1
102
RTVSPropertyOp6
 70
     1
102
RTVSPropertyOp7
 70
     1
102
RTVSPropertyOp8
 70
     1
102
RTVSPropertyOp9
 70
     1
102
RTVSPropertyOp10
 70
     1
102
RTVSPropertyOp11
 70
     1
102
RTVSPropertyOp12
 70
     1
102
RTVSPropertyOp13
 70
     1
102
RTVSPropertyOp14
 70
     1
102
RTVSPropertyOp15
 70
     1
102
RTVSPropertyOp16
 70
     1
102
RTVSPropertyOp17
 70
     1
102
RTVSPropertyOp18
 70
     1
102
RTVSPropertyOp19
 70
     1
102
RTVSPropertyOp20
 70
     1
102
RTVSPropertyOp21
 70
     1
102
RTVSPropertyOp22
 70
     1
102
RTVSPropertyOp23
 70
     1
102
RTVSPropertyOp24
 70
     1
102
RTVSPropertyOp25
 70
     1
102
RTVSPropertyOp26
 70
     1
102
RTVSPropertyOp27
 70
     1
  0
XRECORD
  5
5D77
102
{ACAD_REACTORS
330
5D76
102
}
330
5D76
100
AcDbXrecord
280
     1
102
RTVSPropertyOp0
 70
     1
102
RTVSPropertyOp1
 70
     1
102
RTVSPropertyOp2
 70
     1
102
RTVSPropertyOp3
 70
     1
102
RTVSPropertyOp4
 70
     1
102
RTVSPropertyOp5
 70
     1
102
RTVSPropertyOp6
 70
     1
102
RTVSPropertyOp7
 70
     1
102
RTVSPropertyOp8
 70
     1
102
RTVSPropertyOp9
 70
     1
102
RTVSPropertyOp10
 70
     1
102
RTVSPropertyOp11
 70
     1
102
RTVSPropertyOp12
 70
     1
102
RTVSPropertyOp13
 70
     1
102
RTVSPropertyOp14
 70
     1
102
RTVSPropertyOp15
 70
     1
102
RTVSPropertyOp16
 70
     1
102
RTVSPropertyOp17
 70
     1
102
RTVSPropertyOp18
 70
     1
102
RTVSPropertyOp19
 70
     1
102
RTVSPropertyOp20
 70
     1
102
RTVSPropertyOp21
 70
     1
102
RTVSPropertyOp22
 70
     1
102
RTVSPropertyOp23
 70
     1
102
RTVSPropertyOp24
 70
     1
102
RTVSPropertyOp25
 70
     1
102
RTVSPropertyOp26
 70
     1
102
RTVSPropertyOp27
 70
     1
  0
XRECORD
  5
5D85
102
{ACAD_REACTORS
330
5D84
102
}
330
5D84
100
AcDbXrecord
280
     1
102
RTVSPropertyOp0
 70
     1
102
RTVSPropertyOp1
 70
     1
102
RTVSPropertyOp2
 70
     1
102
RTVSPropertyOp3
 70
     1
102
RTVSPropertyOp4
 70
     1
102
RTVSPropertyOp5
 70
     1
102
RTVSPropertyOp6
 70
     1
102
RTVSPropertyOp7
 70
     1
102
RTVSPropertyOp8
 70
     1
102
RTVSPropertyOp9
 70
     1
102
RTVSPropertyOp10
 70
     1
102
RTVSPropertyOp11
 70
     1
102
RTVSPropertyOp12
 70
     1
102
RTVSPropertyOp13
 70
     1
102
RTVSPropertyOp14
 70
     1
102
RTVSPropertyOp15
 70
     1
102
RTVSPropertyOp16
 70
     1
102
RTVSPropertyOp17
 70
     1
102
RTVSPropertyOp18
 70
     1
102
RTVSPropertyOp19
 70
     1
102
RTVSPropertyOp20
 70
     1
102
RTVSPropertyOp21
 70
     1
102
RTVSPropertyOp22
 70
     1
102
RTVSPropertyOp23
 70
     1
102
RTVSPropertyOp24
 70
     1
102
RTVSPropertyOp25
 70
     1
102
RTVSPropertyOp26
 70
     1
102
RTVSPropertyOp27
 70
     1
  0
ENDSEC
  0
EOF
