  0
SECTION
  2
HEADER
  9
$ACADVER
  1
AC1018
  9
$ACADMAINTVER
 70
   104
  9
$DWGCODEPAGE
  3
ANSI_936
  9
$LASTSAVEDBY
  1
yuqin.cai
  9
$INSBASE
 10
0.0
 20
0.0
 30
0.0
  9
$EXTMIN
 10
-11.4038236072
 20
529.2792182532999
 30
-0.00000001
  9
$EXTMAX
 10
1210.902221728789
 20
1696.8528278829
 30
0.00000001
  9
$LIMMIN
 10
0.0
 20
0.0
  9
$LIMMAX
 10
558.8
 20
431.8
  9
$ORTHOMODE
 70
     1
  9
$REGENMODE
 70
     1
  9
$FILLMODE
 70
     1
  9
$QTEXTMODE
 70
     0
  9
$MIRRTEXT
 70
     0
  9
$LTSCALE
 40
30.734
  9
$ATTMODE
 70
     1
  9
$TEXTSIZE
 40
0.2
  9
$TRACEWID
 40
0.05
  9
$TEXTSTYLE
  7
STANDARD
  9
$CLAYER
  8
0
  9
$CELTYPE
  6
BYLAYER
  9
$CECOLOR
 62
   256
  9
$CELTSCALE
 40
1.0
  9
$DISPSILH
 70
     0
  9
$DIMSCALE
 40
1.0
  9
$DIMASZ
 40
3.5
  9
$DIMEXO
 40
1.0
  9
$DIMDLI
 40
21.2344
  9
$DIMRND
 40
0.0
  9
$DIMDLE
 40
0.0
  9
$DIMEXE
 40
1.5
  9
$DIMTP
 40
0.01
  9
$DIMTM
 40
0.01
  9
$DIMTXT
 40
3.5
  9
$DIMCEN
 40
5.0292
  9
$DIMTSZ
 40
0.0
  9
$DIMTOL
 70
     1
  9
$DIMLIM
 70
     0
  9
$DIMTIH
 70
     1
  9
$DIMTOH
 70
     1
  9
$DIMSE1
 70
     0
  9
$DIMSE2
 70
     0
  9
$DIMTAD
 70
     0
  9
$DIMZIN
 70
     0
  9
$DIMBLK
  1

  9
$DIMASO
 70
     1
  9
$DIMSHO
 70
     1
  9
$DIMPOST
  1

  9
$DIMAPOST
  1

  9
$DIMALT
 70
     0
  9
$DIMALTD
 70
     2
  9
$DIMALTF
 40
25.4
  9
$DIMLFAC
 40
1.0
  9
$DIMTOFL
 70
     0
  9
$DIMTVP
 40
0.0
  9
$DIMTIX
 70
     0
  9
$DIMSOXD
 70
     0
  9
$DIMSAH
 70
     0
  9
$DIMBLK1
  1

  9
$DIMBLK2
  1

  9
$DIMSTYLE
  2
STANDARD
  9
$DIMCLRD
 70
     0
  9
$DIMCLRE
 70
     0
  9
$DIMCLRT
 70
     0
  9
$DIMTFAC
 40
1.0
  9
$DIMGAP
 40
0.625
  9
$DIMJUST
 70
     0
  9
$DIMSD1
 70
     0
  9
$DIMSD2
 70
     0
  9
$DIMTOLJ
 70
     1
  9
$DIMTZIN
 70
     0
  9
$DIMALTZ
 70
     0
  9
$DIMALTTZ
 70
     0
  9
$DIMUPT
 70
     0
  9
$DIMDEC
 70
     4
  9
$DIMTDEC
 70
     4
  9
$DIMALTU
 70
     2
  9
$DIMALTTD
 70
     2
  9
$DIMTXSTY
  7
STANDARD
  9
$DIMAUNIT
 70
     0
  9
$DIMADEC
 70
     0
  9
$DIMALTRND
 40
0.0
  9
$DIMAZIN
 70
     0
  9
$DIMDSEP
 70
    44
  9
$DIMATFIT
 70
     3
  9
$DIMFRAC
 70
     0
  9
$DIMLDRBLK
  1

  9
$DIMLUNIT
 70
     2
  9
$DIMLWD
 70
    -2
  9
$DIMLWE
 70
    -2
  9
$DIMTMOVE
 70
     0
  9
$LUNITS
 70
     2
  9
$LUPREC
 70
     4
  9
$SKETCHINC
 40
0.1
  9
$FILLETRAD
 40
0.0
  9
$AUNITS
 70
     0
  9
$AUPREC
 70
     0
  9
$MENU
  1
.
  9
$ELEVATION
 40
0.0
  9
$PELEVATION
 40
0.0
  9
$THICKNESS
 40
0.0
  9
$LIMCHECK
 70
     0
  9
$CHAMFERA
 40
0.0
  9
$CHAMFERB
 40
0.0
  9
$CHAMFERC
 40
0.0
  9
$CHAMFERD
 40
0.0
  9
$SKPOLY
 70
     0
  9
$TDCREATE
 40
2458310.452805023
  9
$TDUCREATE
 40
2458310.119471690
  9
$TDUPDATE
 40
2458507.632204155
  9
$TDUUPDATE
 40
2458507.298870822
  9
$TDINDWG
 40
0.0014665394
  9
$TDUSRTIMER
 40
0.0014665394
  9
$USRTIMER
 70
     1
  9
$ANGBASE
 50
0.0
  9
$ANGDIR
 70
     0
  9
$PDMODE
 70
     3
  9
$PDSIZE
 40
8.0
  9
$PLINEWID
 40
0.0
  9
$SPLFRAME
 70
     0
  9
$SPLINETYPE
 70
     6
  9
$SPLINESEGS
 70
     8
  9
$HANDSEED
  5
10C2
  9
$SURFTAB1
 70
     6
  9
$SURFTAB2
 70
     6
  9
$SURFTYPE
 70
     6
  9
$SURFU
 70
     6
  9
$SURFV
 70
     6
  9
$UCSBASE
  2

  9
$UCSNAME
  2

  9
$UCSORG
 10
0.0
 20
0.0
 30
0.0
  9
$UCSXDIR
 10
1.0
 20
0.0
 30
0.0
  9
$UCSYDIR
 10
0.0
 20
1.0
 30
0.0
  9
$UCSORTHOREF
  2

  9
$UCSORTHOVIEW
 70
     0
  9
$UCSORGTOP
 10
0.0
 20
0.0
 30
0.0
  9
$UCSORGBOTTOM
 10
0.0
 20
0.0
 30
0.0
  9
$UCSORGLEFT
 10
0.0
 20
0.0
 30
0.0
  9
$UCSORGRIGHT
 10
0.0
 20
0.0
 30
0.0
  9
$UCSORGFRONT
 10
0.0
 20
0.0
 30
0.0
  9
$UCSORGBACK
 10
0.0
 20
0.0
 30
0.0
  9
$PUCSBASE
  2

  9
$PUCSNAME
  2

  9
$PUCSORG
 10
0.0
 20
0.0
 30
0.0
  9
$PUCSXDIR
 10
1.0
 20
0.0
 30
0.0
  9
$PUCSYDIR
 10
0.0
 20
1.0
 30
0.0
  9
$PUCSORTHOREF
  2

  9
$PUCSORTHOVIEW
 70
     0
  9
$PUCSORGTOP
 10
0.0
 20
0.0
 30
0.0
  9
$PUCSORGBOTTOM
 10
0.0
 20
0.0
 30
0.0
  9
$PUCSORGLEFT
 10
0.0
 20
0.0
 30
0.0
  9
$PUCSORGRIGHT
 10
0.0
 20
0.0
 30
0.0
  9
$PUCSORGFRONT
 10
0.0
 20
0.0
 30
0.0
  9
$PUCSORGBACK
 10
0.0
 20
0.0
 30
0.0
  9
$USERI1
 70
     0
  9
$USERI2
 70
     0
  9
$USERI3
 70
     0
  9
$USERI4
 70
     0
  9
$USERI5
 70
     0
  9
$USERR1
 40
0.0
  9
$USERR2
 40
0.0
  9
$USERR3
 40
0.0
  9
$USERR4
 40
0.0
  9
$USERR5
 40
0.0
  9
$WORLDVIEW
 70
     1
  9
$SHADEDGE
 70
     3
  9
$SHADEDIF
 70
    70
  9
$TILEMODE
 70
     1
  9
$MAXACTVP
 70
    64
  9
$PINSBASE
 10
0.0
 20
0.0
 30
0.0
  9
$PLIMCHECK
 70
     0
  9
$PEXTMIN
 10
1.000000000000000E+20
 20
1.000000000000000E+20
 30
1.000000000000000E+20
  9
$PEXTMAX
 10
-1.000000000000000E+20
 20
-1.000000000000000E+20
 30
-1.000000000000000E+20
  9
$PLIMMIN
 10
0.0
 20
0.0
  9
$PLIMMAX
 10
12.0
 20
9.0
  9
$UNITMODE
 70
     0
  9
$VISRETAIN
 70
     1
  9
$PLINEGEN
 70
     0
  9
$PSLTSCALE
 70
     1
  9
$TREEDEPTH
 70
  3020
  9
$CMLSTYLE
  2
Standard
  9
$CMLJUST
 70
     0
  9
$CMLSCALE
 40
1.0
  9
$PROXYGRAPHICS
 70
     1
  9
$MEASUREMENT
 70
     1
  9
$CELWEIGHT
370
    -1
  9
$ENDCAPS
280
     0
  9
$JOINSTYLE
280
     0
  9
$LWDISPLAY
290
     0
  9
$INSUNITS
 70
     4
  9
$HYPERLINKBASE
  1

  9
$STYLESHEET
  1

  9
$XEDIT
290
     1
  9
$CEPSNTYPE
380
     0
  9
$PSTYLEMODE
290
     1
  9
$FINGERPRINTGUID
  2
{597447D2-CFAF-464E-A6DB-BF1C3AE8D16C}
  9
$VERSIONGUID
  2
{0869C485-2EC9-492E-8741-737905A74F51}
  9
$EXTNAMES
290
     1
  9
$PSVPSCALE
 40
0.0
  9
$OLESTARTUP
290
     0
  9
$SORTENTS
280
   127
  9
$INDEXCTL
280
     0
  9
$HIDETEXT
280
     1
  9
$XCLIPFRAME
290
     0
  9
$HALOGAP
280
     0
  9
$OBSCOLOR
 70
   257
  9
$OBSLTYPE
280
     0
  9
$INTERSECTIONDISPLAY
280
     0
  9
$INTERSECTIONCOLOR
 70
   257
  9
$DIMASSOC
280
     2
  9
$PROJECTNAME
  1

  0
ENDSEC
  0
SECTION
  2
CLASSES
  0
CLASS
  1
ACDBDICTIONARYWDFLT
  2
AcDbDictionaryWithDefault
  3
ObjectDBX Classes
 90
        0
 91
        1
280
     0
281
     0
  0
CLASS
  1
MATERIAL
  2
AcDbMaterial
  3
ObjectDBX Classes
 90
        0
 91
        3
280
     0
281
     0
  0
CLASS
  1
VISUALSTYLE
  2
AcDbVisualStyle
  3
ObjectDBX Classes
 90
     4095
 91
       16
280
     0
281
     0
  0
CLASS
  1
TABLESTYLE
  2
AcDbTableStyle
  3
ObjectDBX Classes
 90
     4095
 91
        1
280
     0
281
     0
  0
CLASS
  1
SCALE
  2
AcDbScale
  3
ObjectDBX Classes
 90
     1153
 91
       33
280
     0
281
     0
  0
CLASS
  1
MLEADERSTYLE
  2
AcDbMLeaderStyle
  3
ACDB_MLEADERSTYLE_CLASS
 90
     4095
 91
        1
280
     0
281
     0
  0
CLASS
  1
CELLSTYLEMAP
  2
AcDbCellStyleMap
  3
ObjectDBX Classes
 90
     1152
 91
        1
280
     0
281
     0
  0
CLASS
  1
DICTIONARYVAR
  2
AcDbDictionaryVar
  3
ObjectDBX Classes
 90
        0
 91
        6
280
     0
281
     0
  0
ENDSEC
  0
SECTION
  2
TABLES
  0
TABLE
  2
VPORT
  5
8
330
0
100
AcDbSymbolTable
 70
     3
  0
VPORT
  5
109E
330
8
100
AcDbSymbolTableRecord
100
AcDbViewportTableRecord
  2
*Active
 70
     0
 10
0.0
 20
0.0
 11
1.0
 21
1.0
 12
2554.500320725456
 22
1114.33643013963
 13
0.0
 23
0.0
 14
1.0
 24
1.0
 15
0.0
 25
0.0
 16
0.0
 26
0.0
 36
1.0
 17
0.0
 27
0.0
 37
0.0
 40
2379.544852863235
 41
3.584
 42
50.0
 43
0.0
 44
0.0
 50
0.0
 51
0.0
 71
     0
 72
   100
 73
     1
 74
     1
 75
     0
 76
     0
 77
     0
 78
     0
281
     0
 65
     1
110
0.0
120
0.0
130
0.0
111
1.0
121
0.0
131
0.0
112
0.0
122
1.0
132
0.0
 79
     0
146
0.0
  0
ENDTAB
  0
TABLE
  2
LTYPE
  5
5
330
0
100
AcDbSymbolTable
 70
     6
  0
LTYPE
  5
14
330
5
100
AcDbSymbolTableRecord
100
AcDbLinetypeTableRecord
  2
BYBLOCK
 70
     0
  3

 72
    65
 73
     0
 40
0.0
  0
LTYPE
  5
15
330
5
100
AcDbSymbolTableRecord
100
AcDbLinetypeTableRecord
  2
BYLAYER
 70
     0
  3

 72
    65
 73
     0
 40
0.0
  0
LTYPE
  5
16
330
5
100
AcDbSymbolTableRecord
100
AcDbLinetypeTableRecord
  2
CONTINUOUS
 70
     0
  3
Solid line
 72
    65
 73
     0
 40
0.0
  0
LTYPE
  5
1F5
330
5
100
AcDbSymbolTableRecord
100
AcDbLinetypeTableRecord
  2
CENTER
 70
     0
  3
____ _ ____ _ ____ _ ____ _ ____ _ ____ _ ____
 72
    65
 73
     4
 40
0.6
 49
0.375
 74
     0
 49
-0.075
 74
     0
 49
0.075
 74
     0
 49
-0.075
 74
     0
  0
LTYPE
  5
1F6
330
5
100
AcDbSymbolTableRecord
100
AcDbLinetypeTableRecord
  2
HIDDEN
 70
     0
  3
- - - - - - - - - - - - - - - - - - - -
 72
    65
 73
     2
 40
0.2
 49
0.1
 74
     0
 49
-0.1
 74
     0
  0
LTYPE
  5
1F7
330
5
100
AcDbSymbolTableRecord
100
AcDbLinetypeTableRecord
  2
PHANTOM
 70
     0
  3
_____ _ _ _____ _ _ _____ _ _ _____
 72
    65
 73
     6
 40
0.8
 49
0.45
 74
     0
 49
-0.05
 74
     0
 49
0.1
 74
     0
 49
-0.05
 74
     0
 49
0.1
 74
     0
 49
-0.05
 74
     0
  0
LTYPE
  5
1F8
330
5
100
AcDbSymbolTableRecord
100
AcDbLinetypeTableRecord
  2
DOT
 70
     0
  3
. . . . . . . . . . . . . . . . . . . .
 72
    65
 73
     2
 40
0.2
 49
0.1
 74
     0
 49
-0.1
 74
     0
  0
LTYPE
  5
1F9
330
5
100
AcDbSymbolTableRecord
100
AcDbLinetypeTableRecord
  2
DASHED
 70
     0
  3
- - - - - - - - - - - - - - - - - - - -
 72
    65
 73
     2
 40
0.2
 49
0.1
 74
     0
 49
-0.1
 74
     0
  0
ENDTAB
  0
TABLE
  2
LAYER
  5
2
330
0
100
AcDbSymbolTable
 70
    34
  0
LAYER
  5
10
330
2
100
AcDbSymbolTableRecord
100
AcDbLayerTableRecord
  2
0
 70
     0
 62
     7
  6
CONTINUOUS
370
    -3
390
F
  0
LAYER
  5
1FA
330
2
100
AcDbSymbolTableRecord
100
AcDbLayerTableRecord
  2
DEFAULT_1
 70
     0
 62
     7
  6
CENTER
370
    -3
390
F
  0
LAYER
  5
1FB
330
2
100
AcDbSymbolTableRecord
100
AcDbLayerTableRecord
  2
DEFAULT_2
 70
     0
 62
     8
  6
HIDDEN
370
    -3
390
F
  0
LAYER
  5
1FC
330
2
100
AcDbSymbolTableRecord
100
AcDbLayerTableRecord
  2
DEFAULT_3
 70
     0
 62
     7
  6
PHANTOM
370
    -3
390
F
  0
LAYER
  5
1FD
330
2
100
AcDbSymbolTableRecord
100
AcDbLayerTableRecord
  2
01_ALL_DTM_PLN
 70
     0
 62
     7
  6
CONTINUOUS
370
    -3
390
F
  0
LAYER
  5
1FE
330
2
100
AcDbSymbolTableRecord
100
AcDbLayerTableRecord
  2
01__ASM_ALL_DTM_PLN
 70
     0
 62
     7
  6
CONTINUOUS
370
    -3
390
F
  0
LAYER
  5
1FF
330
2
100
AcDbSymbolTableRecord
100
AcDbLayerTableRecord
  2
01__ASM_DEF_DTM_PLN
 70
     0
 62
     7
  6
CONTINUOUS
370
    -3
390
F
  0
LAYER
  5
200
330
2
100
AcDbSymbolTableRecord
100
AcDbLayerTableRecord
  2
01___PRT_ALL_DTM_PLN
 70
     0
 62
     7
  6
CONTINUOUS
370
    -3
390
F
  0
LAYER
  5
201
330
2
100
AcDbSymbolTableRecord
100
AcDbLayerTableRecord
  2
01___PRT_DEF_DTM_PLN
 70
     0
 62
     7
  6
CONTINUOUS
370
    -3
390
F
  0
LAYER
  5
202
330
2
100
AcDbSymbolTableRecord
100
AcDbLayerTableRecord
  2
02_ALL_AXES
 70
     0
 62
     7
  6
CONTINUOUS
370
    -3
390
F
  0
LAYER
  5
203
330
2
100
AcDbSymbolTableRecord
100
AcDbLayerTableRecord
  2
02__ASM_ALL_AXES
 70
     0
 62
     7
  6
CONTINUOUS
370
    -3
390
F
  0
LAYER
  5
204
330
2
100
AcDbSymbolTableRecord
100
AcDbLayerTableRecord
  2
02___PRT_ALL_AXES
 70
     0
 62
     7
  6
CONTINUOUS
370
    -3
390
F
  0
LAYER
  5
205
330
2
100
AcDbSymbolTableRecord
100
AcDbLayerTableRecord
  2
03_ALL_CURVES
 70
     0
 62
     7
  6
CONTINUOUS
370
    -3
390
F
  0
LAYER
  5
206
330
2
100
AcDbSymbolTableRecord
100
AcDbLayerTableRecord
  2
03__ASM_ALL_CURVES
 70
     0
 62
     7
  6
CONTINUOUS
370
    -3
390
F
  0
LAYER
  5
207
330
2
100
AcDbSymbolTableRecord
100
AcDbLayerTableRecord
  2
03___PRT_ALL_CURVES
 70
     0
 62
     7
  6
CONTINUOUS
370
    -3
390
F
  0
LAYER
  5
208
330
2
100
AcDbSymbolTableRecord
100
AcDbLayerTableRecord
  2
04_ALL_DTM_PNT
 70
     0
 62
     7
  6
CONTINUOUS
370
    -3
390
F
  0
LAYER
  5
209
330
2
100
AcDbSymbolTableRecord
100
AcDbLayerTableRecord
  2
04__ASM_ALL_DTM_PNT
 70
     0
 62
     7
  6
CONTINUOUS
370
    -3
390
F
  0
LAYER
  5
20A
330
2
100
AcDbSymbolTableRecord
100
AcDbLayerTableRecord
  2
04___PRT_ALL_DTM_PNT
 70
     0
 62
     7
  6
CONTINUOUS
370
    -3
390
F
  0
LAYER
  5
20B
330
2
100
AcDbSymbolTableRecord
100
AcDbLayerTableRecord
  2
05_ALL_DTM_CSYS
 70
     0
 62
     7
  6
CONTINUOUS
370
    -3
390
F
  0
LAYER
  5
20C
330
2
100
AcDbSymbolTableRecord
100
AcDbLayerTableRecord
  2
05__ASM_ALL_DTM_CSYS
 70
     0
 62
     7
  6
CONTINUOUS
370
    -3
390
F
  0
LAYER
  5
20D
330
2
100
AcDbSymbolTableRecord
100
AcDbLayerTableRecord
  2
05__ASM_DEF_DTM_CSYS
 70
     0
 62
     7
  6
CONTINUOUS
370
    -3
390
F
  0
LAYER
  5
20E
330
2
100
AcDbSymbolTableRecord
100
AcDbLayerTableRecord
  2
05___PRT_ALL_DTM_CSYS
 70
     0
 62
     7
  6
CONTINUOUS
370
    -3
390
F
  0
LAYER
  5
20F
330
2
100
AcDbSymbolTableRecord
100
AcDbLayerTableRecord
  2
05___PRT_DEF_DTM_CSYS
 70
     0
 62
     7
  6
CONTINUOUS
370
    -3
390
F
  0
LAYER
  5
210
330
2
100
AcDbSymbolTableRecord
100
AcDbLayerTableRecord
  2
06_ALL_SURFS
 70
     0
 62
     7
  6
CONTINUOUS
370
    -3
390
F
  0
LAYER
  5
211
330
2
100
AcDbSymbolTableRecord
100
AcDbLayerTableRecord
  2
06__ASM_ALL_SURFS
 70
     0
 62
     7
  6
CONTINUOUS
370
    -3
390
F
  0
LAYER
  5
212
330
2
100
AcDbSymbolTableRecord
100
AcDbLayerTableRecord
  2
06___PRT_ALL_SURFS
 70
     0
 62
     7
  6
CONTINUOUS
370
    -3
390
F
  0
LAYER
  5
213
330
2
100
AcDbSymbolTableRecord
100
AcDbLayerTableRecord
  2
07__ASM_ALL_SKELETONS
 70
     0
 62
     7
  6
CONTINUOUS
370
    -3
390
F
  0
LAYER
  5
214
330
2
100
AcDbSymbolTableRecord
100
AcDbLayerTableRecord
  2
1_ALL_PLANES
 70
     0
 62
     7
  6
CONTINUOUS
370
    -3
390
F
  0
LAYER
  5
215
330
2
100
AcDbSymbolTableRecord
100
AcDbLayerTableRecord
  2
3_ALL_AXES
 70
     0
 62
     7
  6
CONTINUOUS
370
    -3
390
F
  0
LAYER
  5
216
330
2
100
AcDbSymbolTableRecord
100
AcDbLayerTableRecord
  2
4_ALL_POINTS
 70
     0
 62
     7
  6
CONTINUOUS
370
    -3
390
F
  0
LAYER
  5
217
330
2
100
AcDbSymbolTableRecord
100
AcDbLayerTableRecord
  2
5_ALL_CURVES
 70
     0
 62
     7
  6
CONTINUOUS
370
    -3
390
F
  0
LAYER
  5
218
330
2
100
AcDbSymbolTableRecord
100
AcDbLayerTableRecord
  2
6_ALL_SURFS
 70
     0
 62
     7
  6
CONTINUOUS
370
    -3
390
F
  0
LAYER
  5
219
330
2
100
AcDbSymbolTableRecord
100
AcDbLayerTableRecord
  2
7_ALL_FEATURES
 70
     0
 62
     7
  6
CONTINUOUS
370
    -3
390
F
  0
LAYER
  5
21A
330
2
100
AcDbSymbolTableRecord
100
AcDbLayerTableRecord
  2
XSEC_DATUMS
 70
     0
 62
     7
  6
CONTINUOUS
370
    -3
390
F
  0
ENDTAB
  0
TABLE
  2
STYLE
  5
3
330
0
100
AcDbSymbolTable
 70
     2
  0
STYLE
  5
11
330
3
100
AcDbSymbolTableRecord
100
AcDbTextStyleTableRecord
  2
STANDARD
 70
     0
 40
0.0
 41
0.85
 50
0.0
 71
     0
 42
0.2
  3
txt
  4

  0
STYLE
  5
21B
330
3
100
AcDbSymbolTableRecord
100
AcDbTextStyleTableRecord
  2
TEXTSTYLE_1
 70
     0
 40
0.0
 41
0.8
 50
0.0
 71
     0
 42
0.2
  3
gdt
  4

  0
ENDTAB
  0
TABLE
  2
VIEW
  5
6
330
0
100
AcDbSymbolTable
 70
     0
  0
ENDTAB
  0
TABLE
  2
UCS
  5
7
330
0
100
AcDbSymbolTable
 70
     0
  0
ENDTAB
  0
TABLE
  2
APPID
  5
9
330
0
100
AcDbSymbolTable
 70
     2
  0
APPID
  5
21C
330
9
100
AcDbSymbolTableRecord
100
AcDbRegAppTableRecord
  2
ACAD
 70
     0
  0
APPID
  5
5CD
330
9
100
AcDbSymbolTableRecord
100
AcDbRegAppTableRecord
  2
ACAD_MLEADERVER
 70
     0
  0
ENDTAB
  0
TABLE
  2
DIMSTYLE
  5
A
330
0
100
AcDbSymbolTable
 70
     1
100
AcDbDimStyleTable
 71
     0
  0
DIMSTYLE
105
21F
330
A
100
AcDbSymbolTableRecord
100
AcDbDimStyleTableRecord
  2
STANDARD
 70
     0
 41
3.5
 42
1.0
 44
1.5
 47
0.01
 48
0.01
 71
     1
 73
     0
 74
     0
 77
     1
 78
     8
140
3.5
147
0.625
271
     2
272
     2
278
    44
284
     8
340
11
  0
ENDTAB
  0
TABLE
  2
BLOCK_RECORD
  5
1
330
0
100
AcDbSymbolTable
 70
     0
  0
BLOCK_RECORD
  5
21D
330
1
100
AcDbSymbolTableRecord
100
AcDbBlockTableRecord
  2
*Model_Space
340
578
  0
BLOCK_RECORD
  5
21E
330
1
100
AcDbSymbolTableRecord
100
AcDbBlockTableRecord
  2
*Paper_Space
340
579
  0
ENDTAB
  0
ENDSEC
  0
SECTION
  2
BLOCKS
  0
BLOCK
  5
20
330
21D
100
AcDbEntity
  8
0
100
AcDbBlockBegin
  2
*Model_Space
 70
     0
 10
0.0
 20
0.0
 30
0.0
  3
*Model_Space
  1

1001
ACAD
1000
RTMaterial
1005
0
  0
ENDBLK
  5
21
330
21D
100
AcDbEntity
  8
0
100
AcDbBlockEnd
1001
ACAD
1000
RTMaterial
1005
0
  0
BLOCK
  5
1C
330
21E
100
AcDbEntity
 67
     1
  8
0
100
AcDbBlockBegin
  2
*Paper_Space
 70
     0
 10
0.0
 20
0.0
 30
0.0
  3
*Paper_Space
  1

1001
ACAD
1000
RTMaterial
1005
0
  0
ENDBLK
  5
1D
330
21E
100
AcDbEntity
 67
     1
  8
0
100
AcDbBlockEnd
1001
ACAD
1000
RTMaterial
1005
0
  0
ENDSEC
  0
SECTION
  2
ENTITIES
  0
LWPOLYLINE
  5
224
330
21D
100
AcDbEntity
  8
0
  6
Continuous
 62
     7
100
AcDbPolyline
 90
        6
 70
     0
 43
0.0
 10
89.18250550629998
 20
1116.2374251469
 10
89.1906734466
 20
1116.2401246356
 10
89.1682955861
 20
1116.2348896493
 10
89.071348967
 20
1116.2164859446
 10
88.91193094569999
 20
1116.192808245
 10
88.69589405209998
 20
1116.1669328934
  0
LINE
  5
225
330
21D
100
AcDbEntity
  8
0
  6
Continuous
 62
     9
100
AcDbLine
 10
14.7448057989
 20
1033.6295736117
 30
0.0
 11
15.0198083863
 21
1034.1810935777
 31
0.0
1001
ACAD
1000
RTMaterial
1005
0
  0
LINE
  5
226
330
21D
100
AcDbEntity
  8
0
  6
Continuous
 62
     9
100
AcDbLine
 10
16.7420648684
 20
1031.640529821
 30
0.0
 11
17.0170674558
 21
1032.1920497869
 31
0.0
1001
ACAD
1000
RTMaterial
1005
0
  0
LWPOLYLINE
  5
227
330
21D
100
AcDbEntity
  8
0
  6
Continuous
 62
     7
100
AcDbPolyline
 90
        6
 70
     0
 43
0.0
 10
339.1825055063
 20
1116.2374251469
 10
339.1906734466
 20
1116.2401246356
 10
339.1682955861
 20
1116.2348896493
 10
339.071348967
 20
1116.2164859446
 10
338.9119309457
 20
1116.192808245
 10
338.6958940521
 20
1116.1669328934
  0
LINE
  5
228
330
21D
100
AcDbEntity
  8
0
  6
Continuous
 62
     7
100
AcDbLine
 10
-11.4038235972
 20
1027.7471165218
 30
0.0
 11
-11.4038235972
 21
996.7475892008
 31
0.0
1001
ACAD
1000
RTMaterial
1005
0
  0
LINE
  5
229
330
21D
100
AcDbEntity
  8
0
  6
Continuous
 62
     9
100
AcDbLine
 10
-10.9038235972
 20
996.2473528613001
 30
0.0
 11
-10.9038235972
 21
1028.2471088979
 31
0.0
1001
ACAD
1000
RTMaterial
1005
0
  0
LINE
  5
22A
330
21D
100
AcDbEntity
  8
0
  6
Continuous
 62
     7
100
AcDbLine
 10
9.0704100583
 20
1030.7482820188
 30
0.0
 11
8.899805843999999
 21
1117.2472749442
 31
0.0
1001
ACAD
1000
RTMaterial
1005
0
  0
LINE
  5
22B
330
21D
100
AcDbEntity
  8
0
  6
Continuous
 62
     7
100
AcDbLine
 10
14.8991402473
 20
1117.2473528613
 30
0.0
 11
14.8994105295
 21
1117.1087943558
 31
0.0
1001
ACAD
1000
RTMaterial
1005
0
  0
LINE
  5
22C
330
21D
100
AcDbEntity
  8
02___PRT_ALL_AXES
  6
Continuous
 62
     7
100
AcDbLine
 10
5.3961764028
 20
1028.2471088979
 30
0.0
 11
5.3961764028
 21
996.2473774638999
 31
0.0
1001
ACAD
1000
RTMaterial
1005
0
  0
LINE
  5
22D
330
21D
100
AcDbEntity
  8
7_ALL_FEATURES
  6
Continuous
 62
     7
100
AcDbLine
 10
6.5993127232
 20
717.6952980464
 30
0.0
 11
6.5993127232
 21
1030.7473528613
 31
0.0
1001
ACAD
1000
RTMaterial
1005
0
  0
LINE
  5
22E
330
21D
100
AcDbEntity
  8
7_ALL_FEATURES
  6
Continuous
 62
     9
100
AcDbLine
 10
8.599312719
 20
998.9770705025
 30
0.0
 11
8.5993127232
 21
1030.7473528613
 31
0.0
1001
ACAD
1000
RTMaterial
1005
0
  0
LINE
  5
22F
330
21D
100
AcDbEntity
  8
0
  6
Continuous
 62
     7
100
AcDbLine
 10
13.5993127232
 20
1115.2500937918
 30
0.0
 11
13.5993127232
 21
1030.7473528613
 31
0.0
1001
ACAD
1000
RTMaterial
1005
0
  0
LINE
  5
230
330
21D
100
AcDbEntity
  8
0
  6
Continuous
 62
     9
100
AcDbLine
 10
15.0198083863
 20
1113.8295981286
 30
0.0
 11
15.0198083863
 21
1034.1810935777
 31
0.0
1001
ACAD
1000
RTMaterial
1005
0
  0
LINE
  5
232
330
21D
100
AcDbEntity
  8
7_ALL_FEATURES
  6
Continuous
 62
     9
100
AcDbLine
 10
8.5986588117
 20
991.7287875194999
 30
0.0
 11
8.599312714799999
 21
998.9770705025
 31
0.0
1001
ACAD
1000
RTMaterial
1005
0
  0
LINE
  5
233
330
21D
100
AcDbEntity
  8
0
  6
Continuous
 62
     9
100
AcDbLine
 10
47.59931272319999
 20
1116.3536778022
 30
0.0
 11
47.59931272319999
 21
1117.079647967599
 31
0.0
1001
ACAD
1000
RTMaterial
1005
0
  0
LINE
  5
234
330
21D
100
AcDbEntity
  8
0
  6
Continuous
 62
     9
100
AcDbLine
 10
55.5993127232
 20
1115.934415568
 30
0.0
 11
55.5993127242
 21
1115.9357860332
 31
0.0
1001
ACAD
1000
RTMaterial
1005
0
  0
LINE
  5
235
330
21D
100
AcDbEntity
  8
0
  6
Continuous
 62
     9
100
AcDbLine
 10
113.1963646884
 20
1032.1920497869
 30
0.0
 11
113.0589576797
 21
1031.640529821
 31
0.0
1001
ACAD
1000
RTMaterial
1005
0
  0
LINE
  5
236
330
21D
100
AcDbEntity
  8
0
  6
Continuous
 62
     9
100
AcDbLine
 10
81.59931272319999
 20
1115.934415568
 30
0.0
 11
81.59931272319999
 21
1115.9357860332
 31
0.0
1001
ACAD
1000
RTMaterial
1005
0
  0
LINE
  5
237
330
21D
100
AcDbEntity
  8
0
  6
Continuous
 62
     9
100
AcDbLine
 10
89.5993127232
 20
1117.079647967599
 30
0.0
 11
89.5993127232
 21
1116.3536778022
 31
0.0
1001
ACAD
1000
RTMaterial
1005
0
  0
LINE
  5
238
330
21D
100
AcDbEntity
  8
0
  6
Continuous
 62
     9
100
AcDbLine
 10
114.1960220134
 20
1031.1975278916
 30
0.0
 11
114.0586150047
 21
1030.6460079256
 31
0.0
1001
ACAD
1000
RTMaterial
1005
0
  0
LINE
  5
23E
330
21D
100
AcDbEntity
  8
0
  6
Continuous
 62
     7
100
AcDbLine
 10
114.0993127232
 20
1025.5792990971
 30
0.0
 11
114.0993127232
 21
1028.6151227408
 31
0.0
1001
ACAD
1000
RTMaterial
1005
0
  0
LINE
  5
23F
330
21D
100
AcDbEntity
  8
0
  6
Continuous
 62
     9
100
AcDbLine
 10
114.2153673476
 20
1029.3553243961
 30
0.0
 11
114.2153678283
 21
1031.3717638276
 31
0.0
1001
ACAD
1000
RTMaterial
1005
0
  0
LINE
  5
240
330
21D
100
AcDbEntity
  8
0
  6
Continuous
 62
     9
100
AcDbLine
 10
114.8993127232
 20
1029.4425393585
 30
0.0
 11
114.8993127232
 21
997.3657713045
 31
0.0
1001
ACAD
1000
RTMaterial
1005
0
  0
LINE
  5
242
330
21D
100
AcDbEntity
  8
0
  6
Continuous
 62
     9
100
AcDbLine
 10
113.3135867235
 20
1011.7792182633
 30
0.0
 11
113.3031009183
 21
999.9166183294001
 31
0.0
1001
ACAD
1000
RTMaterial
1005
0
  0
LINE
  5
243
330
21D
100
AcDbEntity
  8
0
  6
Continuous
 62
     7
100
AcDbLine
 10
114.3135863329
 20
1011.8036388983
 30
0.0
 11
114.3031005276
 21
999.9410389596
 31
0.0
1001
ACAD
1000
RTMaterial
1005
0
  0
LINE
  5
244
330
21D
100
AcDbEntity
  8
0
  6
Continuous
 62
     9
100
AcDbLine
 10
114.2149383291
 20
1029.0231532351
 30
0.0
 11
114.2153673476
 21
1029.3553243961
 31
0.0
1001
ACAD
1000
RTMaterial
1005
0
  0
LINE
  5
245
330
21D
100
AcDbEntity
  8
0
  6
Continuous
 62
     7
100
AcDbLine
 10
369.0993127232
 20
1117.2473528613
 30
0.0
 11
368.9316078295
 21
1117.079647967599
 31
0.0
1001
ACAD
1000
RTMaterial
1005
0
  0
LWPOLYLINE
  5
246
330
21D
100
AcDbEntity
  8
0
  6
Continuous
 62
     7
100
AcDbPolyline
 90
       10
 70
     0
 43
0.0
 10
113.9275721474
 20
1028.5625766317
 10
113.8962915844
 20
1028.8968998687
 10
113.8641743794
 20
1029.1869508074
 10
113.8308884092
 20
1029.4350951797
 10
113.7952046614
 20
1029.6476009837
 10
113.7532705258
 20
1029.8376867647
 10
113.6913983672
 20
1030.0342894556
 10
113.5528845418
 20
1030.2983228365
 10
113.1909080039
 20
1030.6233321271
 10
112.7028303021
 20
1030.7473840326
  0
LWPOLYLINE
  5
247
330
21D
100
AcDbEntity
  8
0
  6
Continuous
 62
     7
100
AcDbPolyline
 90
        3
 70
     0
 43
0.0
 10
113.9879466296
 20
1027.75642279
 10
113.9580740738
 20
1028.1833078875
 10
113.9275721474
 20
1028.5625766317
  0
LWPOLYLINE
  5
248
330
21D
100
AcDbEntity
  8
0
  6
Continuous
 62
     7
100
AcDbPolyline
 90
        5
 70
     0
 43
0.0
 10
114.1004616594
 20
1025.5525659745
 10
114.0735323243
 20
1026.1791500904
 10
114.0457396344
 20
1026.7550178934
 10
114.0171847107
 20
1027.2805846997
 10
113.9879466296
 20
1027.75642279
  0
LINE
  5
249
330
21D
100
AcDbEntity
  8
0
  6
Continuous
 62
     9
100
AcDbLine
 10
120.2934146624
 20
993.9401558952001
 30
0.0
 11
120.2933056592
 21
992.9190327658998
 31
0.0
1001
ACAD
1000
RTMaterial
1005
0
  0
LINE
  5
24A
330
21D
100
AcDbEntity
  8
0
  6
Continuous
 62
     9
100
AcDbLine
 10
370.1815579905
 20
1115.8268571981
 30
0.0
 11
371.6020536537
 21
1117.2473528613
 31
0.0
1001
ACAD
1000
RTMaterial
1005
0
  0
LINE
  5
24B
330
21D
100
AcDbEntity
  8
0
  6
Continuous
 62
     9
100
AcDbLine
 10
372.17881706
 20
1113.8295981286
 30
0.0
 11
373.5993127232
 21
1115.2500937918
 31
0.0
1001
ACAD
1000
RTMaterial
1005
0
  0
LINE
  5
24C
330
21D
100
AcDbEntity
  8
0
  6
Continuous
 62
     7
100
AcDbLine
 10
183.3525080052
 20
1005.069273988
 30
0.0
 11
183.3525080052
 21
1005.0954008361
 31
0.0
1001
ACAD
1000
RTMaterial
1005
0
  0
LINE
  5
24D
330
21D
100
AcDbEntity
  8
0
  6
Continuous
 62
     7
100
AcDbLine
 10
183.686649938
 20
1005.8595103084
 30
0.0
 11
183.686649938
 21
1005.8854997338
 31
0.0
1001
ACAD
1000
RTMaterial
1005
0
  0
LINE
  5
24E
330
21D
100
AcDbEntity
  8
0
  6
Continuous
 62
     7
100
AcDbLine
 10
184.0227508267
 20
1006.6587722116
 30
0.0
 11
184.0227508267
 21
1006.6846805805
 31
0.0
1001
ACAD
1000
RTMaterial
1005
0
  0
LINE
  5
24F
330
21D
100
AcDbEntity
  8
0
  6
Continuous
 62
     7
100
AcDbLine
 10
184.5760159867
 20
1007.9997277971
 30
0.0
 11
184.5760159867
 21
1008.025621519
 31
0.0
1001
ACAD
1000
RTMaterial
1005
0
  0
LINE
  5
250
330
21D
100
AcDbEntity
  8
0
  6
Continuous
 62
     7
100
AcDbLine
 10
185.1285348777
 20
1006.6587722116
 30
0.0
 11
185.1285348777
 21
1006.6846805805
 31
0.0
1001
ACAD
1000
RTMaterial
1005
0
  0
LINE
  5
251
330
21D
100
AcDbEntity
  8
0
  6
Continuous
 62
     7
100
AcDbLine
 10
185.4636096466
 20
1005.8595103084
 30
0.0
 11
185.4636096466
 21
1005.8854997338
 31
0.0
1001
ACAD
1000
RTMaterial
1005
0
  0
LINE
  5
252
330
21D
100
AcDbEntity
  8
0
  6
Continuous
 62
     7
100
AcDbLine
 10
185.7982179975
 20
1005.069273988
 30
0.0
 11
185.7982179975
 21
1005.0954008361
 31
0.0
1001
ACAD
1000
RTMaterial
1005
0
  0
LINE
  5
253
330
21D
100
AcDbEntity
  8
0
  6
Continuous
 62
     7
100
AcDbLine
 10
188.2780044967
 20
1005.0693173804
 30
0.0
 11
188.2780044967
 21
1005.0954442193
 31
0.0
1001
ACAD
1000
RTMaterial
1005
0
  0
LINE
  5
255
330
21D
100
AcDbEntity
  8
0
  6
Continuous
 62
     7
100
AcDbLine
 10
188.8380793611
 20
1007.399508796
 30
0.0
 11
188.8380793611
 21
1007.4253908459
 31
0.0
1001
ACAD
1000
RTMaterial
1005
0
  0
LINE
  5
256
330
21D
100
AcDbEntity
  8
0
  6
Continuous
 62
     9
100
AcDbLine
 10
189.457669176
 20
1006.9180124716
 30
0.0
 11
189.457669176
 21
1006.9439064164
 31
0.0
1001
ACAD
1000
RTMaterial
1005
0
  0
LINE
  5
257
330
21D
100
AcDbEntity
  8
0
  6
Continuous
 62
     7
100
AcDbLine
 10
189.5352811492
 20
1007.0291046807
 30
0.0
 11
189.5352811492
 21
1007.0549941749
 31
0.0
1001
ACAD
1000
RTMaterial
1005
0
  0
LINE
  5
258
330
21D
100
AcDbEntity
  8
0
  6
Continuous
 62
     7
100
AcDbLine
 10
189.7603745282
 20
1007.0291046807
 30
0.0
 11
189.7603745282
 21
1007.0549941749
 31
0.0
1001
ACAD
1000
RTMaterial
1005
0
  0
LINE
  5
259
330
21D
100
AcDbEntity
  8
0
  6
Continuous
 62
     7
100
AcDbLine
 10
189.7722215482
 20
1007.0121872175
 30
0.0
 11
189.7722215482
 21
1007.0380773229
 31
0.0
1001
ACAD
1000
RTMaterial
1005
0
  0
LINE
  5
25A
330
21D
100
AcDbEntity
  8
0
  6
Continuous
 62
     9
100
AcDbLine
 10
189.8398521739
 20
1006.9081824508
 30
0.0
 11
189.8398521739
 21
1006.9340768391
 31
0.0
1001
ACAD
1000
RTMaterial
1005
0
  0
LINE
  5
25B
330
21D
100
AcDbEntity
  8
0
  6
Continuous
 62
     7
100
AcDbLine
 10
190.4612143776
 20
1007.3982484667
 30
0.0
 11
190.4612143776
 21
1007.4241305228
 31
0.0
1001
ACAD
1000
RTMaterial
1005
0
  0
LINE
  5
25C
330
21D
100
AcDbEntity
  8
0
  6
Continuous
 62
     7
100
AcDbLine
 10
191.0071101315
 20
1005.0693173804
 30
0.0
 11
191.0071101315
 21
1005.0954442193
 31
0.0
1001
ACAD
1000
RTMaterial
1005
0
  0
LINE
  5
25D
330
21D
100
AcDbEntity
  8
0
  6
Continuous
 62
     7
100
AcDbLine
 10
192.7555623654
 20
1009.7657466267
 30
0.0
 11
192.7555623654
 21
1005.069273988
 31
0.0
1001
ACAD
1000
RTMaterial
1005
0
  0
LINE
  5
25E
330
21D
100
AcDbEntity
  8
0
  6
Continuous
 62
     7
100
AcDbLine
 10
193.5993127232
 20
1005.8595103084
 30
0.0
 11
193.5993127232
 21
1006.9958043407
 31
0.0
1001
ACAD
1000
RTMaterial
1005
0
  0
LINE
  5
25F
330
21D
100
AcDbEntity
  8
0
  6
Continuous
 62
     7
100
AcDbLine
 10
193.5993127232
 20
1007.7839815288
 30
0.0
 11
193.5993127232
 21
1008.9536657839
 31
0.0
1001
ACAD
1000
RTMaterial
1005
0
  0
LINE
  5
260
330
21D
100
AcDbEntity
  8
0
  6
Continuous
 62
     7
100
AcDbLine
 10
195.4248731987
 20
1007.7839815288
 30
0.0
 11
195.4248731987
 21
1006.9699126036
 31
0.0
1001
ACAD
1000
RTMaterial
1005
0
  0
LINE
  5
261
330
21D
100
AcDbEntity
  8
0
  6
Continuous
 62
     7
100
AcDbLine
 10
195.9458622256
 20
1009.7657466267
 30
0.0
 11
195.9458622256
 21
1008.9276974658
 31
0.0
1001
ACAD
1000
RTMaterial
1005
0
  0
LINE
  5
262
330
21D
100
AcDbEntity
  8
0
  6
Continuous
 62
     7
100
AcDbLine
 10
195.9458622256
 20
1005.8595103084
 30
0.0
 11
195.9458622256
 21
1005.069273988
 31
0.0
1001
ACAD
1000
RTMaterial
1005
0
  0
LINE
  5
263
330
21D
100
AcDbEntity
  8
0
  6
Continuous
 62
     7
100
AcDbLine
 10
196.6661983519
 20
1009.7657466267
 30
0.0
 11
196.6661983519
 21
1005.069273988
 31
0.0
1001
ACAD
1000
RTMaterial
1005
0
  0
LINE
  5
264
330
21D
100
AcDbEntity
  8
0
  6
Continuous
 62
     7
100
AcDbLine
 10
197.5103218442
 20
1005.069273988
 30
0.0
 11
197.5103218442
 21
1007.7864205971
 31
0.0
1001
ACAD
1000
RTMaterial
1005
0
  0
LINE
  5
265
330
21D
100
AcDbEntity
  8
0
  6
Continuous
 62
     7
100
AcDbLine
 10
199.499035374
 20
1009.7657466267
 30
0.0
 11
199.499035374
 21
1006.7266377924
 31
0.0
1001
ACAD
1000
RTMaterial
1005
0
  0
LINE
  5
266
330
21D
100
AcDbEntity
  8
0
  6
Continuous
 62
     7
100
AcDbLine
 10
199.9458639217
 20
1004.8141505861
 30
0.0
 11
199.9458639217
 21
1004.8403347503
 31
0.0
1001
ACAD
1000
RTMaterial
1005
0
  0
LINE
  5
267
330
21D
100
AcDbEntity
  8
0
  6
Continuous
 62
     7
100
AcDbLine
 10
200.3435320007
 20
1009.7657466267
 30
0.0
 11
200.3435320007
 21
1004.8141505861
 31
0.0
1001
ACAD
1000
RTMaterial
1005
0
  0
LINE
  5
268
330
21D
100
AcDbEntity
  8
0
  6
Continuous
 62
     7
100
AcDbLine
 10
201.0684576813
 20
1009.7657466267
 30
0.0
 11
201.0684576813
 21
1008.9276974658
 31
0.0
1001
ACAD
1000
RTMaterial
1005
0
  0
LINE
  5
269
330
21D
100
AcDbEntity
  8
0
  6
Continuous
 62
     7
100
AcDbLine
 10
202.3344097106
 20
1005.069273988
 30
0.0
 11
202.3344097106
 21
1008.9536657839
 31
0.0
1001
ACAD
1000
RTMaterial
1005
0
  0
LINE
  5
26A
330
21D
100
AcDbEntity
  8
0
  6
Continuous
 62
     7
100
AcDbLine
 10
203.1785332028
 20
1005.069273988
 30
0.0
 11
203.1785332028
 21
1008.9536657839
 31
0.0
1001
ACAD
1000
RTMaterial
1005
0
  0
LINE
  5
26B
330
21D
100
AcDbEntity
  8
0
  6
Continuous
 62
     7
100
AcDbLine
 10
204.4441120977
 20
1009.7657466267
 30
0.0
 11
204.4441120977
 21
1008.9276974658
 31
0.0
1001
ACAD
1000
RTMaterial
1005
0
  0
LINE
  5
26D
330
21D
100
AcDbEntity
  8
0
  6
Continuous
 62
     9
100
AcDbLine
 10
272.9832580988
 20
1029.3553243961
 30
0.0
 11
272.9836871005
 21
1029.0231661476
 31
0.0
1001
ACAD
1000
RTMaterial
1005
0
  0
LINE
  5
26E
330
21D
100
AcDbEntity
  8
0
  6
Continuous
 62
     7
100
AcDbLine
 10
273.8955249188
 20
999.9410389643999
 30
0.0
 11
273.8850391135
 21
1011.8036388967
 31
0.0
1001
ACAD
1000
RTMaterial
1005
0
  0
LINE
  5
26F
330
21D
100
AcDbEntity
  8
0
  6
Continuous
 62
     9
100
AcDbLine
 10
274.8955245281
 20
999.9166183294001
 30
0.0
 11
274.8850387228
 21
1011.7792182633
 31
0.0
1001
ACAD
1000
RTMaterial
1005
0
  0
LINE
  5
270
330
21D
100
AcDbEntity
  8
0
  6
Continuous
 62
     9
100
AcDbLine
 10
267.9052108325
 20
993.9404423531
 30
0.0
 11
267.9053197812
 21
992.9190346702
 31
0.0
1001
ACAD
1000
RTMaterial
1005
0
  0
LINE
  5
272
330
21D
100
AcDbEntity
  8
0
  6
Continuous
 62
     9
100
AcDbLine
 10
272.2993127232
 20
995.9121661908
 30
0.0
 11
272.2993127232
 21
1029.4425393585
 31
0.0
1001
ACAD
1000
RTMaterial
1005
0
  0
LINE
  5
273
330
21D
100
AcDbEntity
  8
0
  6
Continuous
 62
     9
100
AcDbLine
 10
272.5993127232
 20
1116.3536778022
 30
0.0
 11
272.5993127232
 21
1117.079647967599
 31
0.0
1001
ACAD
1000
RTMaterial
1005
0
  0
LINE
  5
274
330
21D
100
AcDbEntity
  8
0
  6
Continuous
 62
     9
100
AcDbLine
 10
272.983259444
 20
1031.3717146857
 30
0.0
 11
272.9832580988
 21
1029.3553243961
 31
0.0
1001
ACAD
1000
RTMaterial
1005
0
  0
LINE
  5
275
330
21D
100
AcDbEntity
  8
0
  6
Continuous
 62
     7
100
AcDbLine
 10
273.0993127232
 20
1028.6151227408
 30
0.0
 11
273.0993127232
 21
996.9976126421
 31
0.0
1001
ACAD
1000
RTMaterial
1005
0
  0
LINE
  5
276
330
21D
100
AcDbEntity
  8
0
  6
Continuous
 62
     9
100
AcDbLine
 10
273.4166967397
 20
1002.7473528613
 30
0.0
 11
273.4166967397
 21
1000.6989307064
 31
0.0
1001
ACAD
1000
RTMaterial
1005
0
  0
LINE
  5
278
330
21D
100
AcDbEntity
  8
7_ALL_FEATURES
  6
Continuous
 62
     7
100
AcDbLine
 10
274.0993127232
 20
1025.2473528613
 30
0.0
 11
274.0993127232
 21
1021.9019283031
 31
0.0
1001
ACAD
1000
RTMaterial
1005
0
  0
LINE
  5
279
330
21D
100
AcDbEntity
  8
0
  6
Continuous
 62
     9
100
AcDbLine
 10
280.5993127232
 20
1115.934415568
 30
0.0
 11
280.5993127242
 21
1115.9357860332
 31
0.0
1001
ACAD
1000
RTMaterial
1005
0
  0
LINE
  5
27A
330
21D
100
AcDbEntity
  8
0
  6
Continuous
 62
     7
100
AcDbLine
 10
273.8855904645
 20
1013.1073148455
 30
0.0
 11
273.8850496356
 21
1011.8036465442
 31
0.0
1001
ACAD
1000
RTMaterial
1005
0
  0
LWPOLYLINE
  5
27B
330
21D
100
AcDbEntity
  8
0
  6
Continuous
 62
     7
100
AcDbPolyline
 90
       12
 70
     0
 43
0.0
 10
274.0462158456
 20
1024.1115574353
 10
274.0226023611
 20
1023.3298523127
 10
274.0003599287
 20
1022.4988967214
 10
273.9796339418
 20
1021.6197173506
 10
273.9605627755
 20
1020.6939391768
 10
273.9432869917
 20
1019.7235493573
 10
273.9279544739
 20
1018.7106707649
 10
273.9147184627
 20
1017.6577078221
 10
273.9037190516
 20
1016.5674936064
 10
273.8950982438
 20
1015.4432190834
 10
273.8890068738
 20
1014.2884217959
 10
273.8855904645
 20
1013.1073148455
  0
LWPOLYLINE
  5
27C
330
21D
100
AcDbEntity
  8
0
  6
Continuous
 62
     7
100
AcDbPolyline
 90
        3
 70
     0
 43
0.0
 10
274.09701872
 20
1025.5242781986
 10
274.0710632091
 20
1024.8432344804
 10
274.0462158456
 20
1024.1115574353
  0
LINE
  5
27D
330
21D
100
AcDbEntity
  8
0
  6
Continuous
 62
     9
100
AcDbLine
 10
15.0198083863
 20
1113.8295981286
 30
0.0
 11
13.5993127232
 21
1115.2500937918
 31
0.0
1001
ACAD
1000
RTMaterial
1005
0
  0
LINE
  5
27E
330
21D
100
AcDbEntity
  8
0
  6
Continuous
 62
     9
100
AcDbLine
 10
17.0170674558
 20
1115.8268571981
 30
0.0
 11
15.5965717927
 21
1117.2473528613
 31
0.0
1001
ACAD
1000
RTMaterial
1005
0
  0
LINE
  5
27F
330
21D
100
AcDbEntity
  8
0
  6
Continuous
 62
     7
100
AcDbLine
 10
18.0993127232
 20
1117.2473528613
 30
0.0
 11
18.2670176169
 21
1117.079647967599
 31
0.0
1001
ACAD
1000
RTMaterial
1005
0
  0
LINE
  5
281
330
21D
100
AcDbEntity
  8
0
  6
Continuous
 62
     7
100
AcDbLine
 10
189.7603745282
 20
1007.0291046807
 30
0.0
 11
189.7722215482
 21
1007.0121872175
 31
0.0
1001
ACAD
1000
RTMaterial
1005
0
  0
LINE
  5
282
330
21D
100
AcDbEntity
  8
0
  6
Continuous
 62
     7
100
AcDbLine
 10
189.7603745282
 20
1007.0549941749
 30
0.0
 11
189.7722215482
 21
1007.0380773229
 31
0.0
1001
ACAD
1000
RTMaterial
1005
0
  0
LINE
  5
283
330
21D
100
AcDbEntity
  8
0
  6
Continuous
 62
     9
100
AcDbLine
 10
331.5993127232
 20
1115.934415568
 30
0.0
 11
331.5993127232
 21
1115.9357860332
 31
0.0
1001
ACAD
1000
RTMaterial
1005
0
  0
LINE
  5
284
330
21D
100
AcDbEntity
  8
0
  6
Continuous
 62
     9
100
AcDbLine
 10
273.002603433
 20
1031.1975278916
 30
0.0
 11
273.1400104417
 21
1030.6460079256
 31
0.0
1001
ACAD
1000
RTMaterial
1005
0
  0
LINE
  5
285
330
21D
100
AcDbEntity
  8
0
  6
Continuous
 62
     9
100
AcDbLine
 10
274.0022607579
 20
1032.1920497869
 30
0.0
 11
274.1396677667
 21
1031.640529821
 31
0.0
1001
ACAD
1000
RTMaterial
1005
0
  0
LINE
  5
286
330
21D
100
AcDbEntity
  8
0
  6
Continuous
 62
     9
100
AcDbLine
 10
339.5993127232
 20
1117.079647967599
 30
0.0
 11
339.5993127232
 21
1116.3536778022
 31
0.0
1001
ACAD
1000
RTMaterial
1005
0
  0
LWPOLYLINE
  5
287
330
21D
100
AcDbEntity
  8
0
  6
Continuous
 62
     7
100
AcDbPolyline
 90
       16
 70
     0
 43
0.0
 10
275.4957710047
 20
1030.7473795445
 10
275.0123491961
 20
1030.625829517
 10
274.6462778765
 20
1030.2990956998
 10
274.5069870924
 20
1030.0336680415
 10
274.4450900047
 20
1029.8366553924
 10
274.4030981317
 20
1029.6459025685
 10
274.3673015967
 20
1029.4321801995
 10
274.3338737591
 20
1029.1822010955
 10
274.3016128127
 20
1028.8897892992
 10
274.2702059718
 20
1028.5527646763
 10
274.2396178453
 20
1028.1708149075
 10
274.2096776829
 20
1027.7411130723
 10
274.1803846912
 20
1027.2622642382
 10
274.1517876199
 20
1026.7335176748
 10
274.1239653267
 20
1026.1543221246
 10
274.09701872
 20
1025.5242781986
  0
LINE
  5
288
330
21D
100
AcDbEntity
  8
02___PRT_ALL_AXES
  6
Continuous
 62
     7
100
AcDbLine
 10
-10.9038235972
 20
996.2473528613001
 30
0.0
 11
5.3961764028
 21
996.2473528613001
 31
0.0
1001
ACAD
1000
RTMaterial
1005
0
  0
LINE
  5
28A
330
21D
100
AcDbEntity
  8
0
  6
Continuous
 62
     9
100
AcDbLine
 10
273.4166967397
 20
1000.6989307064
 30
0.0
 11
273.8948549893
 21
1000.6989307064
 31
0.0
1001
ACAD
1000
RTMaterial
1005
0
  0
LINE
  5
28B
330
21D
100
AcDbEntity
  8
0
  6
Continuous
 62
     9
100
AcDbLine
 10
273.4166967397
 20
1002.7473528613
 30
0.0
 11
273.8930443107
 21
1002.7473528613
 31
0.0
1001
ACAD
1000
RTMaterial
1005
0
  0
LINE
  5
28C
330
21D
100
AcDbEntity
  8
0
  6
Continuous
 62
     7
100
AcDbLine
 10
199.9458639217
 20
1004.8141505861
 30
0.0
 11
200.3435320007
 21
1004.8141505861
 31
0.0
1001
ACAD
1000
RTMaterial
1005
0
  0
LINE
  5
28D
330
21D
100
AcDbEntity
  8
0
  6
Continuous
 62
     7
100
AcDbLine
 10
199.9458639217
 20
1004.8403347503
 30
0.0
 11
200.3435320007
 21
1004.8403347503
 31
0.0
1001
ACAD
1000
RTMaterial
1005
0
  0
LINE
  5
28E
330
21D
100
AcDbEntity
  8
0
  6
Continuous
 62
     7
100
AcDbLine
 10
182.4441120977
 20
1005.069273988
 30
0.0
 11
183.3525080052
 21
1005.069273988
 31
0.0
1001
ACAD
1000
RTMaterial
1005
0
  0
LINE
  5
28F
330
21D
100
AcDbEntity
  8
0
  6
Continuous
 62
     7
100
AcDbLine
 10
185.7982179975
 20
1005.069273988
 30
0.0
 11
186.706613905
 21
1005.069273988
 31
0.0
1001
ACAD
1000
RTMaterial
1005
0
  0
LINE
  5
290
330
21D
100
AcDbEntity
  8
0
  6
Continuous
 62
     7
100
AcDbLine
 10
192.7555623654
 20
1005.069273988
 30
0.0
 11
195.9458622256
 21
1005.069273988
 31
0.0
1001
ACAD
1000
RTMaterial
1005
0
  0
LINE
  5
291
330
21D
100
AcDbEntity
  8
0
  6
Continuous
 62
     7
100
AcDbLine
 10
196.6661983519
 20
1005.069273988
 30
0.0
 11
197.5103218442
 21
1005.069273988
 31
0.0
1001
ACAD
1000
RTMaterial
1005
0
  0
LINE
  5
292
330
21D
100
AcDbEntity
  8
0
  6
Continuous
 62
     7
100
AcDbLine
 10
202.3344097106
 20
1005.069273988
 30
0.0
 11
203.1785332028
 21
1005.069273988
 31
0.0
1001
ACAD
1000
RTMaterial
1005
0
  0
LINE
  5
293
330
21D
100
AcDbEntity
  8
0
  6
Continuous
 62
     7
100
AcDbLine
 10
187.1900376175
 20
1005.0693173804
 30
0.0
 11
188.2780044967
 21
1005.0693173804
 31
0.0
1001
ACAD
1000
RTMaterial
1005
0
  0
LINE
  5
294
330
21D
100
AcDbEntity
  8
0
  6
Continuous
 62
     7
100
AcDbLine
 10
191.0071101315
 20
1005.0693173804
 30
0.0
 11
192.0302448937
 21
1005.0693173804
 31
0.0
1001
ACAD
1000
RTMaterial
1005
0
  0
LINE
  5
295
330
21D
100
AcDbEntity
  8
0
  6
Continuous
 62
     7
100
AcDbLine
 10
182.4441120977
 20
1005.0954008361
 30
0.0
 11
183.3525080052
 21
1005.0954008361
 31
0.0
1001
ACAD
1000
RTMaterial
1005
0
  0
LINE
  5
296
330
21D
100
AcDbEntity
  8
0
  6
Continuous
 62
     7
100
AcDbLine
 10
185.7982179975
 20
1005.0954008361
 30
0.0
 11
186.706613905
 21
1005.0954008361
 31
0.0
1001
ACAD
1000
RTMaterial
1005
0
  0
LINE
  5
297
330
21D
100
AcDbEntity
  8
0
  6
Continuous
 62
     7
100
AcDbLine
 10
192.7555623654
 20
1005.0954008361
 30
0.0
 11
195.9458622256
 21
1005.0954008361
 31
0.0
1001
ACAD
1000
RTMaterial
1005
0
  0
LINE
  5
298
330
21D
100
AcDbEntity
  8
0
  6
Continuous
 62
     7
100
AcDbLine
 10
196.6661983519
 20
1005.0954008361
 30
0.0
 11
197.5103218442
 21
1005.0954008361
 31
0.0
1001
ACAD
1000
RTMaterial
1005
0
  0
LINE
  5
299
330
21D
100
AcDbEntity
  8
0
  6
Continuous
 62
     7
100
AcDbLine
 10
202.3344097106
 20
1005.0954008361
 30
0.0
 11
203.1785332028
 21
1005.0954008361
 31
0.0
1001
ACAD
1000
RTMaterial
1005
0
  0
LINE
  5
29A
330
21D
100
AcDbEntity
  8
0
  6
Continuous
 62
     7
100
AcDbLine
 10
187.1900376175
 20
1005.0954442193
 30
0.0
 11
188.2780044967
 21
1005.0954442193
 31
0.0
1001
ACAD
1000
RTMaterial
1005
0
  0
LINE
  5
29B
330
21D
100
AcDbEntity
  8
0
  6
Continuous
 62
     7
100
AcDbLine
 10
191.0071101315
 20
1005.0954442193
 30
0.0
 11
192.0302448937
 21
1005.0954442193
 31
0.0
1001
ACAD
1000
RTMaterial
1005
0
  0
LINE
  5
29C
330
21D
100
AcDbEntity
  8
0
  6
Continuous
 62
     9
100
AcDbLine
 10
273.524405922
 20
1005.7473528613
 30
0.0
 11
273.4952545044
 21
1005.7473528613
 31
0.0
1001
ACAD
1000
RTMaterial
1005
0
  0
LINE
  5
29D
330
21D
100
AcDbEntity
  8
0
  6
Continuous
 62
     7
100
AcDbLine
 10
183.686649938
 20
1005.8595103084
 30
0.0
 11
185.4636096466
 21
1005.8595103084
 31
0.0
1001
ACAD
1000
RTMaterial
1005
0
  0
LINE
  5
29E
330
21D
100
AcDbEntity
  8
0
  6
Continuous
 62
     7
100
AcDbLine
 10
193.5993127232
 20
1005.8595103084
 30
0.0
 11
195.9458622256
 21
1005.8595103084
 31
0.0
1001
ACAD
1000
RTMaterial
1005
0
  0
LINE
  5
29F
330
21D
100
AcDbEntity
  8
0
  6
Continuous
 62
     7
100
AcDbLine
 10
183.686649938
 20
1005.8854997338
 30
0.0
 11
185.4636096466
 21
1005.8854997338
 31
0.0
1001
ACAD
1000
RTMaterial
1005
0
  0
LINE
  5
2A0
330
21D
100
AcDbEntity
  8
0
  6
Continuous
 62
     7
100
AcDbLine
 10
5.3961764028
 20
997.1078249325
 30
0.0
 11
6.5993127232
 21
997.1015252678999
 31
0.0
1001
ACAD
1000
RTMaterial
1005
0
  0
LINE
  5
2A2
330
21D
100
AcDbEntity
  8
0
  6
Continuous
 62
     9
100
AcDbLine
 10
372.17881706
 20
1034.1810935777
 30
0.0
 11
372.17881706
 21
1113.8295981286
 31
0.0
1001
ACAD
1000
RTMaterial
1005
0
  0
LINE
  5
2A3
330
21D
100
AcDbEntity
  8
0
  6
Continuous
 62
     7
100
AcDbLine
 10
373.5993127232
 20
1030.7473528613
 30
0.0
 11
373.5993127232
 21
1115.2500937918
 31
0.0
1001
ACAD
1000
RTMaterial
1005
0
  0
LINE
  5
2A4
330
21D
100
AcDbEntity
  8
7_ALL_FEATURES
  6
Continuous
 62
     9
100
AcDbLine
 10
379.5993127232
 20
1030.7473528613
 30
0.0
 11
379.5993148528
 21
998.8842690544
 31
0.0
1001
ACAD
1000
RTMaterial
1005
0
  0
LINE
  5
2A5
330
21D
100
AcDbEntity
  8
7_ALL_FEATURES
  6
Continuous
 62
     9
100
AcDbLine
 10
379.5993191077
 20
998.8842690359
 30
0.0
 11
379.5999666347
 21
991.7287875249
 31
0.0
1001
ACAD
1000
RTMaterial
1005
0
  0
LINE
  5
2A6
330
21D
100
AcDbEntity
  8
7_ALL_FEATURES
  6
Continuous
 62
     7
100
AcDbLine
 10
381.5993127232
 20
1030.7473528613
 30
0.0
 11
381.5993127232
 21
717.6952980464
 31
0.0
1001
ACAD
1000
RTMaterial
1005
0
  0
LINE
  5
2A7
330
21D
100
AcDbEntity
  8
0
  6
Continuous
 62
     7
100
AcDbLine
 10
372.2992149135
 20
1117.1087933068
 30
0.0
 11
372.2994851976
 21
1117.2473528613
 31
0.0
1001
ACAD
1000
RTMaterial
1005
0
  0
LINE
  5
2A8
330
21D
100
AcDbEntity
  8
0
  6
Continuous
 62
     7
100
AcDbLine
 10
378.2993628376
 20
1117.2472737796
 30
0.0
 11
378.1285815415
 21
1030.7473528613
 31
0.0
1001
ACAD
1000
RTMaterial
1005
0
  0
LINE
  5
2A9
330
21D
100
AcDbEntity
  8
0
  6
Continuous
 62
     7
100
AcDbLine
 10
5.3961764028
 20
1027.3868807901
 30
0.0
 11
6.5993127232
 21
1027.3931804547
 31
0.0
1001
ACAD
1000
RTMaterial
1005
0
  0
LINE
  5
2AA
330
21D
100
AcDbEntity
  8
0
  6
Continuous
 62
     7
100
AcDbLine
 10
275.4955658833
 20
1030.747352311
 30
0.0
 11
275.4957205679001
 21
1030.7473528602
 31
0.0
1001
ACAD
1000
RTMaterial
1005
0
  0
LINE
  5
2AB
330
21D
100
AcDbEntity
  8
0
  6
Continuous
 62
     7
100
AcDbLine
 10
184.0227508267
 20
1006.6587722116
 30
0.0
 11
185.1285348777
 21
1006.6587722116
 31
0.0
1001
ACAD
1000
RTMaterial
1005
0
  0
LINE
  5
2AC
330
21D
100
AcDbEntity
  8
0
  6
Continuous
 62
     7
100
AcDbLine
 10
193.5993127232
 20
1006.9699126036
 30
0.0
 11
195.4248731987
 21
1006.9699126036
 31
0.0
1001
ACAD
1000
RTMaterial
1005
0
  0
LINE
  5
2AD
330
21D
100
AcDbEntity
  8
0
  6
Continuous
 62
     7
100
AcDbLine
 10
193.5993127232
 20
1006.9958043407
 30
0.0
 11
195.4248731987
 21
1006.9958043407
 31
0.0
1001
ACAD
1000
RTMaterial
1005
0
  0
LINE
  5
2AE
330
21D
100
AcDbEntity
  8
0
  6
Continuous
 62
     7
100
AcDbLine
 10
189.5352811492
 20
1007.0291046807
 30
0.0
 11
189.7603745282
 21
1007.0291046807
 31
0.0
1001
ACAD
1000
RTMaterial
1005
0
  0
LINE
  5
2AF
330
21D
100
AcDbEntity
  8
0
  6
Continuous
 62
     7
100
AcDbLine
 10
189.5352811492
 20
1007.0549941749
 30
0.0
 11
189.7603745282
 21
1007.0549941749
 31
0.0
1001
ACAD
1000
RTMaterial
1005
0
  0
LINE
  5
2B0
330
21D
100
AcDbEntity
  8
0
  6
Continuous
 62
     7
100
AcDbLine
 10
193.5993127232
 20
1007.7839815288
 30
0.0
 11
195.4248731987
 21
1007.7839815288
 31
0.0
1001
ACAD
1000
RTMaterial
1005
0
  0
LINE
  5
2B1
330
21D
100
AcDbEntity
  8
0
  6
Continuous
 62
     7
100
AcDbLine
 10
189.5338818949
 20
1007.8192572194
 30
0.0
 11
189.7617737826
 21
1007.8192572194
 31
0.0
1001
ACAD
1000
RTMaterial
1005
0
  0
LINE
  5
2B2
330
21D
100
AcDbEntity
  8
0
  6
Continuous
 62
     7
100
AcDbLine
 10
193.5993127232
 20
1008.9276974658
 30
0.0
 11
195.9458622256
 21
1008.9276974658
 31
0.0
1001
ACAD
1000
RTMaterial
1005
0
  0
LINE
  5
2B3
330
21D
100
AcDbEntity
  8
0
  6
Continuous
 62
     7
100
AcDbLine
 10
201.0684576813
 20
1008.9276974658
 30
0.0
 11
202.3344097106
 21
1008.9276974658
 31
0.0
1001
ACAD
1000
RTMaterial
1005
0
  0
LINE
  5
2B4
330
21D
100
AcDbEntity
  8
0
  6
Continuous
 62
     7
100
AcDbLine
 10
203.1785332028
 20
1008.9276974658
 30
0.0
 11
204.4441120977
 21
1008.9276974658
 31
0.0
1001
ACAD
1000
RTMaterial
1005
0
  0
LINE
  5
2B5
330
21D
100
AcDbEntity
  8
0
  6
Continuous
 62
     7
100
AcDbLine
 10
193.5993127232
 20
1008.9536657839
 30
0.0
 11
195.9458622256
 21
1008.9536657839
 31
0.0
1001
ACAD
1000
RTMaterial
1005
0
  0
LINE
  5
2B6
330
21D
100
AcDbEntity
  8
0
  6
Continuous
 62
     7
100
AcDbLine
 10
201.0684576813
 20
1008.9536657839
 30
0.0
 11
202.3344097106
 21
1008.9536657839
 31
0.0
1001
ACAD
1000
RTMaterial
1005
0
  0
LINE
  5
2B7
330
21D
100
AcDbEntity
  8
0
  6
Continuous
 62
     7
100
AcDbLine
 10
203.1785332028
 20
1008.9536657839
 30
0.0
 11
204.4441120977
 21
1008.9536657839
 31
0.0
1001
ACAD
1000
RTMaterial
1005
0
  0
LINE
  5
2B8
330
21D
100
AcDbEntity
  8
0
  6
Continuous
 62
     7
100
AcDbLine
 10
187.1900376175
 20
1009.7506042335
 30
0.0
 11
188.2675567311
 21
1009.7506042335
 31
0.0
1001
ACAD
1000
RTMaterial
1005
0
  0
LINE
  5
2B9
330
21D
100
AcDbEntity
  8
0
  6
Continuous
 62
     7
100
AcDbLine
 10
191.0071101315
 20
1009.7506042335
 30
0.0
 11
192.0302448937
 21
1009.7506042335
 31
0.0
1001
ACAD
1000
RTMaterial
1005
0
  0
LINE
  5
2BA
330
21D
100
AcDbEntity
  8
0
  6
Continuous
 62
     7
100
AcDbLine
 10
184.3784412761
 20
1009.7657466267
 30
0.0
 11
184.7723780103
 21
1009.7657466267
 31
0.0
1001
ACAD
1000
RTMaterial
1005
0
  0
LINE
  5
2BB
330
21D
100
AcDbEntity
  8
0
  6
Continuous
 62
     7
100
AcDbLine
 10
192.7555623654
 20
1009.7657466267
 30
0.0
 11
195.9458622256
 21
1009.7657466267
 31
0.0
1001
ACAD
1000
RTMaterial
1005
0
  0
LINE
  5
2BC
330
21D
100
AcDbEntity
  8
0
  6
Continuous
 62
     7
100
AcDbLine
 10
196.6661983519
 20
1009.7657466267
 30
0.0
 11
197.0593888172
 21
1009.7657466267
 31
0.0
1001
ACAD
1000
RTMaterial
1005
0
  0
LINE
  5
2BD
330
21D
100
AcDbEntity
  8
0
  6
Continuous
 62
     7
100
AcDbLine
 10
199.499035374
 20
1009.7657466267
 30
0.0
 11
200.3435320007
 21
1009.7657466267
 31
0.0
1001
ACAD
1000
RTMaterial
1005
0
  0
LINE
  5
2BE
330
21D
100
AcDbEntity
  8
0
  6
Continuous
 62
     7
100
AcDbLine
 10
201.0684576813
 20
1009.7657466267
 30
0.0
 11
204.4441120977
 21
1009.7657466267
 31
0.0
1001
ACAD
1000
RTMaterial
1005
0
  0
LINE
  5
2C1
330
21D
100
AcDbEntity
  8
02___PRT_ALL_AXES
  6
Continuous
 62
     7
100
AcDbLine
 10
-10.9038235972
 20
1028.2473528613
 30
0.0
 11
5.3961764028
 21
1028.2473528613
 31
0.0
1001
ACAD
1000
RTMaterial
1005
0
  0
LINE
  5
2C2
330
21D
100
AcDbEntity
  8
0
  6
Continuous
 62
     7
100
AcDbLine
 10
114.8993127232
 20
1029.4425393585
 30
0.0
 11
272.2993127232
 21
1029.4425393585
 31
0.0
1001
ACAD
1000
RTMaterial
1005
0
  0
LINE
  5
2C3
330
21D
100
AcDbEntity
  8
7_ALL_FEATURES
  6
Continuous
 62
     7
100
AcDbLine
 10
382.0993127232
 20
1026.6473528613
 30
0.0
 11
382.0993127232
 21
997.8473528612999
 31
0.0
1001
ACAD
1000
RTMaterial
1005
0
  0
LINE
  5
2C4
330
21D
100
AcDbEntity
  8
7_ALL_FEATURES
  6
Continuous
 62
     7
100
AcDbLine
 10
6.5993127232
 20
1030.7473528613
 30
0.0
 11
8.5993127232
 21
1030.7473528613
 31
0.0
1001
ACAD
1000
RTMaterial
1005
0
  0
LINE
  5
2C5
330
21D
100
AcDbEntity
  8
02___PRT_ALL_AXES
  6
Continuous
 62
     7
100
AcDbLine
 10
8.5993127232
 20
1030.7473528613
 30
0.0
 11
112.702772745
 21
1030.7473528613
 31
0.0
1001
ACAD
1000
RTMaterial
1005
0
  0
LINE
  5
2C6
330
21D
100
AcDbEntity
  8
02___PRT_ALL_AXES
  6
Continuous
 62
     7
100
AcDbLine
 10
275.4958527213
 20
1030.7473528613
 30
0.0
 11
379.5993127232
 21
1030.7473528613
 31
0.0
1001
ACAD
1000
RTMaterial
1005
0
  0
LINE
  5
2C7
330
21D
100
AcDbEntity
  8
7_ALL_FEATURES
  6
Continuous
 62
     7
100
AcDbLine
 10
379.5993127232
 20
1030.7473528613
 30
0.0
 11
381.5993127232
 21
1030.7473528613
 31
0.0
1001
ACAD
1000
RTMaterial
1005
0
  0
LINE
  5
2CA
330
21D
100
AcDbEntity
  8
0
  6
Continuous
 62
     9
100
AcDbLine
 10
370.456560578
 20
1031.640529821
 30
0.0
 11
274.1396677667
 21
1031.640529821
 31
0.0
1001
ACAD
1000
RTMaterial
1005
0
  0
LINE
  5
2CB
330
21D
100
AcDbEntity
  8
0
  6
Continuous
 62
     9
100
AcDbLine
 10
16.7420648684
 20
1031.640529821
 30
0.0
 11
113.0589576797
 21
1031.640529821
 31
0.0
1001
ACAD
1000
RTMaterial
1005
0
  0
LINE
  5
2CC
330
21D
100
AcDbEntity
  8
0
  6
Continuous
 62
     9
100
AcDbLine
 10
17.0170674558
 20
1032.1920497869
 30
0.0
 11
113.1963646884
 21
1032.1920497869
 31
0.0
1001
ACAD
1000
RTMaterial
1005
0
  0
LINE
  5
2CD
330
21D
100
AcDbEntity
  8
0
  6
Continuous
 62
     9
100
AcDbLine
 10
274.0022607579
 20
1032.1920497869
 30
0.0
 11
370.1815579905
 21
1032.1920497869
 31
0.0
1001
ACAD
1000
RTMaterial
1005
0
  0
LINE
  5
2D0
330
21D
100
AcDbEntity
  8
0
  6
Continuous
 62
     7
100
AcDbLine
 10
112.7029030542
 20
1030.7473528594
 30
0.0
 11
112.7030486534
 21
1030.7473523907
 31
0.0
1001
ACAD
1000
RTMaterial
1005
0
  0
LWPOLYLINE
  5
2D1
330
21D
100
AcDbEntity
  8
0
  6
Continuous
 62
     7
100
AcDbPolyline
 90
       13
 70
     0
 43
0.0
 10
338.6958940521
 20
1116.1669328934
 10
338.4282334172
 20
1116.1405017171
 10
338.1112890557
 20
1116.1142954174
 10
337.745761283
 20
1116.0887104308
 10
337.3324734456
 20
1116.064103868
 10
336.8721668313
 20
1116.0408087393
 10
336.3655573896
 20
1116.0190790027
 10
335.8138368763
 20
1115.9991941329
 10
335.2187265838
 20
1115.981494013
 10
334.5826615102
 20
1115.9662538004
 10
333.9084515764
 20
1115.9537512139
 10
333.1993912612
 20
1115.9443176965
 10
332.4594221701
 20
1115.9382123593
  0
LWPOLYLINE
  5
2D2
330
21D
100
AcDbEntity
  8
0
  6
Continuous
 62
     7
100
AcDbPolyline
 90
        5
 70
     0
 43
0.0
 10
48.5670172133
 20
1116.1601215541
 10
48.32820526489999
 20
1116.1874033195
 10
48.1505751457
 20
1116.2126513387
 10
48.0392481702
 20
1116.2329521595
 10
48.0222004387
 20
1116.2367306498
  0
LINE
  5
2D3
330
21D
100
AcDbEntity
  8
0
  6
Continuous
 62
     9
100
AcDbLine
 10
370.1815579905
 20
1032.1920497869
 30
0.0
 11
370.456560578
 21
1031.640529821
 31
0.0
1001
ACAD
1000
RTMaterial
1005
0
  0
LINE
  5
2D4
330
21D
100
AcDbEntity
  8
0
  6
Continuous
 62
     9
100
AcDbLine
 10
372.17881706
 20
1034.1810935777
 30
0.0
 11
372.4538196475
 21
1033.6295736117
 31
0.0
1001
ACAD
1000
RTMaterial
1005
0
  0
LWPOLYLINE
  5
2D5
330
21D
100
AcDbEntity
  8
0
  6
Continuous
 62
     7
100
AcDbPolyline
 90
       13
 70
     0
 43
0.0
 10
88.69589405209998
 20
1116.1669328934
 10
88.42823341719999
 20
1116.1405017171
 10
88.11128905569999
 20
1116.1142954174
 10
87.74576128299999
 20
1116.0887104308
 10
87.3324734456
 20
1116.064103868
 10
86.87216683129999
 20
1116.0408087393
 10
86.36555738959998
 20
1116.0190790027
 10
85.81383687629999
 20
1115.9991941329
 10
85.21872658380001
 20
1115.981494013
 10
84.5826615102
 20
1115.9662538004
 10
83.90845157639999
 20
1115.9537512139
 10
83.19939126120001
 20
1115.9443176965
 10
82.4594221701
 20
1115.9382123593
  0
LINE
  5
2D6
330
21D
100
AcDbEntity
  8
0
  6
Continuous
 62
     7
100
AcDbLine
 10
332.4594221701
 20
1115.9382123593
 30
0.0
 11
331.599312722
 21
1115.9357559167
 31
0.0
1001
ACAD
1000
RTMaterial
1005
0
  0
LINE
  5
2D7
330
21D
100
AcDbEntity
  8
0
  6
Continuous
 62
     7
100
AcDbLine
 10
82.4594221701
 20
1115.9382123593
 30
0.0
 11
81.59931272199999
 21
1115.9357559167
 31
0.0
1001
ACAD
1000
RTMaterial
1005
0
  0
LINE
  5
2D9
330
21D
100
AcDbEntity
  8
0
  6
Continuous
 62
     9
100
AcDbLine
 10
370.1815579905
 20
1115.8268571981
 30
0.0
 11
17.0170674558
 21
1115.8268571981
 31
0.0
1001
ACAD
1000
RTMaterial
1005
0
  0
LINE
  5
2DA
330
21D
100
AcDbEntity
  8
0
  6
Continuous
 62
     9
100
AcDbLine
 10
331.5993127232
 20
1115.934415568
 30
0.0
 11
280.5993127232
 21
1115.934415568
 31
0.0
1001
ACAD
1000
RTMaterial
1005
0
  0
LINE
  5
2DB
330
21D
100
AcDbEntity
  8
0
  6
Continuous
 62
     9
100
AcDbLine
 10
81.59931272319999
 20
1115.934415568
 30
0.0
 11
55.5993127232
 21
1115.934415568
 31
0.0
1001
ACAD
1000
RTMaterial
1005
0
  0
LINE
  5
2DC
330
21D
100
AcDbEntity
  8
0
  6
Continuous
 62
     7
100
AcDbLine
 10
331.5993127232
 20
1115.9357860332
 30
0.0
 11
280.5993127244
 21
1115.9357860332
 31
0.0
1001
ACAD
1000
RTMaterial
1005
0
  0
LINE
  5
2DD
330
21D
100
AcDbEntity
  8
0
  6
Continuous
 62
     7
100
AcDbLine
 10
81.59931272319999
 20
1115.9357860332
 30
0.0
 11
55.5993127244
 21
1115.9357860332
 31
0.0
1001
ACAD
1000
RTMaterial
1005
0
  0
LINE
  5
2DE
330
21D
100
AcDbEntity
  8
0
  6
Continuous
 62
     7
100
AcDbLine
 10
368.9316078295
 20
1117.079647967599
 30
0.0
 11
339.5993127232
 21
1117.079647967599
 31
0.0
1001
ACAD
1000
RTMaterial
1005
0
  0
LINE
  5
2DF
330
21D
100
AcDbEntity
  8
0
  6
Continuous
 62
     7
100
AcDbLine
 10
272.5993127232
 20
1117.079647967599
 30
0.0
 11
89.5993127232
 21
1117.079647967599
 31
0.0
1001
ACAD
1000
RTMaterial
1005
0
  0
LINE
  5
2E0
330
21D
100
AcDbEntity
  8
0
  6
Continuous
 62
     7
100
AcDbLine
 10
47.59931272319999
 20
1117.079647967599
 30
0.0
 11
18.2670176169
 21
1117.079647967599
 31
0.0
1001
ACAD
1000
RTMaterial
1005
0
  0
LINE
  5
2E1
330
21D
100
AcDbEntity
  8
0
  6
Continuous
 62
     7
100
AcDbLine
 10
378.2974705182
 20
1117.2473528613
 30
0.0
 11
8.9011496851
 21
1117.2473528613
 31
0.0
1001
ACAD
1000
RTMaterial
1005
0
  0
LWPOLYLINE
  5
2E2
330
21D
100
AcDbEntity
  8
0
  6
Continuous
 62
     7
100
AcDbPolyline
 90
       13
 70
     0
 43
0.0
 10
55.5993127255
 20
1115.9357559149
 10
54.7092817628
 20
1115.9383876403
 10
53.9248610928
 20
1115.9451376913
 10
53.1743975385
 20
1115.9556449973
 10
52.4630869852
 20
1115.9695989447
 10
51.7953280661
 20
1115.9866027014
 10
51.17502248939999
 20
1116.0063305293
 10
50.60518885
 20
1116.0284044382
 10
50.0880220523
 20
1116.0523987955
 10
49.6247937792
 20
1116.0779870171
 10
49.2163724389
 20
1116.1047809509
 10
48.8636027545
 20
1116.1323155967
 10
48.5670172133
 20
1116.1601215541
  0
LWPOLYLINE
  5
2E3
330
21D
100
AcDbEntity
  8
0
  6
Continuous
 62
     7
100
AcDbPolyline
 90
       13
 70
     0
 43
0.0
 10
280.5993127255
 20
1115.9357559149
 10
279.7092817628
 20
1115.9383876403
 10
278.9248610928
 20
1115.9451376913
 10
278.1743975385
 20
1115.9556449973
 10
277.4630869852
 20
1115.9695989447
 10
276.7953280661
 20
1115.9866027014
 10
276.1750224894
 20
1116.0063305293
 10
275.60518885
 20
1116.0284044382
 10
275.0880220523
 20
1116.0523987955
 10
274.6247937792
 20
1116.0779870171
 10
274.2163724389
 20
1116.1047809509
 10
273.8636027545
 20
1116.1323155967
 10
273.5670172133
 20
1116.1601215541
  0
LWPOLYLINE
  5
2E4
330
21D
100
AcDbEntity
  8
0
  6
Continuous
 62
     7
100
AcDbPolyline
 90
        5
 70
     0
 43
0.0
 10
273.5670172133
 20
1116.1601215541
 10
273.3282052649
 20
1116.1874033195
 10
273.1505751457
 20
1116.2126513387
 10
273.0392481702
 20
1116.2329521595
 10
273.0222004387
 20
1116.2367306498
  0
LINE
  5
2E5
330
21D
100
AcDbEntity
  8
0
  6
Continuous
 62
     7
100
AcDbLine
 10
28.5993127232
 20
1244.3528278729
 30
0.0
 11
358.5993127232
 21
1244.3528278729
 31
0.0
1001
ACAD
1000
RTMaterial
1005
0
  0
LINE
  5
2E6
330
21D
100
AcDbEntity
  8
0
  6
Continuous
 62
     7
100
AcDbLine
 10
-11.4038235972
 20
1662.852952503
 30
0.0
 11
-11.4038235972
 21
1693.8527032428
 31
0.0
1001
ACAD
1000
RTMaterial
1005
0
  0
LINE
  5
2E7
330
21D
100
AcDbEntity
  8
0
  6
Continuous
 62
     9
100
AcDbLine
 10
-10.9038235972
 20
1662.3528278729
 30
0.0
 11
-10.9038235972
 21
1694.3528278729
 31
0.0
1001
ACAD
1000
RTMaterial
1005
0
  0
LINE
  5
2E8
330
21D
100
AcDbEntity
  8
02___PRT_ALL_AXES
  6
Continuous
 62
     7
100
AcDbLine
 10
5.3961764028
 20
1662.3528784014
 30
0.0
 11
5.3961764028
 21
1694.3527773444
 31
0.0
1001
ACAD
1000
RTMaterial
1005
0
  0
LINE
  5
2E9
330
21D
100
AcDbEntity
  8
7_ALL_FEATURES
  6
Continuous
 62
     7
100
AcDbLine
 10
6.5993127232
 20
1659.8528278729
 30
0.0
 11
6.5993127232
 21
1694.8523297961
 31
0.0
1001
ACAD
1000
RTMaterial
1005
0
  0
LINE
  5
2EA
330
21D
100
AcDbEntity
  8
06___PRT_ALL_SURFS
  6
Continuous
 62
     7
100
AcDbLine
 10
6.5993127232
 20
1659.8633171413
 30
0.0
 11
6.5993127232
 21
1659.8528278729
 31
0.0
1001
ACAD
1000
RTMaterial
1005
0
  0
LINE
  5
2EB
330
21D
100
AcDbEntity
  8
7_ALL_FEATURES
  6
Continuous
 62
     9
100
AcDbLine
 10
8.5986588117
 20
1696.3400312788
 30
0.0
 11
8.599312714799999
 21
1696.5228473038
 31
0.0
1001
ACAD
1000
RTMaterial
1005
0
  0
LINE
  5
2EC
330
21D
100
AcDbEntity
  8
7_ALL_FEATURES
  6
Continuous
 62
     9
100
AcDbLine
 10
8.032212185499998
 20
1687.5245849635
 30
0.0
 11
6.5993127232
 21
1659.8528278729
 31
0.0
1001
ACAD
1000
RTMaterial
1005
0
  0
LINE
  5
2ED
330
21D
100
AcDbEntity
  8
7_ALL_FEATURES
  6
Continuous
 62
     9
100
AcDbLine
 10
8.064729250499999
 20
1687.4625961297
 30
0.0
 11
6.6178738845
 21
1659.8528278729
 31
0.0
1001
ACAD
1000
RTMaterial
1005
0
  0
LINE
  5
2EE
330
21D
100
AcDbEntity
  8
0
  6
Continuous
 62
     7
100
AcDbLine
 10
13.8864864241
 20
1659.832428514
 30
0.0
 11
13.5993127232
 21
1654.3528278729
 31
0.0
1001
ACAD
1000
RTMaterial
1005
0
  0
LINE
  5
2EF
330
21D
100
AcDbEntity
  8
0
  6
Continuous
 62
     7
100
AcDbLine
 10
8.9062559498
 20
1648.0604931545
 30
0.0
 11
28.5993127232
 21
1244.3528278729
 31
0.0
1001
ACAD
1000
RTMaterial
1005
0
  0
LINE
  5
2F0
330
21D
100
AcDbEntity
  8
7_ALL_FEATURES
  6
Continuous
 62
     9
100
AcDbLine
 10
8.599312719
 20
1696.5228473038
 30
0.0
 11
8.5993127232
 21
1696.8528278675
 31
0.0
1001
ACAD
1000
RTMaterial
1005
0
  0
LINE
  5
2F1
330
21D
100
AcDbEntity
  8
0
  6
Continuous
 62
     9
100
AcDbLine
 10
18.7502068863
 20
1657.3628101976
 30
0.0
 11
18.7502068869
 21
1659.2204349913
 31
0.0
1001
ACAD
1000
RTMaterial
1005
0
  0
LINE
  5
2F2
330
21D
100
AcDbEntity
  8
0
  6
Continuous
 62
     9
100
AcDbLine
 10
22.765282004
 20
1657.3628101976
 30
0.0
 11
22.765282004
 21
1659.2204349909
 31
0.0
1001
ACAD
1000
RTMaterial
1005
0
  0
LINE
  5
2F3
330
21D
100
AcDbEntity
  8
0
  6
Continuous
 62
     9
100
AcDbLine
 10
18.7502068863
 20
1657.3628101976
 30
0.0
 11
18.5924603969
 21
1654.3528278729
 31
0.0
1001
ACAD
1000
RTMaterial
1005
0
  0
LINE
  5
2F4
330
21D
100
AcDbEntity
  8
0
  6
Continuous
 62
     9
100
AcDbLine
 10
22.6075355146
 20
1654.3528278729
 30
0.0
 11
22.765282004
 21
1657.3628101976
 31
0.0
1001
ACAD
1000
RTMaterial
1005
0
  0
LINE
  5
2F5
330
21D
100
AcDbEntity
  8
0
  6
Continuous
 62
     7
100
AcDbLine
 10
28.6954441414
 20
1656.1871246045
 30
0.0
 11
28.5993127232
 21
1654.3528278729
 31
0.0
1001
ACAD
1000
RTMaterial
1005
0
  0
LINE
  5
2F6
330
21D
100
AcDbEntity
  8
0
  6
Continuous
 62
     9
100
AcDbLine
 10
38.6275342941
 20
1655.1528278729
 30
0.0
 11
38.58560807070001
 21
1654.3528278729
 31
0.0
1001
ACAD
1000
RTMaterial
1005
0
  0
LINE
  5
2F7
330
21D
100
AcDbEntity
  8
7_ALL_FEATURES
  6
Continuous
 62
     9
100
AcDbLine
 10
61.0706337343
 20
1659.8528278729
 30
0.0
 11
61.01074259899999
 21
1659.2191042006
 31
0.0
1001
ACAD
1000
RTMaterial
1005
0
  0
LINE
  5
2F8
330
21D
100
AcDbEntity
  8
7_ALL_FEATURES
  6
Continuous
 62
     7
100
AcDbLine
 10
66.24037430770001
 20
1659.8528278729
 30
0.0
 11
66.0311051995
 21
1658.6660037841
 31
0.0
1001
ACAD
1000
RTMaterial
1005
0
  0
LINE
  5
2F9
330
21D
100
AcDbEntity
  8
0
  6
Continuous
 62
     9
100
AcDbLine
 10
76.5993127232
 20
1244.3528278729
 30
0.0
 11
9.7575787035
 21
1647.3691653446
 31
0.0
1001
ACAD
1000
RTMaterial
1005
0
  0
LINE
  5
2FA
330
21D
100
AcDbEntity
  8
7_ALL_FEATURES
  6
Continuous
 62
     7
100
AcDbLine
 10
309.3570722779
 20
1654.3528278729
 30
0.0
 11
309.7529450543
 21
1654.4919879198
 31
0.0
1001
ACAD
1000
RTMaterial
1005
0
  0
LINE
  5
2FB
330
21D
100
AcDbEntity
  8
7_ALL_FEATURES
  6
Continuous
 62
     7
100
AcDbLine
 10
44.10395926039999
 20
1659.0264760506
 30
0.0
 11
44.1675202468
 21
1658.6660037841
 31
0.0
1001
ACAD
1000
RTMaterial
1005
0
  0
LINE
  5
2FC
330
21D
100
AcDbEntity
  8
0
  6
Continuous
 62
     9
100
AcDbLine
 10
113.3137560612
 20
1696.8528278358
 30
0.0
 11
113.3135867235
 21
1696.8469039514
 31
0.0
1001
ACAD
1000
RTMaterial
1005
0
  0
LINE
  5
2FD
330
21D
100
AcDbEntity
  8
0
  6
Continuous
 62
     9
100
AcDbLine
 10
113.3135867235
 20
1696.8469039514
 30
0.0
 11
113.3031009183
 21
1696.5466297756
 31
0.0
1001
ACAD
1000
RTMaterial
1005
0
  0
LINE
  5
2FE
330
21D
100
AcDbEntity
  8
7_ALL_FEATURES
  6
Continuous
 62
     7
100
AcDbLine
 10
309.7557458867
 20
1654.4937078458
 30
0.0
 11
309.7529383635
 21
1654.4920039145
 31
0.0
1001
ACAD
1000
RTMaterial
1005
0
  0
LINE
  5
2FF
330
21D
100
AcDbEntity
  8
0
  6
Continuous
 62
     9
100
AcDbLine
 10
120.2933055491
 20
1696.3916828402
 30
0.0
 11
120.2933056592
 21
1696.391446754599
 31
0.0
1001
ACAD
1000
RTMaterial
1005
0
  0
LINE
  5
300
330
21D
100
AcDbEntity
  8
0
  6
Continuous
 62
     9
100
AcDbLine
 10
114.8993127232
 20
1696.8528278729
 30
0.0
 11
114.8993127232
 21
1696.4470897011
 31
0.0
1001
ACAD
1000
RTMaterial
1005
0
  0
LINE
  5
301
330
21D
100
AcDbEntity
  8
7_ALL_FEATURES
  6
Continuous
 62
     7
100
AcDbLine
 10
309.7557458867
 20
1654.4937078458
 30
0.0
 11
311.061337314
 21
1655.5549892183
 31
0.0
1001
ACAD
1000
RTMaterial
1005
0
  0
LINE
  5
303
330
21D
100
AcDbEntity
  8
7_ALL_FEATURES
  6
Continuous
 62
     7
100
AcDbLine
 10
311.1510134542
 20
1655.6610969257
 30
0.0
 11
311.1696921621
 21
1655.6843911253
 31
0.0
1001
ACAD
1000
RTMaterial
1005
0
  0
LWPOLYLINE
  5
304
330
21D
100
AcDbEntity
  8
7_ALL_FEATURES
  6
Continuous
 62
     7
100
AcDbPolyline
 90
        3
 70
     0
 43
0.0
 10
311.1509988977
 20
1655.6610790453
 10
314.1949861804
 20
1659.0359448714
 10
315.1211334155
 20
1659.8528278729
  0
LINE
  5
305
330
21D
100
AcDbEntity
  8
0
  6
Continuous
 62
     7
100
AcDbLine
 10
184.3784412761
 20
1696.685629909
 30
0.0
 11
184.3784412761
 21
1696.5882456057
 31
0.0
1001
ACAD
1000
RTMaterial
1005
0
  0
LINE
  5
306
330
21D
100
AcDbEntity
  8
0
  6
Continuous
 62
     7
100
AcDbLine
 10
184.7723780103
 20
1696.685629909
 30
0.0
 11
184.7723780103
 21
1696.5882456057
 31
0.0
1001
ACAD
1000
RTMaterial
1005
0
  0
LINE
  5
307
330
21D
100
AcDbEntity
  8
0
  6
Continuous
 62
     7
100
AcDbLine
 10
188.2675567311
 20
1696.6835738013
 30
0.0
 11
188.2675567311
 21
1696.5861998122
 31
0.0
1001
ACAD
1000
RTMaterial
1005
0
  0
LINE
  5
308
330
21D
100
AcDbEntity
  8
0
  6
Continuous
 62
     7
100
AcDbLine
 10
191.0071101315
 20
1696.6835738013
 30
0.0
 11
191.0071101315
 21
1696.5861998122
 31
0.0
1001
ACAD
1000
RTMaterial
1005
0
  0
LINE
  5
309
330
21D
100
AcDbEntity
  8
0
  6
Continuous
 62
     7
100
AcDbLine
 10
192.7555623654
 20
1696.685629909
 30
0.0
 11
192.7555623654
 21
1696.395038129
 31
0.0
1001
ACAD
1000
RTMaterial
1005
0
  0
LINE
  5
30A
330
21D
100
AcDbEntity
  8
0
  6
Continuous
 62
     7
100
AcDbLine
 10
193.5993127232
 20
1696.5525500701
 30
0.0
 11
193.5993127232
 21
1696.395038129
 31
0.0
1001
ACAD
1000
RTMaterial
1005
0
  0
LINE
  5
30B
330
21D
100
AcDbEntity
  8
0
  6
Continuous
 62
     7
100
AcDbLine
 10
195.9458622256
 20
1696.685629909
 30
0.0
 11
195.9458622256
 21
1696.5525500701
 31
0.0
1001
ACAD
1000
RTMaterial
1005
0
  0
LINE
  5
30C
330
21D
100
AcDbEntity
  8
0
  6
Continuous
 62
     7
100
AcDbLine
 10
196.6661983519
 20
1696.685629909
 30
0.0
 11
196.6661983519
 21
1696.395038129
 31
0.0
1001
ACAD
1000
RTMaterial
1005
0
  0
LINE
  5
30D
330
21D
100
AcDbEntity
  8
0
  6
Continuous
 62
     7
100
AcDbLine
 10
197.0593888172
 20
1696.685629909
 30
0.0
 11
197.0593888172
 21
1696.5882456057
 31
0.0
1001
ACAD
1000
RTMaterial
1005
0
  0
LINE
  5
30E
330
21D
100
AcDbEntity
  8
0
  6
Continuous
 62
     7
100
AcDbLine
 10
199.499035374
 20
1696.685629909
 30
0.0
 11
199.499035374
 21
1696.3950381289
 31
0.0
1001
ACAD
1000
RTMaterial
1005
0
  0
LINE
  5
30F
330
21D
100
AcDbEntity
  8
0
  6
Continuous
 62
     7
100
AcDbLine
 10
200.3435320007
 20
1696.685629909
 30
0.0
 11
200.3435320007
 21
1696.3950381289
 31
0.0
1001
ACAD
1000
RTMaterial
1005
0
  0
LINE
  5
310
330
21D
100
AcDbEntity
  8
0
  6
Continuous
 62
     7
100
AcDbLine
 10
201.0684576813
 20
1696.685629909
 30
0.0
 11
201.0684576813
 21
1696.5525500701
 31
0.0
1001
ACAD
1000
RTMaterial
1005
0
  0
LINE
  5
311
330
21D
100
AcDbEntity
  8
0
  6
Continuous
 62
     7
100
AcDbLine
 10
202.3344097106
 20
1696.5525500701
 30
0.0
 11
202.3344097106
 21
1696.3950381289
 31
0.0
1001
ACAD
1000
RTMaterial
1005
0
  0
LINE
  5
312
330
21D
100
AcDbEntity
  8
0
  6
Continuous
 62
     7
100
AcDbLine
 10
203.1785332028
 20
1696.5525500701
 30
0.0
 11
203.1785332028
 21
1696.3950381289
 31
0.0
1001
ACAD
1000
RTMaterial
1005
0
  0
LINE
  5
313
330
21D
100
AcDbEntity
  8
0
  6
Continuous
 62
     7
100
AcDbLine
 10
204.4441120977
 20
1696.685629909
 30
0.0
 11
204.4441120977
 21
1696.5525500701
 31
0.0
1001
ACAD
1000
RTMaterial
1005
0
  0
LINE
  5
315
330
21D
100
AcDbEntity
  8
7_ALL_FEATURES
  6
Continuous
 62
     7
100
AcDbLine
 10
77.0528448804
 20
1655.6587554017
 30
0.0
 11
77.0788338614
 21
1655.627540957
 31
0.0
1001
ACAD
1000
RTMaterial
1005
0
  0
LWPOLYLINE
  5
316
330
21D
100
AcDbEntity
  8
7_ALL_FEATURES
  6
Continuous
 62
     7
100
AcDbPolyline
 90
        3
 70
     0
 43
0.0
 10
77.0781564321
 20
1655.6283203352
 10
78.55341804910001
 20
1654.4310048201
 10
78.8197056387
 20
1654.3528278729
  0
LWPOLYLINE
  5
317
330
21D
100
AcDbEntity
  8
7_ALL_FEATURES
  6
Continuous
 62
     7
100
AcDbPolyline
 90
        4
 70
     0
 43
0.0
 10
73.1594072633
 20
1659.8528278729
 10
73.25574622499999
 20
1659.7690711499
 10
75.9415206277
 20
1656.9721677558
 10
77.05276114670001
 20
1655.6588582708
  0
LINE
  5
318
330
21D
100
AcDbEntity
  8
0
  6
Continuous
 62
     9
100
AcDbLine
 10
274.8955245281
 20
1696.5466297756
 30
0.0
 11
274.8850387228
 21
1696.8469039514
 31
0.0
1001
ACAD
1000
RTMaterial
1005
0
  0
LINE
  5
319
330
21D
100
AcDbEntity
  8
0
  6
Continuous
 62
     9
100
AcDbLine
 10
274.8850387228
 20
1696.8469039514
 30
0.0
 11
274.8848583836
 21
1696.852827840199
 31
0.0
1001
ACAD
1000
RTMaterial
1005
0
  0
LINE
  5
31A
330
21D
100
AcDbEntity
  8
0
  6
Continuous
 62
     9
100
AcDbLine
 10
272.2993127232
 20
1696.4262025898
 30
0.0
 11
272.2993127232
 21
1696.8528278729
 31
0.0
1001
ACAD
1000
RTMaterial
1005
0
  0
LINE
  5
31C
330
21D
100
AcDbEntity
  8
7_ALL_FEATURES
  6
Continuous
 62
     7
100
AcDbLine
 10
344.0946661858999
 20
1659.0264760506
 30
0.0
 11
344.0311051995
 21
1658.6660037841
 31
0.0
1001
ACAD
1000
RTMaterial
1005
0
  0
LINE
  5
31D
330
21D
100
AcDbEntity
  8
7_ALL_FEATURES
  6
Continuous
 62
     9
100
AcDbLine
 10
327.1878827106001
 20
1659.2191056471
 30
0.0
 11
327.1279917121
 21
1659.8528278729
 31
0.0
1001
ACAD
1000
RTMaterial
1005
0
  0
LINE
  5
31E
330
21D
100
AcDbEntity
  8
0
  6
Continuous
 62
     9
100
AcDbLine
 10
310.5993127232
 20
1244.3528278729
 30
0.0
 11
377.4410467429
 21
1647.3691653446
 31
0.0
1001
ACAD
1000
RTMaterial
1005
0
  0
LINE
  5
31F
330
21D
100
AcDbEntity
  8
0
  6
Continuous
 62
     9
100
AcDbLine
 10
348.5710911522001
 20
1655.1528278729
 30
0.0
 11
348.6130173755999
 21
1654.3528278729
 31
0.0
1001
ACAD
1000
RTMaterial
1005
0
  0
LINE
  5
320
330
21D
100
AcDbEntity
  8
0
  6
Continuous
 62
     9
100
AcDbLine
 10
364.4333434424
 20
1657.3628101976
 30
0.0
 11
364.4333434836
 21
1659.2204349828
 31
0.0
1001
ACAD
1000
RTMaterial
1005
0
  0
LINE
  5
322
330
21D
100
AcDbEntity
  8
7_ALL_FEATURES
  6
Continuous
 62
     7
100
AcDbLine
 10
321.9582511386
 20
1659.8528278729
 30
0.0
 11
322.1675202468
 21
1658.6660037841
 31
0.0
1001
ACAD
1000
RTMaterial
1005
0
  0
LINE
  5
323
330
21D
100
AcDbEntity
  8
0
  6
Continuous
 62
     7
100
AcDbLine
 10
358.5250109248
 20
1655.7705906446
 30
0.0
 11
358.5993127232
 21
1654.3528278729
 31
0.0
1001
ACAD
1000
RTMaterial
1005
0
  0
LINE
  5
324
330
21D
100
AcDbEntity
  8
0
  6
Continuous
 62
     9
100
AcDbLine
 10
364.5910899317
 20
1654.3528278729
 30
0.0
 11
364.4333434424
 21
1657.3628101976
 31
0.0
1001
ACAD
1000
RTMaterial
1005
0
  0
LINE
  5
325
330
21D
100
AcDbEntity
  8
0
  6
Continuous
 62
     9
100
AcDbLine
 10
368.4484185601001
 20
1657.3628101976
 30
0.0
 11
368.6061650494
 21
1654.3528278729
 31
0.0
1001
ACAD
1000
RTMaterial
1005
0
  0
LINE
  5
326
330
21D
100
AcDbEntity
  8
0
  6
Continuous
 62
     7
100
AcDbLine
 10
373.3110699371
 20
1659.8528278729
 30
0.0
 11
373.5993127232
 21
1654.3528278729
 31
0.0
1001
ACAD
1000
RTMaterial
1005
0
  0
LINE
  5
327
330
21D
100
AcDbEntity
  8
7_ALL_FEATURES
  6
Continuous
 62
     9
100
AcDbLine
 10
379.5993191077
 20
1696.5205067998
 30
0.0
 11
379.5999666347
 21
1696.340031279
 31
0.0
1001
ACAD
1000
RTMaterial
1005
0
  0
LINE
  5
328
330
21D
100
AcDbEntity
  8
0
  6
Continuous
 62
     9
100
AcDbLine
 10
368.4484185601001
 20
1657.3628101976
 30
0.0
 11
368.4484185601001
 21
1659.2204349909
 31
0.0
1001
ACAD
1000
RTMaterial
1005
0
  0
LINE
  5
329
330
21D
100
AcDbEntity
  8
7_ALL_FEATURES
  6
Continuous
 62
     9
100
AcDbLine
 10
379.5993127232
 20
1696.8528278683
 30
0.0
 11
379.5993127232
 21
1696.8469039514
 31
0.0
1001
ACAD
1000
RTMaterial
1005
0
  0
LINE
  5
32A
330
21D
100
AcDbEntity
  8
7_ALL_FEATURES
  6
Continuous
 62
     9
100
AcDbLine
 10
379.5993127232
 20
1696.8469039514
 30
0.0
 11
379.5993148528
 21
1696.5204982506
 31
0.0
1001
ACAD
1000
RTMaterial
1005
0
  0
LINE
  5
32B
330
21D
100
AcDbEntity
  8
7_ALL_FEATURES
  6
Continuous
 62
     7
100
AcDbLine
 10
381.5993127232
 20
1694.8523164308
 30
0.0
 11
381.5993127232
 21
1659.8528278729
 31
0.0
1001
ACAD
1000
RTMaterial
1005
0
  0
LINE
  5
32C
330
21D
100
AcDbEntity
  8
06___PRT_ALL_SURFS
  6
Continuous
 62
     7
100
AcDbLine
 10
381.5993127232
 20
1659.8528278729
 30
0.0
 11
381.5993127232
 21
1659.8530687646
 31
0.0
1001
ACAD
1000
RTMaterial
1005
0
  0
LINE
  5
32D
330
21D
100
AcDbEntity
  8
7_ALL_FEATURES
  6
Continuous
 62
     7
100
AcDbLine
 10
382.0993127232
 20
1692.7527105465
 30
0.0
 11
382.0993127232
 21
1663.9529451994
 31
0.0
1001
ACAD
1000
RTMaterial
1005
0
  0
LINE
  5
32E
330
21D
100
AcDbEntity
  8
0
  6
Continuous
 62
     7
100
AcDbLine
 10
358.5993127232
 20
1244.3528278729
 30
0.0
 11
378.2923695587001
 21
1648.0604930522
 31
0.0
1001
ACAD
1000
RTMaterial
1005
0
  0
LINE
  5
32F
330
21D
100
AcDbEntity
  8
0
  6
Continuous
 62
     7
100
AcDbLine
 10
373.5993127232
 20
1654.3528278729
 30
0.0
 11
372.101516261
 21
1654.3528278729
 31
0.0
1001
ACAD
1000
RTMaterial
1005
0
  0
LINE
  5
330
330
21D
100
AcDbEntity
  8
0
  6
Continuous
 62
     7
100
AcDbLine
 10
371.5400088568
 20
1654.3528278729
 30
0.0
 11
15.6562048878
 21
1654.3528278729
 31
0.0
1001
ACAD
1000
RTMaterial
1005
0
  0
LINE
  5
331
330
21D
100
AcDbEntity
  8
0
  6
Continuous
 62
     7
100
AcDbLine
 10
15.09710935
 20
1654.3528278729
 30
0.0
 11
13.5993127232
 21
1654.3528278729
 31
0.0
1001
ACAD
1000
RTMaterial
1005
0
  0
LINE
  5
332
330
21D
100
AcDbEntity
  8
02___PRT_ALL_AXES
  6
Continuous
 62
     7
100
AcDbLine
 10
355.0993127232
 20
1655.1528278729
 30
0.0
 11
347.0993127232
 21
1655.1528278729
 31
0.0
1001
ACAD
1000
RTMaterial
1005
0
  0
LINE
  5
333
330
21D
100
AcDbEntity
  8
02___PRT_ALL_AXES
  6
Continuous
 62
     7
100
AcDbLine
 10
41.09931272319999
 20
1655.1528278729
 30
0.0
 11
33.0993127232
 21
1655.1528278729
 31
0.0
1001
ACAD
1000
RTMaterial
1005
0
  0
LINE
  5
334
330
21D
100
AcDbEntity
  8
02___PRT_ALL_AXES
  6
Continuous
 62
     9
100
AcDbLine
 10
341.8211037075
 20
1655.5378015031
 30
0.0
 11
324.3775217388
 21
1655.5378015031
 31
0.0
1001
ACAD
1000
RTMaterial
1005
0
  0
LINE
  5
335
330
21D
100
AcDbEntity
  8
02___PRT_ALL_AXES
  6
Continuous
 62
     9
100
AcDbLine
 10
63.8211037075
 20
1655.5378015031
 30
0.0
 11
46.3775217388
 21
1655.5378015031
 31
0.0
1001
ACAD
1000
RTMaterial
1005
0
  0
LINE
  5
336
330
21D
100
AcDbEntity
  8
02___PRT_ALL_AXES
  6
Continuous
 62
     9
100
AcDbLine
 10
359.8211037075
 20
1656.3378015031
 30
0.0
 11
342.8503204895
 21
1656.3378015031
 31
0.0
1001
ACAD
1000
RTMaterial
1005
0
  0
LINE
  5
337
330
21D
100
AcDbEntity
  8
02___PRT_ALL_AXES
  6
Continuous
 62
     9
100
AcDbLine
 10
45.34830495689999
 20
1656.3378015031
 30
0.0
 11
28.3775217388
 21
1656.3378015031
 31
0.0
1001
ACAD
1000
RTMaterial
1005
0
  0
LINE
  5
338
330
21D
100
AcDbEntity
  8
0
  6
Continuous
 62
     9
100
AcDbLine
 10
322.8376307557
 20
1657.0204572422
 30
0.0
 11
312.3771009583
 21
1657.0204572422
 31
0.0
1001
ACAD
1000
RTMaterial
1005
0
  0
LINE
  5
339
330
21D
100
AcDbEntity
  8
0
  6
Continuous
 62
     9
100
AcDbLine
 10
75.895149821
 20
1657.0204572422
 30
0.0
 11
65.36099469060001
 21
1657.0204572422
 31
0.0
1001
ACAD
1000
RTMaterial
1005
0
  0
LINE
  5
33A
330
21D
100
AcDbEntity
  8
0
  6
Continuous
 62
     9
100
AcDbLine
 10
368.4484185601001
 20
1657.3628101976
 30
0.0
 11
364.4333434424
 21
1657.3628101976
 31
0.0
1001
ACAD
1000
RTMaterial
1005
0
  0
LINE
  5
33B
330
21D
100
AcDbEntity
  8
0
  6
Continuous
 62
     9
100
AcDbLine
 10
22.765282004
 20
1657.3628101976
 30
0.0
 11
18.7502068863
 21
1657.3628101976
 31
0.0
1001
ACAD
1000
RTMaterial
1005
0
  0
LINE
  5
33C
330
21D
100
AcDbEntity
  8
02___PRT_ALL_AXES
  6
Continuous
 62
     7
100
AcDbLine
 10
343.8493127232
 20
1658.2528278729
 30
0.0
 11
322.3493127232
 21
1658.2528278729
 31
0.0
1001
ACAD
1000
RTMaterial
1005
0
  0
LINE
  5
33D
330
21D
100
AcDbEntity
  8
02___PRT_ALL_AXES
  6
Continuous
 62
     7
100
AcDbLine
 10
65.8493127232
 20
1658.2528278729
 30
0.0
 11
44.34931272319999
 21
1658.2528278729
 31
0.0
1001
ACAD
1000
RTMaterial
1005
0
  0
LINE
  5
33E
330
21D
100
AcDbEntity
  8
7_ALL_FEATURES
  6
Continuous
 62
     9
100
AcDbLine
 10
344.0311051995
 20
1658.6660037841
 30
0.0
 11
322.1675202468
 21
1658.6660037841
 31
0.0
1001
ACAD
1000
RTMaterial
1005
0
  0
LINE
  5
33F
330
21D
100
AcDbEntity
  8
7_ALL_FEATURES
  6
Continuous
 62
     9
100
AcDbLine
 10
66.0311051995
 20
1658.6660037841
 30
0.0
 11
44.1675202468
 21
1658.6660037841
 31
0.0
1001
ACAD
1000
RTMaterial
1005
0
  0
LINE
  5
340
330
21D
100
AcDbEntity
  8
0
  6
Continuous
 62
     9
100
AcDbLine
 10
322.1675202521
 20
1658.9146082734
 30
0.0
 11
314.0855456634
 21
1658.9146082734
 31
0.0
1001
ACAD
1000
RTMaterial
1005
0
  0
LINE
  5
341
330
21D
100
AcDbEntity
  8
0
  6
Continuous
 62
     9
100
AcDbLine
 10
74.0762588414
 20
1658.9146082734
 30
0.0
 11
66.0311051995
 21
1658.9146082734
 31
0.0
1001
ACAD
1000
RTMaterial
1005
0
  0
LINE
  5
342
330
21D
100
AcDbEntity
  8
7_ALL_FEATURES
  6
Continuous
 62
     9
100
AcDbLine
 10
54.1238580246
 20
1659.0264885241
 30
0.0
 11
44.10395926039999
 21
1659.0264760506
 31
0.0
1001
ACAD
1000
RTMaterial
1005
0
  0
LINE
  5
343
330
21D
100
AcDbEntity
  8
7_ALL_FEATURES
  6
Continuous
 62
     9
100
AcDbLine
 10
344.0946661858999
 20
1659.0264760506
 30
0.0
 11
334.0746762994
 21
1659.0265047912
 31
0.0
1001
ACAD
1000
RTMaterial
1005
0
  0
LINE
  5
344
330
21D
100
AcDbEntity
  8
7_ALL_FEATURES
  6
Continuous
 62
     7
100
AcDbLine
 10
355.50579659
 20
1659.0528278729
 30
0.0
 11
346.6933472456
 21
1659.0528278729
 31
0.0
1001
ACAD
1000
RTMaterial
1005
0
  0
LINE
  5
345
330
21D
100
AcDbEntity
  8
02___PRT_ALL_AXES
  6
Continuous
 62
     7
100
AcDbLine
 10
361.8493127232
 20
1659.0528278729
 30
0.0
 11
344.106033381
 21
1659.0528278729
 31
0.0
1001
ACAD
1000
RTMaterial
1005
0
  0
LINE
  5
346
330
21D
100
AcDbEntity
  8
7_ALL_FEATURES
  6
Continuous
 62
     7
100
AcDbLine
 10
41.5051653233
 20
1659.0528278729
 30
0.0
 11
32.752798247
 21
1659.0528278729
 31
0.0
1001
ACAD
1000
RTMaterial
1005
0
  0
LINE
  5
347
330
21D
100
AcDbEntity
  8
02___PRT_ALL_AXES
  6
Continuous
 62
     7
100
AcDbLine
 10
44.0925921157
 20
1659.0528278729
 30
0.0
 11
26.3493127232
 21
1659.0528278729
 31
0.0
1001
ACAD
1000
RTMaterial
1005
0
  0
LINE
  5
348
330
21D
100
AcDbEntity
  8
0
  6
Continuous
 62
     9
100
AcDbLine
 10
368.4484185601001
 20
1659.2204349909
 30
0.0
 11
364.4333434424
 21
1659.2204349909
 31
0.0
1001
ACAD
1000
RTMaterial
1005
0
  0
LINE
  5
349
330
21D
100
AcDbEntity
  8
0
  6
Continuous
 62
     9
100
AcDbLine
 10
22.765282004
 20
1659.2204349909
 30
0.0
 11
18.7502068863
 21
1659.2204349909
 31
0.0
1001
ACAD
1000
RTMaterial
1005
0
  0
LINE
  5
34A
330
21D
100
AcDbEntity
  8
7_ALL_FEATURES
  6
Continuous
 62
     9
100
AcDbLine
 10
362.1219795463
 20
1659.3194945396
 30
0.0
 11
357.2174176147
 21
1659.3194999149
 31
0.0
1001
ACAD
1000
RTMaterial
1005
0
  0
LINE
  5
34B
330
21D
100
AcDbEntity
  8
7_ALL_FEATURES
  6
Continuous
 62
     9
100
AcDbLine
 10
30.9812543197
 20
1659.3195032303
 30
0.0
 11
26.0766459
 21
1659.3194945396
 31
0.0
1001
ACAD
1000
RTMaterial
1005
0
  0
LINE
  5
34C
330
21D
100
AcDbEntity
  8
7_ALL_FEATURES
  6
Continuous
 62
     9
100
AcDbLine
 10
355.4458025003
 20
1659.4660037841
 30
0.0
 11
344.2964369203
 21
1659.4660037841
 31
0.0
1001
ACAD
1000
RTMaterial
1005
0
  0
LINE
  5
34D
330
21D
100
AcDbEntity
  8
7_ALL_FEATURES
  6
Continuous
 62
     9
100
AcDbLine
 10
43.9021875671
 20
1659.4660037841
 30
0.0
 11
32.752798247
 21
1659.4660037841
 31
0.0
1001
ACAD
1000
RTMaterial
1005
0
  0
LINE
  5
34E
330
21D
100
AcDbEntity
  8
7_ALL_FEATURES
  6
Continuous
 62
     7
100
AcDbLine
 10
6.5993127232
 20
1659.8528278729
 30
0.0
 11
381.5993127232
 21
1659.8528278729
 31
0.0
1001
ACAD
1000
RTMaterial
1005
0
  0
LINE
  5
34F
330
21D
100
AcDbEntity
  8
02___PRT_ALL_AXES
  6
Continuous
 62
     7
100
AcDbLine
 10
-10.9038235972
 20
1662.3528278729
 30
0.0
 11
5.3961764028
 21
1662.3528278729
 31
0.0
1001
ACAD
1000
RTMaterial
1005
0
  0
LINE
  5
350
330
21D
100
AcDbEntity
  8
0
  6
Continuous
 62
     7
100
AcDbLine
 10
5.3961764028
 20
1663.2132999441
 30
0.0
 11
6.5993127232
 21
1663.2070002795
 31
0.0
1001
ACAD
1000
RTMaterial
1005
0
  0
LINE
  5
351
330
21D
100
AcDbEntity
  8
7_ALL_FEATURES
  6
Continuous
 62
     9
100
AcDbLine
 10
380.1338961958
 20
1687.4625961297
 30
0.0
 11
381.5807515619
 21
1659.8528278729
 31
0.0
1001
ACAD
1000
RTMaterial
1005
0
  0
LINE
  5
352
330
21D
100
AcDbEntity
  8
7_ALL_FEATURES
  6
Continuous
 62
     9
100
AcDbLine
 10
380.1664127373001
 20
1687.5245950709
 30
0.0
 11
381.5993127232
 21
1659.8528278729
 31
0.0
1001
ACAD
1000
RTMaterial
1005
0
  0
LWPOLYLINE
  5
353
330
21D
100
AcDbEntity
  8
0
  6
Continuous
 62
     7
100
AcDbPolyline
 90
        6
 70
     0
 43
0.0
 10
274.6503262467
 20
1696.5063069452
 10
274.6508055953
 20
1696.5064024611
 10
274.6086789122
 20
1696.5011038127
 10
274.5125700039
 20
1696.4919680786
 10
274.3684150172
 20
1696.4813061172
 10
274.1791621697
 20
1696.4700442679
  0
LINE
  5
354
330
21D
100
AcDbEntity
  8
0
  6
Continuous
 62
     7
100
AcDbLine
 10
274.1791621697
 20
1696.4700442679
 30
0.0
 11
273.9481545133001
 21
1696.4586741221
 31
0.0
1001
ACAD
1000
RTMaterial
1005
0
  0
LINE
  5
355
330
21D
100
AcDbEntity
  8
0
  6
Continuous
 62
     9
100
AcDbLine
 10
113.5256728899
 20
1696.5102409493
 30
0.0
 11
113.3657073187
 21
1696.5228541968
 31
0.0
1001
ACAD
1000
RTMaterial
1005
0
  0
LINE
  5
356
330
21D
100
AcDbEntity
  8
0
  6
Continuous
 62
     7
100
AcDbLine
 10
5.3961764028
 20
1693.4923558017
 30
0.0
 11
6.5993127232
 21
1693.4986554663
 31
0.0
1001
ACAD
1000
RTMaterial
1005
0
  0
LINE
  5
357
330
21D
100
AcDbEntity
  8
02___PRT_ALL_AXES
  6
Continuous
 62
     7
100
AcDbLine
 10
-10.9038235972
 20
1694.3528278729
 30
0.0
 11
5.3961764028
 21
1694.3528278729
 31
0.0
1001
ACAD
1000
RTMaterial
1005
0
  0
LINE
  5
358
330
21D
100
AcDbEntity
  8
0
  6
Continuous
 62
     9
100
AcDbLine
 10
113.3656188251
 20
1696.5228473038
 30
0.0
 11
8.599312719
 21
1696.5228473038
 31
0.0
1001
ACAD
1000
RTMaterial
1005
0
  0
LINE
  5
359
330
21D
100
AcDbEntity
  8
0
  6
Continuous
 62
     7
100
AcDbLine
 10
193.5993127232
 20
1696.5525500701
 30
0.0
 11
195.9458622256
 21
1696.5525500701
 31
0.0
1001
ACAD
1000
RTMaterial
1005
0
  0
LINE
  5
35A
330
21D
100
AcDbEntity
  8
0
  6
Continuous
 62
     7
100
AcDbLine
 10
201.0684576813
 20
1696.5525500701
 30
0.0
 11
202.3344097106
 21
1696.5525500701
 31
0.0
1001
ACAD
1000
RTMaterial
1005
0
  0
LINE
  5
35B
330
21D
100
AcDbEntity
  8
0
  6
Continuous
 62
     7
100
AcDbLine
 10
203.1785332028
 20
1696.5525500701
 30
0.0
 11
204.4441120977
 21
1696.5525500701
 31
0.0
1001
ACAD
1000
RTMaterial
1005
0
  0
LINE
  5
35C
330
21D
100
AcDbEntity
  8
0
  6
Continuous
 62
     7
100
AcDbLine
 10
187.6163828408
 20
1696.5861998122
 30
0.0
 11
188.2675567311
 21
1696.5861998122
 31
0.0
1001
ACAD
1000
RTMaterial
1005
0
  0
LINE
  5
35D
330
21D
100
AcDbEntity
  8
0
  6
Continuous
 62
     7
100
AcDbLine
 10
191.0071101315
 20
1696.5861998122
 30
0.0
 11
191.6245949106
 21
1696.5861998122
 31
0.0
1001
ACAD
1000
RTMaterial
1005
0
  0
LINE
  5
35E
330
21D
100
AcDbEntity
  8
0
  6
Continuous
 62
     7
100
AcDbLine
 10
184.3784412761
 20
1696.5882456057
 30
0.0
 11
184.7723780103
 21
1696.5882456057
 31
0.0
1001
ACAD
1000
RTMaterial
1005
0
  0
LINE
  5
35F
330
21D
100
AcDbEntity
  8
0
  6
Continuous
 62
     7
100
AcDbLine
 10
192.7555623654
 20
1696.5882456057
 30
0.0
 11
195.9458622256
 21
1696.5882456057
 31
0.0
1001
ACAD
1000
RTMaterial
1005
0
  0
LINE
  5
360
330
21D
100
AcDbEntity
  8
0
  6
Continuous
 62
     7
100
AcDbLine
 10
196.6661983519
 20
1696.5882456057
 30
0.0
 11
197.0593888172
 21
1696.5882456057
 31
0.0
1001
ACAD
1000
RTMaterial
1005
0
  0
LINE
  5
361
330
21D
100
AcDbEntity
  8
0
  6
Continuous
 62
     7
100
AcDbLine
 10
199.499035374
 20
1696.5882456057
 30
0.0
 11
200.3435320007
 21
1696.5882456057
 31
0.0
1001
ACAD
1000
RTMaterial
1005
0
  0
LINE
  5
362
330
21D
100
AcDbEntity
  8
0
  6
Continuous
 62
     7
100
AcDbLine
 10
201.0684576813
 20
1696.5882456057
 30
0.0
 11
204.4441120977
 21
1696.5882456057
 31
0.0
1001
ACAD
1000
RTMaterial
1005
0
  0
LINE
  5
363
330
21D
100
AcDbEntity
  8
0
  6
Continuous
 62
     7
100
AcDbLine
 10
187.1900376175
 20
1696.6835738013
 30
0.0
 11
188.2675567311
 21
1696.6835738013
 31
0.0
1001
ACAD
1000
RTMaterial
1005
0
  0
LINE
  5
364
330
21D
100
AcDbEntity
  8
0
  6
Continuous
 62
     7
100
AcDbLine
 10
191.0071101315
 20
1696.6835738013
 30
0.0
 11
192.0302448937
 21
1696.6835738013
 31
0.0
1001
ACAD
1000
RTMaterial
1005
0
  0
LINE
  5
365
330
21D
100
AcDbEntity
  8
0
  6
Continuous
 62
     7
100
AcDbLine
 10
184.3784412761
 20
1696.685629909
 30
0.0
 11
184.7723780103
 21
1696.685629909
 31
0.0
1001
ACAD
1000
RTMaterial
1005
0
  0
LINE
  5
366
330
21D
100
AcDbEntity
  8
0
  6
Continuous
 62
     7
100
AcDbLine
 10
192.7555623654
 20
1696.685629909
 30
0.0
 11
195.9458622256
 21
1696.685629909
 31
0.0
1001
ACAD
1000
RTMaterial
1005
0
  0
LINE
  5
367
330
21D
100
AcDbEntity
  8
0
  6
Continuous
 62
     7
100
AcDbLine
 10
196.6661983519
 20
1696.685629909
 30
0.0
 11
197.0593888172
 21
1696.685629909
 31
0.0
1001
ACAD
1000
RTMaterial
1005
0
  0
LINE
  5
368
330
21D
100
AcDbEntity
  8
0
  6
Continuous
 62
     7
100
AcDbLine
 10
199.499035374
 20
1696.685629909
 30
0.0
 11
200.3435320007
 21
1696.685629909
 31
0.0
1001
ACAD
1000
RTMaterial
1005
0
  0
LINE
  5
369
330
21D
100
AcDbEntity
  8
0
  6
Continuous
 62
     7
100
AcDbLine
 10
201.0684576813
 20
1696.685629909
 30
0.0
 11
204.4441120977
 21
1696.685629909
 31
0.0
1001
ACAD
1000
RTMaterial
1005
0
  0
LINE
  5
36A
330
21D
100
AcDbEntity
  8
0
  6
Continuous
 62
     9
100
AcDbLine
 10
379.5993127232
 20
1696.8469039514
 30
0.0
 11
274.8850387228
 21
1696.8469039514
 31
0.0
1001
ACAD
1000
RTMaterial
1005
0
  0
LINE
  5
36B
330
21D
100
AcDbEntity
  8
0
  6
Continuous
 62
     9
100
AcDbLine
 10
113.3135867235
 20
1696.8469039514
 30
0.0
 11
8.5993127232
 21
1696.8469039514
 31
0.0
1001
ACAD
1000
RTMaterial
1005
0
  0
LINE
  5
36C
330
21D
100
AcDbEntity
  8
02___PRT_ALL_AXES
  6
Continuous
 62
     7
100
AcDbLine
 10
8.5993127232
 20
1696.8528278729
 30
0.0
 11
113.3122787826
 21
1696.8528278729
 31
0.0
1001
ACAD
1000
RTMaterial
1005
0
  0
LINE
  5
36D
330
21D
100
AcDbEntity
  8
0
  6
Continuous
 62
     7
100
AcDbLine
 10
114.8993127232
 20
1696.8528278729
 30
0.0
 11
272.2993127232
 21
1696.8528278729
 31
0.0
1001
ACAD
1000
RTMaterial
1005
0
  0
LINE
  5
36E
330
21D
100
AcDbEntity
  8
02___PRT_ALL_AXES
  6
Continuous
 62
     7
100
AcDbLine
 10
274.8863447986
 20
1696.8528278729
 30
0.0
 11
379.5993127232
 21
1696.8528278729
 31
0.0
1001
ACAD
1000
RTMaterial
1005
0
  0
LWPOLYLINE
  5
36F
330
21D
100
AcDbEntity
  8
0
  6
Continuous
 62
     7
100
AcDbPolyline
 90
       10
 70
     0
 43
0.0
 10
120.2933055567
 20
1696.3915849902
 10
119.9472066754
 20
1696.3917587034
 10
119.1980761328
 20
1696.3934503217
 10
118.4722188434
 20
1696.3967337833
 10
117.7780502676
 20
1696.4016167237
 10
117.1229785372
 20
1696.4079453913
 10
116.5134424058
 20
1696.4154933407
 10
115.9545233954
 20
1696.424206722
 10
115.4503167177
 20
1696.4338747858
 10
115.0039215357
 20
1696.444171030799
  0
LWPOLYLINE
  5
370
330
21D
100
AcDbEntity
  8
0
  6
Continuous
 62
     7
100
AcDbPolyline
 90
        6
 70
     0
 43
0.0
 10
115.0039215357
 20
1696.444171030799
 10
114.6166489859
 20
1696.4549762475
 10
114.2884531003
 20
1696.466131718
 10
114.0186637277
 20
1696.477335394
 10
113.8069134904
 20
1696.4882271209
 10
113.6524931118
 20
1696.4983701192
  0
LINE
  5
371
330
21D
100
AcDbEntity
  8
0
  6
Continuous
 62
     7
100
AcDbLine
 10
622.9340871307885
 20
1654.3528278715
 30
0.0
 11
622.9340871307885
 21
1244.3528278729
 31
0.0
1001
ACAD
1000
RTMaterial
1005
0
  0
LINE
  5
372
330
21D
100
AcDbEntity
  8
0
  6
Continuous
 62
     9
100
AcDbLine
 10
626.3518418633887
 20
1681.4574997854
 30
0.0
 11
626.3518418633887
 21
1683.3528278729
 31
0.0
1001
ACAD
1000
RTMaterial
1005
0
  0
LINE
  5
373
330
21D
100
AcDbEntity
  8
0
  6
Continuous
 62
     7
100
AcDbLine
 10
624.3545827938886
 20
1681.4574997854
 30
0.0
 11
622.9340871307885
 21
1654.3528278729
 31
0.0
1001
ACAD
1000
RTMaterial
1005
0
  0
LINE
  5
374
330
21D
100
AcDbEntity
  8
0
  6
Continuous
 62
     9
100
AcDbLine
 10
626.3518418633887
 20
1681.4574997854
 30
0.0
 11
624.9313462002886
 21
1654.3528278729
 31
0.0
1001
ACAD
1000
RTMaterial
1005
0
  0
LINE
  5
375
330
21D
100
AcDbEntity
  8
0
  6
Continuous
 62
     7
100
AcDbLine
 10
622.9340871307885
 20
1244.3528278729
 30
0.0
 11
1052.934416338389
 21
1244.3528278729
 31
0.0
1001
ACAD
1000
RTMaterial
1005
0
  0
LINE
  5
376
330
21D
100
AcDbEntity
  8
0
  6
Continuous
 62
     9
100
AcDbLine
 10
706.0003464143886
 20
1681.4574997854
 30
0.0
 11
706.0003464143886
 21
1683.3528278729
 31
0.0
1001
ACAD
1000
RTMaterial
1005
0
  0
LINE
  5
377
330
21D
100
AcDbEntity
  8
0
  6
Continuous
 62
     9
100
AcDbLine
 10
706.5518663802886
 20
1676.2101378251
 30
0.0
 11
706.0003464143886
 21
1681.4574997854
 31
0.0
1001
ACAD
1000
RTMaterial
1005
0
  0
LINE
  5
378
330
21D
100
AcDbEntity
  8
0
  6
Continuous
 62
     7
100
AcDbLine
 10
708.5409101710886
 20
1676.3145228392
 30
0.0
 11
707.9893902050887
 21
1681.5618847994
 31
0.0
1001
ACAD
1000
RTMaterial
1005
0
  0
LINE
  5
379
330
21D
100
AcDbEntity
  8
0
  6
Continuous
 62
     9
100
AcDbLine
 10
708.9839121004886
 20
1681.6402363144
 30
0.0
 11
709.3305761263886
 21
1678.341948428
 31
0.0
1001
ACAD
1000
RTMaterial
1005
0
  0
LINE
  5
37B
330
21D
100
AcDbEntity
  8
0
  6
Continuous
 62
     9
100
AcDbLine
 10
708.8096756640887
 20
1682.3790231801
 30
0.0
 11
708.8096825214886
 21
1683.3528278728
 31
0.0
1001
ACAD
1000
RTMaterial
1005
0
  0
LINE
  5
382
330
21D
100
AcDbEntity
  8
0
  6
Continuous
 62
     7
100
AcDbLine
 10
747.2624072260887
 20
1696.3914467545
 30
0.0
 11
747.2616115547887
 21
1696.3954869889
 31
0.0
1001
ACAD
1000
RTMaterial
1005
0
  0
LINE
  5
383
330
21D
100
AcDbEntity
  8
0
  6
Continuous
 62
     9
100
AcDbLine
 10
823.7924685461887
 20
1657.3165717889
 30
0.0
 11
823.9477917831887
 21
1654.3528278729
 31
0.0
1001
ACAD
1000
RTMaterial
1005
0
  0
LINE
  5
384
330
21D
100
AcDbEntity
  8
0
  6
Continuous
 62
     9
100
AcDbLine
 10
831.6435460059885
 20
1659.8966648417
 30
0.0
 11
831.6090717621886
 21
1658.9234362067
 31
0.0
1001
ACAD
1000
RTMaterial
1005
0
  0
LINE
  5
385
330
21D
100
AcDbEntity
  8
7_ALL_FEATURES
  6
Continuous
 62
     7
100
AcDbLine
 10
1106.249133631589
 20
1659.6270194312
 30
0.0
 11
1106.684006076088
 21
1659.8351987302
 31
0.0
1001
ACAD
1000
RTMaterial
1005
0
  0
LINE
  5
386
330
21D
100
AcDbEntity
  8
0
  6
Continuous
 62
     7
100
AcDbLine
 10
833.6458443446886
 20
1659.8528278729
 30
0.0
 11
833.9340871307886
 21
1654.3528278729
 31
0.0
1001
ACAD
1000
RTMaterial
1005
0
  0
LINE
  5
387
330
21D
100
AcDbEntity
  8
7_ALL_FEATURES
  6
Continuous
 62
     7
100
AcDbLine
 10
909.0751487152886
 20
1659.8528278729
 30
0.0
 11
909.0069411916886
 21
1659.4660037841
 31
0.0
1001
ACAD
1000
RTMaterial
1005
0
  0
LINE
  5
388
330
21D
100
AcDbEntity
  8
7_ALL_FEATURES
  6
Continuous
 62
     7
100
AcDbLine
 10
886.7930255461887
 20
1659.8528278729
 30
0.0
 11
886.8612330697887
 21
1659.4660037841
 31
0.0
1001
ACAD
1000
RTMaterial
1005
0
  0
LWPOLYLINE
  5
38A
330
21D
100
AcDbEntity
  8
7_ALL_FEATURES
  6
Continuous
 62
     7
100
AcDbPolyline
 90
        4
 70
     0
 43
0.0
 10
1145.026672361688
 20
1654.3528278729
 10
1145.532133839989
 20
1655.1057017498
 10
1150.147685987588
 20
1659.7907531932
 10
1150.248316709189
 20
1659.8528278729
  0
LINE
  5
38D
330
21D
100
AcDbEntity
  8
7_ALL_FEATURES
  6
Continuous
 62
     9
100
AcDbLine
 10
1022.486141945688
 20
1689.4206573959
 30
0.0
 11
1022.486141945688
 21
1689.8954594866
 31
0.0
1001
ACAD
1000
RTMaterial
1005
0
  0
LINE
  5
38E
330
21D
100
AcDbEntity
  8
0
  6
Continuous
 62
     6
100
AcDbLine
 10
800.7240871307885
 20
1637.3528278729
 30
0.0
 11
800.8960661275887
 21
1637.2805246051
 31
0.0
1001
ACAD
1000
RTMaterial
1005
0
  0
LWPOLYLINE
  5
38F
330
21D
100
AcDbEntity
  8
7_ALL_FEATURES
  6
Continuous
 62
     7
100
AcDbPolyline
 90
        3
 70
     0
 43
0.0
 10
1105.945618919089
 20
1659.1182528764
 10
1106.010843703588
 20
1659.3188806147
 10
1106.249133631589
 20
1659.6270194312
  0
LINE
  5
390
330
21D
100
AcDbEntity
  8
7_ALL_FEATURES
  6
Continuous
 62
     7
100
AcDbLine
 10
1105.946553823988
 20
1659.1235300035
 30
0.0
 11
1105.865879607089
 21
1658.6660037841
 31
0.0
1001
ACAD
1000
RTMaterial
1005
0
  0
LINE
  5
391
330
21D
100
AcDbEntity
  8
0
  6
Continuous
 62
     7
100
AcDbLine
 10
622.9340871307885
 20
1654.3528278729
 30
0.0
 11
1202.191979233789
 21
1654.3528278729
 31
0.0
1001
ACAD
1000
RTMaterial
1005
0
  0
LINE
  5
392
330
21D
100
AcDbEntity
  8
02___PRT_ALL_AXES
  6
Continuous
 62
     7
100
AcDbLine
 10
893.9340871307885
 20
1655.1528278729
 30
0.0
 11
901.9340402619887
 21
1655.1528278729
 31
0.0
1001
ACAD
1000
RTMaterial
1005
0
  0
LINE
  5
393
330
21D
100
AcDbEntity
  8
02___PRT_ALL_AXES
  6
Continuous
 62
     9
100
AcDbLine
 10
1086.212296146388
 20
1655.5378015031
 30
0.0
 11
1103.655878115088
 21
1655.5378015031
 31
0.0
1001
ACAD
1000
RTMaterial
1005
0
  0
LINE
  5
394
330
21D
100
AcDbEntity
  8
02___PRT_ALL_AXES
  6
Continuous
 62
     9
100
AcDbLine
 10
889.2122961463885
 20
1656.3378015031
 30
0.0
 11
906.6558781150886
 21
1656.3378015031
 31
0.0
1001
ACAD
1000
RTMaterial
1005
0
  0
LINE
  5
395
330
21D
100
AcDbEntity
  8
02___PRT_ALL_AXES
  6
Continuous
 62
     7
100
AcDbLine
 10
1084.184087130788
 20
1658.2528278729
 30
0.0
 11
1105.684087130788
 21
1658.2528278729
 31
0.0
1001
ACAD
1000
RTMaterial
1005
0
  0
LINE
  5
396
330
21D
100
AcDbEntity
  8
7_ALL_FEATURES
  6
Continuous
 62
     9
100
AcDbLine
 10
1105.865879607089
 20
1658.6660037841
 30
0.0
 11
1084.002294654389
 21
1658.6660037841
 31
0.0
1001
ACAD
1000
RTMaterial
1005
0
  0
LINE
  5
397
330
21D
100
AcDbEntity
  8
7_ALL_FEATURES
  6
Continuous
 62
     9
100
AcDbLine
 10
1105.886088512588
 20
1659.0264885241
 30
0.0
 11
1105.315219964988
 21
1659.0264760506
 31
0.0
1001
ACAD
1000
RTMaterial
1005
0
  0
LINE
  5
398
330
21D
100
AcDbEntity
  8
7_ALL_FEATURES
  6
Continuous
 62
     9
100
AcDbLine
 10
1105.315219964988
 20
1659.0264760506
 30
0.0
 11
1090.131341968588
 21
1659.0264796651
 31
0.0
1001
ACAD
1000
RTMaterial
1005
0
  0
LINE
  5
399
330
21D
100
AcDbEntity
  8
7_ALL_FEATURES
  6
Continuous
 62
     7
100
AcDbLine
 10
903.4840871307885
 20
1659.0528278729
 30
0.0
 11
892.3840871307886
 21
1659.0528278729
 31
0.0
1001
ACAD
1000
RTMaterial
1005
0
  0
LINE
  5
39A
330
21D
100
AcDbEntity
  8
02___PRT_ALL_AXES
  6
Continuous
 62
     7
100
AcDbLine
 10
887.1840871307886
 20
1659.0528278729
 30
0.0
 11
908.6840871307886
 21
1659.0528278729
 31
0.0
1001
ACAD
1000
RTMaterial
1005
0
  0
LINE
  5
39B
330
21D
100
AcDbEntity
  8
7_ALL_FEATURES
  6
Continuous
 62
     9
100
AcDbLine
 10
907.1029827215886
 20
1659.3195032303
 30
0.0
 11
888.7652246628887
 21
1659.3194999149
 31
0.0
1001
ACAD
1000
RTMaterial
1005
0
  0
LINE
  5
39C
330
21D
100
AcDbEntity
  8
7_ALL_FEATURES
  6
Continuous
 62
     9
100
AcDbLine
 10
909.0069411916886
 20
1659.4660037841
 30
0.0
 11
908.1181879237886
 21
1659.4660037841
 31
0.0
1001
ACAD
1000
RTMaterial
1005
0
  0
LINE
  5
39D
330
21D
100
AcDbEntity
  8
7_ALL_FEATURES
  6
Continuous
 62
     9
100
AcDbLine
 10
887.7499757962887
 20
1659.4660037841
 30
0.0
 11
886.8612330697887
 21
1659.4660037841
 31
0.0
1001
ACAD
1000
RTMaterial
1005
0
  0
LINE
  5
39E
330
21D
100
AcDbEntity
  8
7_ALL_FEATURES
  6
Continuous
 62
     7
100
AcDbLine
 10
727.9340871307886
 20
1659.8528278729
 30
0.0
 11
1210.901558170788
 21
1659.8528278729
 31
0.0
1001
ACAD
1000
RTMaterial
1005
0
  0
LINE
  5
39F
330
21D
100
AcDbEntity
  8
7_ALL_FEATURES
  6
Continuous
 62
     7
100
AcDbLine
 10
923.3397705693887
 20
1659.8528278729
 30
0.0
 11
1028.286022351889
 21
1654.3528278729
 31
0.0
1001
ACAD
1000
RTMaterial
1005
0
  0
LINE
  5
3A0
330
21D
100
AcDbEntity
  8
0
  6
Continuous
 62
     7
100
AcDbLine
 10
1052.934087130688
 20
1244.3528278729
 30
0.0
 11
1207.790431757789
 21
1646.1952411456
 31
0.0
1001
ACAD
1000
RTMaterial
1005
0
  0
LINE
  5
3A1
330
21D
100
AcDbEntity
  8
7_ALL_FEATURES
  6
Continuous
 62
     7
100
AcDbLine
 10
711.4340871307886
 20
1678.3528278729
 30
0.0
 11
709.4340871307886
 21
1678.3528278729
 31
0.0
1001
ACAD
1000
RTMaterial
1005
0
  0
LINE
  5
3A2
330
21D
100
AcDbEntity
  8
0
  6
Continuous
 62
     9
100
AcDbLine
 10
626.3518418633887
 20
1681.4574997854
 30
0.0
 11
706.0003464143886
 21
1681.4574997854
 31
0.0
1001
ACAD
1000
RTMaterial
1005
0
  0
LINE
  5
3A3
330
21D
100
AcDbEntity
  8
0
  6
Continuous
 62
     9
100
AcDbLine
 10
709.8951867244887
 20
1682.379013297
 30
0.0
 11
708.8096761643887
 21
1682.3790231801
 31
0.0
1001
ACAD
1000
RTMaterial
1005
0
  0
LINE
  5
3A4
330
21D
100
AcDbEntity
  8
0
  6
Continuous
 62
     7
100
AcDbLine
 10
626.3518418633887
 20
1683.3528278729
 30
0.0
 11
710.1246949654887
 21
1683.3528278729
 31
0.0
1001
ACAD
1000
RTMaterial
1005
0
  0
LINE
  5
3A5
330
21D
100
AcDbEntity
  8
0
  6
Continuous
 62
     7
100
AcDbLine
 10
826.7562819627885
 20
1694.6613799163
 30
0.0
 11
747.2616116996887
 21
1696.3954862571
 31
0.0
1001
ACAD
1000
RTMaterial
1005
0
  0
LINE
  5
3A6
330
21D
100
AcDbEntity
  8
7_ALL_FEATURES
  6
Continuous
 62
     9
100
AcDbLine
 10
741.1538524036886
 20
1694.5234853995
 30
0.0
 11
728.3516125829887
 21
1694.8475443754
 31
0.0
1001
ACAD
1000
RTMaterial
1005
0
  0
LINE
  5
3A7
330
21D
100
AcDbEntity
  8
7_ALL_FEATURES
  6
Continuous
 62
     9
100
AcDbLine
 10
748.4022217287886
 20
1694.3406673018
 30
0.0
 11
741.1538524036886
 21
1694.5234853995
 31
0.0
1001
ACAD
1000
RTMaterial
1005
0
  0
LINE
  5
3A8
330
21D
100
AcDbEntity
  8
7_ALL_FEATURES
  6
Continuous
 62
     7
100
AcDbLine
 10
741.2043694895888
 20
1696.5228473038
 30
0.0
 11
728.4022217287886
 21
1696.8469039514
 31
0.0
1001
ACAD
1000
RTMaterial
1005
0
  0
LINE
  5
3A9
330
21D
100
AcDbEntity
  8
7_ALL_FEATURES
  6
Continuous
 62
     7
100
AcDbLine
 10
748.4526524724885
 20
1696.3400312788
 30
0.0
 11
741.2043694895888
 21
1696.5228473038
 31
0.0
1001
ACAD
1000
RTMaterial
1005
0
  0
LWPOLYLINE
  5
3AA
330
21D
100
AcDbEntity
  8
0
  6
Continuous
 62
     7
100
AcDbPolyline
 90
        3
 70
     0
 43
0.0
 10
1022.486141945688
 20
1689.8954594866
 10
920.7634131648887
 20
1692.460452337
 10
826.7562819627885
 20
1694.6613799163
  0
LWPOLYLINE
  5
3AB
330
21D
100
AcDbEntity
  8
0
  6
Continuous
 62
     7
100
AcDbPolyline
 90
        4
 70
     0
 43
0.0
 10
1207.759848417288
 20
1684.7266595292
 10
1146.423246741688
 20
1686.507893229
 10
1083.922935263488
 20
1688.2515938771
 10
1022.486141945688
 20
1689.8954594866
  0
LINE
  5
3AC
330
21D
100
AcDbEntity
  8
7_ALL_FEATURES
  6
Continuous
 62
     7
100
AcDbLine
 10
1083.793025546189
 20
1659.8528278729
 30
0.0
 11
1084.002294654389
 21
1658.6660037841
 31
0.0
1001
ACAD
1000
RTMaterial
1005
0
  0
LWPOLYLINE
  5
3AD
330
21D
100
AcDbEntity
  8
0
  6
Continuous
 62
     7
100
AcDbPolyline
 90
        7
 70
     0
 43
0.0
 10
1207.789508647189
 20
1646.1952894495
 10
1208.093154983088
 20
1647.2745480685
 10
1208.105323888388
 20
1649.3622274851
 10
1207.399240544488
 20
1651.3315333356
 10
1206.060289043089
 20
1652.938416017
 10
1204.251887486488
 20
1653.987749033
 10
1202.190933959289
 20
1654.3528278729
  0
LINE
  5
3AE
330
21D
100
AcDbEntity
  8
7_ALL_FEATURES
  6
Continuous
 62
     7
100
AcDbLine
 10
1210.902221728789
 20
1659.8528278729
 30
0.0
 11
1209.697881512989
 21
1682.8330081488
 31
0.0
1001
ACAD
1000
RTMaterial
1005
0
  0
LINE
  5
3AF
330
21D
100
AcDbEntity
  8
7_ALL_FEATURES
  6
Continuous
 62
     9
100
AcDbLine
 10
1208.349648464688
 20
1659.8528278729
 30
0.0
 11
1207.158905290288
 21
1682.8958571457
 31
0.0
1001
ACAD
1000
RTMaterial
1005
0
  0
ARC
  5
3B0
330
21D
100
AcDbEntity
  8
7_ALL_FEATURES
  6
Continuous
 62
     7
100
AcDbCircle
 10
-22998.9879338211
 20
976.9831535438999
 30
0.0
 40
23380.591928281
100
AcDbArc
 50
359.3646276714
 51
0.0362587962
1001
ACAD
1000
RTMaterial
1005
0
  0
ARC
  5
3B1
330
21D
100
AcDbEntity
  8
7_ALL_FEATURES
  6
Continuous
 62
     9
100
AcDbCircle
 10
-22883.1055313439
 20
975.2800260778998
 30
0.0
 40
23262.7113133322
100
AcDbArc
 50
359.365558933
 51
0.0405131059
1001
ACAD
1000
RTMaterial
1005
0
  0
ARC
  5
3B2
330
21D
100
AcDbEntity
  8
7_ALL_FEATURES
  6
Continuous
 62
     7
100
AcDbCircle
 10
193.0969925791
 20
717.6953143264999
 30
0.0
 40
188.5023201441
100
AcDbArc
 50
359.1959456307
 51
359.9999950516
1001
ACAD
1000
RTMaterial
1005
0
  0
ARC
  5
3B3
330
21D
100
AcDbEntity
  8
7_ALL_FEATURES
  6
Continuous
 62
     7
100
AcDbCircle
 10
193.0993127232
 20
717.6952980464
 30
0.0
 40
188.5
100
AcDbArc
 50
279.5940682269
 51
359.1959406823
1001
ACAD
1000
RTMaterial
1005
0
  0
ARC
  5
3B4
330
21D
100
AcDbEntity
  8
0
  6
Continuous
 62
     9
100
AcDbCircle
 10
-405.5254770717
 20
1012.2044231266
 30
0.0
 40
679.0992665423
100
AcDbArc
 50
359.5130633523
 51
359.9615742482
1001
ACAD
1000
RTMaterial
1005
0
  0
ARC
  5
3B5
330
21D
100
AcDbEntity
  8
0
  6
Continuous
 62
     9
100
AcDbCircle
 10
55.5974789712
 20
1267.3580468168
 30
0.0
 40
151.4236312599
100
AcDbArc
 50
269.8258484
 51
270.0006938563
1001
ACAD
1000
RTMaterial
1005
0
  0
ARC
  5
3B6
330
21D
100
AcDbEntity
  8
0
  6
Continuous
 62
     9
100
AcDbCircle
 10
81.6011670596
 20
1267.3220442779
 30
0.0
 40
151.3876287213
100
AcDbArc
 50
269.999298188
 51
270.1496012186
1001
ACAD
1000
RTMaterial
1005
0
  0
ARC
  5
3B7
330
21D
100
AcDbEntity
  8
0
  6
Continuous
 62
     9
100
AcDbCircle
 10
55.589544852
 20
1265.6717538441
 30
0.0
 40
149.7373219873
100
AcDbArc
 50
269.4853395603
 51
269.8269230772
1001
ACAD
1000
RTMaterial
1005
0
  0
ARC
  5
3B8
330
21D
100
AcDbEntity
  8
0
  6
Continuous
 62
     9
100
AcDbCircle
 10
81.60885820289999
 20
1265.6563643506
 30
0.0
 40
149.7219344274
100
AcDbArc
 50
270.1483223073
 51
270.5293319446
1001
ACAD
1000
RTMaterial
1005
0
  0
ARC
  5
3B9
330
21D
100
AcDbEntity
  8
0
  6
Continuous
 62
     9
100
AcDbCircle
 10
55.5106177945
 20
1257.1680169611
 30
0.0
 40
141.2332192353
100
AcDbArc
 50
269.1552368806
 51
269.4863699605
1001
ACAD
1000
RTMaterial
1005
0
  0
ARC
  5
3BA
330
21D
100
AcDbEntity
  8
0
  6
Continuous
 62
     9
100
AcDbCircle
 10
81.6885030725
 20
1257.1622617766
 30
0.0
 40
141.2274585522
100
AcDbArc
 50
270.528857644
 51
270.8304394584
1001
ACAD
1000
RTMaterial
1005
0
  0
ARC
  5
3BB
330
21D
100
AcDbEntity
  8
0
  6
Continuous
 62
     9
100
AcDbCircle
 10
55.332950411
 20
1245.1674594004
 30
0.0
 40
129.2313465938
100
AcDbArc
 50
268.7115241834
 51
269.1555558719
1001
ACAD
1000
RTMaterial
1005
0
  0
ARC
  5
3BC
330
21D
100
AcDbEntity
  8
0
  6
Continuous
 62
     9
100
AcDbCircle
 10
81.9066374784
 20
1242.9596675146
 30
0.0
 40
127.0231951406
100
AcDbArc
 50
270.8249059309
 51
271.2706185203
1001
ACAD
1000
RTMaterial
1005
0
  0
ARC
  5
3BD
330
21D
100
AcDbEntity
  8
0
  6
Continuous
 62
     9
100
AcDbCircle
 10
54.9396817583
 20
1227.2363475807
 30
0.0
 40
111.2959259294
100
AcDbArc
 50
268.3962522018
 51
268.7063584958
1001
ACAD
1000
RTMaterial
1005
0
  0
ARC
  5
3BE
330
21D
100
AcDbEntity
  8
0
  6
Continuous
 62
     9
100
AcDbCircle
 10
82.2952336172
 20
1225.7574838456
 30
0.0
 40
109.8166245211
100
AcDbArc
 50
271.2669412777
 51
271.6394804021
1001
ACAD
1000
RTMaterial
1005
0
  0
ARC
  5
3BF
330
21D
100
AcDbEntity
  8
0
  6
Continuous
 62
     9
100
AcDbCircle
 10
54.5103008641
 20
1211.9802978348
 30
0.0
 40
96.03383511650001
100
AcDbArc
 50
267.8948802572
 51
268.3975893843999
1001
ACAD
1000
RTMaterial
1005
0
  0
ARC
  5
3C0
330
21D
100
AcDbEntity
  8
0
  6
Continuous
 62
     9
100
AcDbCircle
 10
82.83191001609999
 20
1207.597449509
 30
0.0
 40
91.648671229
100
AcDbArc
 50
271.6289210849
 51
272.1226941752
1001
ACAD
1000
RTMaterial
1005
0
  0
ARC
  5
3C1
330
21D
100
AcDbEntity
  8
0
  6
Continuous
 62
     9
100
AcDbCircle
 10
53.7130707428
 20
1190.0099111266
 30
0.0
 40
74.04899194790001
100
AcDbArc
 50
267.2928742691
 51
267.886874802
1001
ACAD
1000
RTMaterial
1005
0
  0
ARC
  5
3C2
330
21D
100
AcDbEntity
  8
0
  6
Continuous
 62
     9
100
AcDbCircle
 10
83.5770763938
 20
1187.8793241964
 30
0.0
 40
71.9164772812
100
AcDbArc
 50
272.1112974025
 51
272.6418639819
1001
ACAD
1000
RTMaterial
1005
0
  0
ARC
  5
3C3
330
21D
100
AcDbEntity
  8
0
  6
Continuous
 62
     9
100
AcDbCircle
 10
52.8824265783
 20
1172.0693052567
 30
0.0
 40
56.08917851970001
100
AcDbArc
 50
266.7776651802
 51
267.2748651749
1001
ACAD
1000
RTMaterial
1005
0
  0
ARC
  5
3C4
330
21D
100
AcDbEntity
  8
0
  6
Continuous
 62
     9
100
AcDbCircle
 10
84.3940474653
 20
1170.5141685912
 30
0.0
 40
54.5321237942
100
AcDbArc
 50
272.6253761047
 51
273.2472926809
1001
ACAD
1000
RTMaterial
1005
0
  0
ARC
  5
3C5
330
21D
100
AcDbEntity
  8
0
  6
Continuous
 62
     9
100
AcDbCircle
 10
87.2227605652
 20
1130.7726856731
 30
0.0
 40
14.6866111734
100
AcDbArc
 50
275.4742317396
 51
276.1953559093
1001
ACAD
1000
RTMaterial
1005
0
  0
ARC
  5
3C6
330
21D
100
AcDbEntity
  8
0
  6
Continuous
 62
     9
100
AcDbCircle
 10
120.3328284398
 20
999.9125254522001
 30
0.0
 40
7.029728712999999
100
AcDbArc
 50
179.9666410164
 51
187.647105715
1001
ACAD
1000
RTMaterial
1005
0
  0
ARC
  5
3C7
330
21D
100
AcDbEntity
  8
0
  6
Continuous
 62
     9
100
AcDbCircle
 10
120.2984655659
 20
999.9109165836001
 30
0.0
 40
6.995148183799999
100
AcDbArc
 50
188.6446308547
 51
220.6086604914
1001
ACAD
1000
RTMaterial
1005
0
  0
ARC
  5
3C8
330
21D
100
AcDbEntity
  8
0
  6
Continuous
 62
     9
100
AcDbCircle
 10
120.2922288117
 20
999.906704632
 30
0.0
 40
6.987671949099999
100
AcDbArc
 50
220.6157271516
 51
270.0088296676
1001
ACAD
1000
RTMaterial
1005
0
  0
ARC
  5
3C9
330
21D
100
AcDbEntity
  8
0
  6
Continuous
 62
     9
100
AcDbCircle
 10
120.1883554564
 20
999.8935171722001
 30
0.0
 40
6.883673772899999
100
AcDbArc
 50
187.6506953954
 51
188.6392073687
1001
ACAD
1000
RTMaterial
1005
0
  0
ARC
  5
3CA
330
21D
100
AcDbEntity
  8
0
  6
Continuous
 62
     7
100
AcDbCircle
 10
120.3239738817
 20
999.9349280825001
 30
0.0
 40
6.021486199199999
100
AcDbArc
 50
179.9334427203
 51
187.6358831194
1001
ACAD
1000
RTMaterial
1005
0
  0
ARC
  5
3CB
330
21D
100
AcDbEntity
  8
0
  6
Continuous
 62
     9
100
AcDbCircle
 10
17.0235611808
 20
1113.8231044036
 30
0.0
 40
2.003774053399999
100
AcDbArc
 50
90.1856824533
 51
179.8143175467
1001
ACAD
1000
RTMaterial
1005
0
  0
ARC
  5
3CC
330
21D
100
AcDbEntity
  8
7_ALL_FEATURES
  6
Continuous
 62
     7
100
AcDbCircle
 10
8.5993127232
 20
1028.7473528613
 30
0.0
 40
2.0
100
AcDbArc
 50
90.0
 51
180.0
1001
ACAD
1000
RTMaterial
1005
0
  0
ARC
  5
3CD
330
21D
100
AcDbEntity
  8
0
  6
Continuous
 62
     7
100
AcDbCircle
 10
-10.9038235972
 20
996.7473528613
 30
0.0
 40
0.5
100
AcDbArc
 50
180.0
 51
270.0
1001
ACAD
1000
RTMaterial
1005
0
  0
ARC
  5
3CE
330
21D
100
AcDbEntity
  8
0
  6
Continuous
 62
     7
100
AcDbCircle
 10
-10.9038235972
 20
1027.7473528613
 30
0.0
 40
0.5
100
AcDbArc
 50
90.0
 51
180.0
1001
ACAD
1000
RTMaterial
1005
0
  0
ARC
  5
3CF
330
21D
100
AcDbEntity
  8
7_ALL_FEATURES
  6
Continuous
 62
     7
100
AcDbCircle
 10
23387.1766145106
 20
976.9831015371
 30
0.0
 40
23380.5819835591
100
AcDbArc
 50
179.9637410609
 51
180.6353724714
1001
ACAD
1000
RTMaterial
1005
0
  0
ARC
  5
3D0
330
21D
100
AcDbEntity
  8
7_ALL_FEATURES
  6
Continuous
 62
     9
100
AcDbCircle
 10
23271.0619953675
 20
975.2787710216999
 30
0.0
 40
23262.4691528575
100
AcDbArc
 50
179.9594833811
 51
180.6344445803
1001
ACAD
1000
RTMaterial
1005
0
  0
ARC
  5
3D1
330
21D
100
AcDbEntity
  8
7_ALL_FEATURES
  6
Continuous
 62
     7
100
AcDbCircle
 10
195.1016328683
 20
717.6953143264999
 30
0.0
 40
188.5023201452
100
AcDbArc
 50
180.0000049484
 51
180.8040543693
1001
ACAD
1000
RTMaterial
1005
0
  0
ARC
  5
3D2
330
21D
100
AcDbEntity
  8
7_ALL_FEATURES
  6
Continuous
 62
     7
100
AcDbCircle
 10
195.0993127232
 20
717.6952980464
 30
0.0
 40
188.5
100
AcDbArc
 50
180.8040593177
 51
260.4059317731
1001
ACAD
1000
RTMaterial
1005
0
  0
ARC
  5
3D3
330
21D
100
AcDbEntity
  8
7_ALL_FEATURES
  6
Continuous
 62
     7
100
AcDbCircle
 10
194.0993127232
 20
711.7792182632999
 30
0.0
 40
182.5
100
AcDbArc
 50
260.4059317731
 51
279.5940682269
1001
ACAD
1000
RTMaterial
1005
0
  0
ARC
  5
3D4
330
21D
100
AcDbEntity
  8
7_ALL_FEATURES
  6
Continuous
 62
     9
100
AcDbCircle
 10
194.0993127232
 20
711.5411039066
 30
0.0
 40
181.0575864352
100
AcDbArc
 50
260.3933732017
 51
279.6066267983
1001
ACAD
1000
RTMaterial
1005
0
  0
ARC
  5
3D5
330
21D
100
AcDbEntity
  8
7_ALL_FEATURES
  6
Continuous
 62
     9
100
AcDbCircle
 10
194.0993127232
 20
711.4945588127
 30
0.0
 40
179.0729675466
100
AcDbArc
 50
260.3934562990001
 51
279.606543701
1001
ACAD
1000
RTMaterial
1005
0
  0
ARC
  5
3D6
330
21D
100
AcDbEntity
  8
0
  6
Continuous
 62
     9
100
AcDbCircle
 10
1071.7454956035
 20
1000.6966574063
 30
0.0
 40
798.3287988669999
100
AcDbArc
 50
179.999836846
 51
180.1424601225
1001
ACAD
1000
RTMaterial
1005
0
  0
ARC
  5
3D7
330
21D
100
AcDbEntity
  8
0
  6
Continuous
 62
     7
100
AcDbCircle
 10
332.9133033664
 20
1101.6774136089
 30
0.0
 40
170.8249356421999
100
AcDbArc
 50
213.4978140157
 51
214.4325047464
1001
ACAD
1000
RTMaterial
1005
0
  0
ARC
  5
3D8
330
21D
100
AcDbEntity
  8
0
  6
Continuous
 62
     9
100
AcDbCircle
 10
280.5974789712
 20
1267.3580468167
 30
0.0
 40
151.4236312599
100
AcDbArc
 50
269.8258484
 51
270.0006938563
1001
ACAD
1000
RTMaterial
1005
0
  0
ARC
  5
3D9
330
21D
100
AcDbEntity
  8
0
  6
Continuous
 62
     9
100
AcDbCircle
 10
331.6011670597
 20
1267.3220442042
 30
0.0
 40
151.3876286476
100
AcDbArc
 50
269.999298188
 51
270.1496012187
1001
ACAD
1000
RTMaterial
1005
0
  0
ARC
  5
3DA
330
21D
100
AcDbEntity
  8
0
  6
Continuous
 62
     9
100
AcDbCircle
 10
280.589544852
 20
1265.6717538442
 30
0.0
 40
149.7373219874
100
AcDbArc
 50
269.4853395603
 51
269.8269230772
1001
ACAD
1000
RTMaterial
1005
0
  0
ARC
  5
3DB
330
21D
100
AcDbEntity
  8
0
  6
Continuous
 62
     9
100
AcDbCircle
 10
331.6088582028
 20
1265.656364362
 30
0.0
 40
149.7219344388
100
AcDbArc
 50
270.1483223073
 51
270.5293319446
1001
ACAD
1000
RTMaterial
1005
0
  0
ARC
  5
3DC
330
21D
100
AcDbEntity
  8
0
  6
Continuous
 62
     9
100
AcDbCircle
 10
280.5106177943
 20
1257.1680169458
 30
0.0
 40
141.23321922
100
AcDbArc
 50
269.1552368806
 51
269.4863699605
1001
ACAD
1000
RTMaterial
1005
0
  0
ARC
  5
3DD
330
21D
100
AcDbEntity
  8
0
  6
Continuous
 62
     9
100
AcDbCircle
 10
331.6885030722001
 20
1257.1622617953
 30
0.0
 40
141.2274585709
100
AcDbArc
 50
270.528857644
 51
270.8304394584
1001
ACAD
1000
RTMaterial
1005
0
  0
ARC
  5
3DE
330
21D
100
AcDbEntity
  8
0
  6
Continuous
 62
     9
100
AcDbCircle
 10
280.3329504107
 20
1245.1674593894
 30
0.0
 40
129.2313465829
100
AcDbArc
 50
268.7115241834
 51
269.1555558719
1001
ACAD
1000
RTMaterial
1005
0
  0
ARC
  5
3DF
330
21D
100
AcDbEntity
  8
0
  6
Continuous
 62
     9
100
AcDbCircle
 10
331.9066374781
 20
1242.9596675314
 30
0.0
 40
127.0231951574
100
AcDbArc
 50
270.824905931
 51
271.2706185203
1001
ACAD
1000
RTMaterial
1005
0
  0
ARC
  5
3E0
330
21D
100
AcDbEntity
  8
0
  6
Continuous
 62
     9
100
AcDbCircle
 10
279.9396817584
 20
1227.236347581
 30
0.0
 40
111.2959259297
100
AcDbArc
 50
268.3962522017
 51
268.7063584958
1001
ACAD
1000
RTMaterial
1005
0
  0
ARC
  5
3E1
330
21D
100
AcDbEntity
  8
0
  6
Continuous
 62
     9
100
AcDbCircle
 10
332.295233617
 20
1225.7574838544
 30
0.0
 40
109.8166245299
100
AcDbArc
 50
271.2669412777
 51
271.6394804021
1001
ACAD
1000
RTMaterial
1005
0
  0
ARC
  5
3E2
330
21D
100
AcDbEntity
  8
0
  6
Continuous
 62
     9
100
AcDbCircle
 10
279.5103008637
 20
1211.9802978217
 30
0.0
 40
96.03383510340002
100
AcDbArc
 50
267.8948802572
 51
268.3975893843999
1001
ACAD
1000
RTMaterial
1005
0
  0
ARC
  5
3E3
330
21D
100
AcDbEntity
  8
0
  6
Continuous
 62
     9
100
AcDbCircle
 10
332.8319100164
 20
1207.5974494986
 30
0.0
 40
91.6486712186
100
AcDbArc
 50
271.6289210849
 51
272.1226941752
1001
ACAD
1000
RTMaterial
1005
0
  0
ARC
  5
3E4
330
21D
100
AcDbEntity
  8
0
  6
Continuous
 62
     9
100
AcDbCircle
 10
278.713070743
 20
1190.0099111299
 30
0.0
 40
74.04899195119999
100
AcDbArc
 50
267.2928742691
 51
267.886874802
1001
ACAD
1000
RTMaterial
1005
0
  0
ARC
  5
3E5
330
21D
100
AcDbEntity
  8
0
  6
Continuous
 62
     9
100
AcDbCircle
 10
333.5770763934
 20
1187.8793242052
 30
0.0
 40
71.91647729
100
AcDbArc
 50
272.1112974026
 51
272.6418639819
1001
ACAD
1000
RTMaterial
1005
0
  0
ARC
  5
3E6
330
21D
100
AcDbEntity
  8
0
  6
Continuous
 62
     9
100
AcDbCircle
 10
277.8824265778
 20
1172.069305246
 30
0.0
 40
56.08917850899999
100
AcDbArc
 50
266.7776651801
 51
267.2748651749
1001
ACAD
1000
RTMaterial
1005
0
  0
ARC
  5
3E7
330
21D
100
AcDbEntity
  8
0
  6
Continuous
 62
     9
100
AcDbCircle
 10
334.3940474655
 20
1170.514168588
 30
0.0
 40
54.5321237909
100
AcDbArc
 50
272.6253761047
 51
273.2472926809
1001
ACAD
1000
RTMaterial
1005
0
  0
ARC
  5
3E8
330
21D
100
AcDbEntity
  8
0
  6
Continuous
 62
     9
100
AcDbCircle
 10
337.2227605652
 20
1130.7726856731
 30
0.0
 40
14.6866111733
100
AcDbArc
 50
275.4742317396
 51
276.1953559093
1001
ACAD
1000
RTMaterial
1005
0
  0
ARC
  5
3E9
330
21D
100
AcDbEntity
  8
0
  6
Continuous
 62
     9
100
AcDbCircle
 10
267.8871855444
 20
999.9246177480001
 30
0.0
 40
7.014113673099999
100
AcDbArc
 50
314.414301042
 51
327.5436349568
1001
ACAD
1000
RTMaterial
1005
0
  0
ARC
  5
3EA
330
21D
100
AcDbEntity
  8
0
  6
Continuous
 62
     9
100
AcDbCircle
 10
267.9018620042
 20
999.908044881
 30
0.0
 40
6.993667778899999
100
AcDbArc
 50
328.4681231415
 51
0.0702381857
1001
ACAD
1000
RTMaterial
1005
0
  0
ARC
  5
3EB
330
21D
100
AcDbEntity
  8
0
  6
Continuous
 62
     9
100
AcDbCircle
 10
267.905967275
 20
999.9084636500001
 30
0.0
 40
6.989430914099999
100
AcDbArc
 50
269.9946922255
 51
314.3970007144
1001
ACAD
1000
RTMaterial
1005
0
  0
ARC
  5
3EC
330
21D
100
AcDbEntity
  8
0
  6
Continuous
 62
     9
100
AcDbCircle
 10
267.9811841382
 20
999.8606370805001
 30
0.0
 40
6.900462849
100
AcDbArc
 50
327.5730439485
 51
328.4700275285
1001
ACAD
1000
RTMaterial
1005
0
  0
ARC
  5
3ED
330
21D
100
AcDbEntity
  8
0
  6
Continuous
 62
     7
100
AcDbCircle
 10
267.8904465343
 20
999.9415493836998
 30
0.0
 40
6.0094795246
100
AcDbArc
 50
313.8911099708
 51
328.4576846205
1001
ACAD
1000
RTMaterial
1005
0
  0
ARC
  5
3EE
330
21D
100
AcDbEntity
  8
0
  6
Continuous
 62
     7
100
AcDbCircle
 10
267.895706292
 20
999.9328241867999
 30
0.0
 40
6.000434307499999
100
AcDbArc
 50
328.5024156125
 51
0.0868800774
1001
ACAD
1000
RTMaterial
1005
0
  0
ARC
  5
3EF
330
21D
100
AcDbEntity
  8
0
  6
Continuous
 62
     7
100
AcDbCircle
 10
267.9076870192
 20
999.9277080222
 30
0.0
 40
5.987552639099999
100
AcDbArc
 50
269.976304536
 51
313.8640443266
1001
ACAD
1000
RTMaterial
1005
0
  0
ARC
  5
3F0
330
21D
100
AcDbEntity
  8
0
  6
Continuous
 62
     9
100
AcDbCircle
 10
370.1750648633
 20
1113.8231076531
 30
0.0
 40
2.003772259
100
AcDbArc
 50
0.1855895926
 51
89.81433433819999
1001
ACAD
1000
RTMaterial
1005
0
  0
ARC
  5
3F1
330
21D
100
AcDbEntity
  8
7_ALL_FEATURES
  6
Continuous
 62
     7
100
AcDbCircle
 10
379.5993127232
 20
1028.7473528613
 30
0.0
 40
2.0
100
AcDbArc
 50
0.0
 51
90.0
1001
ACAD
1000
RTMaterial
1005
0
  0
ARC
  5
3F2
330
21D
100
AcDbEntity
  8
7_ALL_FEATURES
  6
Continuous
 62
     7
100
AcDbCircle
 10
381.5993127232
 20
997.8473528612999
 30
0.0
 40
0.5
100
AcDbArc
 50
270.0
 51
360.0
1001
ACAD
1000
RTMaterial
1005
0
  0
ARC
  5
3F3
330
21D
100
AcDbEntity
  8
7_ALL_FEATURES
  6
Continuous
 62
     7
100
AcDbCircle
 10
381.5993127232
 20
1026.6473528613
 30
0.0
 40
0.5
100
AcDbArc
 50
0.0
 51
90.0
1001
ACAD
1000
RTMaterial
1005
0
  0
ARC
  5
3F4
330
21D
100
AcDbEntity
  8
0
  6
Continuous
 62
     9
100
AcDbCircle
 10
18.7386875199
 20
1674.8488235363
 30
0.0
 40
15.6283927907
100
AcDbArc
 50
267.2230328174
 51
270.0422315424
1001
ACAD
1000
RTMaterial
1005
0
  0
ARC
  5
3F5
330
21D
100
AcDbEntity
  8
0
  6
Continuous
 62
     7
100
AcDbCircle
 10
14.9070345837
 20
1648.3022436324
 30
0.0
 40
6.050589388999999
100
AcDbArc
 50
90.07475504930001
 51
102.2971674439
1001
ACAD
1000
RTMaterial
1005
0
  0
ARC
  5
3F6
330
21D
100
AcDbEntity
  8
7_ALL_FEATURES
  6
Continuous
 62
     7
100
AcDbCircle
 10
8.5993127232
 20
1694.8528278729
 30
0.0
 40
2.0
100
AcDbArc
 50
90.0
 51
180.0000000002
1001
ACAD
1000
RTMaterial
1005
0
  0
ARC
  5
3F7
330
21D
100
AcDbEntity
  8
7_ALL_FEATURES
  6
Continuous
 62
     9
100
AcDbCircle
 10
10.0293383373
 20
1687.4208378595
 30
0.0
 40
1.999819064799999
100
AcDbArc
 50
90.2962558942
 51
177.0262605951
1001
ACAD
1000
RTMaterial
1005
0
  0
ARC
  5
3F8
330
21D
100
AcDbEntity
  8
7_ALL_FEATURES
  6
Continuous
 62
     9
100
AcDbCircle
 10
10.0617657652
 20
1687.3575241307
 30
0.0
 40
1.999798722299999
100
AcDbArc
 50
90.3110814399
 51
176.9882196192
1001
ACAD
1000
RTMaterial
1005
0
  0
ARC
  5
3F9
330
21D
100
AcDbEntity
  8
7_ALL_FEATURES
  6
Continuous
 62
     9
100
AcDbCircle
 10
8.598992557999999
 20
1694.847224114
 30
0.0
 40
1.9996798605
100
AcDbArc
 50
89.9908264753
 51
179.9908237174
1001
ACAD
1000
RTMaterial
1005
0
  0
ARC
  5
3FA
330
21D
100
AcDbEntity
  8
7_ALL_FEATURES
  6
Continuous
 62
     9
100
AcDbCircle
 10
8.5983747223
 20
1694.3409692771
 30
0.0
 40
1.9990620219
100
AcDbArc
 50
89.9918576189
 51
180.0086550138999
1001
ACAD
1000
RTMaterial
1005
0
  0
ARC
  5
3FB
330
21D
100
AcDbEntity
  8
7_ALL_FEATURES
  6
Continuous
 62
     9
100
AcDbCircle
 10
8.598373676099999
 20
1694.5237853838
 30
0.0
 40
1.999060975399999
100
AcDbArc
 50
89.97308576569999
 51
180.0085979516
1001
ACAD
1000
RTMaterial
1005
0
  0
ARC
  5
3FC
330
21D
100
AcDbEntity
  8
0
  6
Continuous
 62
     9
100
AcDbCircle
 10
15.6939043004
 20
1658.0354438539
 30
0.0
 40
1.9157223694
100
AcDbArc
 50
131.7072970749
 51
139.2475026998
1001
ACAD
1000
RTMaterial
1005
0
  0
ARC
  5
3FD
330
21D
100
AcDbEntity
  8
0
  6
Continuous
 62
     7
100
AcDbCircle
 10
-10.9038235972
 20
1693.8528278729
 30
0.0
 40
0.5
100
AcDbArc
 50
90.0
 51
180.0
1001
ACAD
1000
RTMaterial
1005
0
  0
ARC
  5
3FE
330
21D
100
AcDbEntity
  8
0
  6
Continuous
 62
     7
100
AcDbCircle
 10
-10.9038235972
 20
1662.8528278729
 30
0.0
 40
0.5
100
AcDbArc
 50
180.0
 51
270.0
1001
ACAD
1000
RTMaterial
1005
0
  0
ARC
  5
3FF
330
21D
100
AcDbEntity
  8
0
  6
Continuous
 62
     9
100
AcDbCircle
 10
21.4955341256
 20
1591.2987822012
 30
0.0
 40
67.9580307967
100
AcDbArc
 50
85.89460174800001
 51
86.13579964610002
1001
ACAD
1000
RTMaterial
1005
0
  0
ARC
  5
400
330
21D
100
AcDbEntity
  8
02___PRT_ALL_AXES
  6
Continuous
 62
     7
100
AcDbCircle
 10
30.2662381326
 20
1659.863812051
 30
0.0
 40
4.0
100
AcDbArc
 50
191.6975863634
 51
241.82416025
1001
ACAD
1000
RTMaterial
1005
0
  0
ARC
  5
401
330
21D
100
AcDbEntity
  8
7_ALL_FEATURES
  6
Continuous
 62
     7
100
AcDbCircle
 10
25.1922126226
 20
1658.8528278729
 30
0.0
 40
1.0
100
AcDbArc
 50
27.8181415115
 51
69.2735712298
1001
ACAD
1000
RTMaterial
1005
0
  0
ARC
  5
402
330
21D
100
AcDbEntity
  8
7_ALL_FEATURES
  6
Continuous
 62
     7
100
AcDbCircle
 10
26.5188625388
 20
1659.5528278729
 30
0.0
 40
0.5
100
AcDbArc
 50
207.8181392846
 51
269.9999999933
1001
ACAD
1000
RTMaterial
1005
0
  0
ARC
  5
403
330
21D
100
AcDbEntity
  8
02___PRT_ALL_AXES
  6
Continuous
 62
     7
100
AcDbCircle
 10
33.0993127232
 20
1665.1528278729
 30
0.0
 40
10.0
100
AcDbArc
 50
241.82416025
 51
270.0
1001
ACAD
1000
RTMaterial
1005
0
  0
ARC
  5
404
330
21D
100
AcDbEntity
  8
02___PRT_ALL_AXES
  6
Continuous
 62
     7
100
AcDbCircle
 10
48.2662381326
 20
1659.063812051
 30
0.0
 40
4.0
100
AcDbArc
 50
191.6975863634
 51
241.82416025
1001
ACAD
1000
RTMaterial
1005
0
  0
ARC
  5
405
330
21D
100
AcDbEntity
  8
7_ALL_FEATURES
  6
Continuous
 62
     7
100
AcDbCircle
 10
43.11915150739999
 20
1658.8528278729
 30
0.0
 40
1.0
100
AcDbArc
 50
10.0000010802
 51
90.0
1001
ACAD
1000
RTMaterial
1005
0
  0
ARC
  5
406
330
21D
100
AcDbEntity
  8
7_ALL_FEATURES
  6
Continuous
 62
     7
100
AcDbCircle
 10
44.6599241233
 20
1658.7528278729
 30
0.0
 40
0.5
100
AcDbArc
 50
190.0000034567
 51
269.9999999921
1001
ACAD
1000
RTMaterial
1005
0
  0
ARC
  5
407
330
21D
100
AcDbEntity
  8
02___PRT_ALL_AXES
  6
Continuous
 62
     7
100
AcDbCircle
 10
41.09931272319999
 20
1665.1528278729
 30
0.0
 40
10.0
100
AcDbArc
 50
270.0
 51
296.1175677679
1001
ACAD
1000
RTMaterial
1005
0
  0
ARC
  5
408
330
21D
100
AcDbEntity
  8
02___PRT_ALL_AXES
  6
Continuous
 62
     7
100
AcDbCircle
 10
51.09931272319999
 20
1664.3528278729
 30
0.0
 40
10.0
100
AcDbArc
 50
241.82416025
 51
270.0
1001
ACAD
1000
RTMaterial
1005
0
  0
ARC
  5
409
330
21D
100
AcDbEntity
  8
02___PRT_ALL_AXES
  6
Continuous
 62
     7
100
AcDbCircle
 10
59.09931272319999
 20
1664.3528278729
 30
0.0
 40
10.0
100
AcDbArc
 50
270.0
 51
298.17583975
1001
ACAD
1000
RTMaterial
1005
0
  0
ARC
  5
40A
330
21D
100
AcDbEntity
  8
02___PRT_ALL_AXES
  6
Continuous
 62
     7
100
AcDbCircle
 10
61.9323873138
 20
1659.063812051
 30
0.0
 40
4.0
100
AcDbArc
 50
298.17583975
 51
348.3024136366
1001
ACAD
1000
RTMaterial
1005
0
  0
ARC
  5
40B
330
21D
100
AcDbEntity
  8
7_ALL_FEATURES
  6
Continuous
 62
     7
100
AcDbCircle
 10
65.538701323
 20
1658.7528278729
 30
0.0
 40
0.5
100
AcDbArc
 50
270.0
 51
349.9999991635
1001
ACAD
1000
RTMaterial
1005
0
  0
ARC
  5
40C
330
21D
100
AcDbEntity
  8
0
  6
Continuous
 62
     9
100
AcDbCircle
 10
118.1886256529
 20
1826.0796586469
 30
0.0
 40
129.6751591367
100
AcDbArc
 50
268.6311922463
 51
269.2068783121
1001
ACAD
1000
RTMaterial
1005
0
  0
ARC
  5
40D
330
21D
100
AcDbEntity
  8
0
  6
Continuous
 62
     9
100
AcDbCircle
 10
115.0762547238
 20
1720.373499015
 30
0.0
 40
23.9208190717
100
AcDbArc
 50
267.2194101114
 51
267.4177607697
1001
ACAD
1000
RTMaterial
1005
0
  0
ARC
  5
40E
330
21D
100
AcDbEntity
  8
0
  6
Continuous
 62
     9
100
AcDbCircle
 10
114.8483423314
 20
1715.7038176803
 30
0.0
 40
19.2455793676
100
AcDbArc
 50
266.9200979655
 51
267.2227184618
1001
ACAD
1000
RTMaterial
1005
0
  0
ARC
  5
40F
330
21D
100
AcDbEntity
  8
0
  6
Continuous
 62
     9
100
AcDbCircle
 10
113.3117988859
 20
1695.8367356451
 30
0.0
 40
1.009697821899999
100
AcDbArc
 50
59.74563837579999
 51
71.77348517209999
1001
ACAD
1000
RTMaterial
1005
0
  0
ARC
  5
410
330
21D
100
AcDbEntity
  8
0
  6
Continuous
 62
     9
100
AcDbCircle
 10
113.3129697977
 20
1695.8460203655
 30
0.0
 40
1.001243107799999
100
AcDbArc
 50
40.65649326239999
 51
53.1370297838
1001
ACAD
1000
RTMaterial
1005
0
  0
ARC
  5
411
330
21D
100
AcDbEntity
  8
0
  6
Continuous
 62
     7
100
AcDbCircle
 10
113.3137698205
 20
1695.8524673748
 30
0.0
 40
1.0
100
AcDbArc
 50
40.2940671706
 51
90.0000629976
1001
ACAD
1000
RTMaterial
1005
0
  0
ARC
  5
412
330
21D
100
AcDbEntity
  8
0
  6
Continuous
 62
     9
100
AcDbCircle
 10
113.3234828335
 20
1695.8594441525
 30
0.0
 40
0.9841963652
100
AcDbArc
 50
53.1578837034
 51
59.6671117758
1001
ACAD
1000
RTMaterial
1005
0
  0
ARC
  5
413
330
21D
100
AcDbEntity
  8
0
  6
Continuous
 62
     7
100
AcDbCircle
 10
114.8993127232
 20
1696.0528278729
 30
0.0
 40
0.8
100
AcDbArc
 50
90.0
 51
148.0118878576
1001
ACAD
1000
RTMaterial
1005
0
  0
ARC
  5
414
330
21D
100
AcDbEntity
  8
0
  6
Continuous
 62
     9
100
AcDbCircle
 10
120.2410171143
 20
2005.6527350983
 30
0.0
 40
309.2612927642
100
AcDbArc
 50
269.6606199089
 51
270.0096873195
1001
ACAD
1000
RTMaterial
1005
0
  0
ARC
  5
415
330
21D
100
AcDbEntity
  8
0
  6
Continuous
 62
     9
100
AcDbCircle
 10
119.6810641592
 20
1926.9524735469
 30
0.0
 40
230.5590279429
100
AcDbArc
 50
269.2306188986
 51
269.6246945348
1001
ACAD
1000
RTMaterial
1005
0
  0
ARC
  5
416
330
21D
100
AcDbEntity
  8
7_ALL_FEATURES
  6
Continuous
 62
     9
100
AcDbCircle
 10
104.0820185265
 20
3438.5341932689
 30
0.0
 40
1754.8061487079
100
AcDbArc
 50
268.0842469588
 51
268.2285420645
1001
ACAD
1000
RTMaterial
1005
0
  0
ARC
  5
417
330
21D
100
AcDbEntity
  8
7_ALL_FEATURES
  6
Continuous
 62
     9
100
AcDbCircle
 10
194.0975081227
 20
-33994.7299350123
 30
0.0
 40
35684.6253967254
100
AcDbArc
 50
89.70948074620002
 51
89.871949178
1001
ACAD
1000
RTMaterial
1005
0
  0
ARC
  5
418
330
21D
100
AcDbEntity
  8
7_ALL_FEATURES
  6
Continuous
 62
     9
100
AcDbCircle
 10
194.0995831866
 20
-33994.4266527752
 30
0.0
 40
35684.3221106082
100
AcDbArc
 50
89.8719514214
 51
90.29051947959999
1001
ACAD
1000
RTMaterial
1005
0
  0
ARC
  5
419
330
21D
100
AcDbEntity
  8
7_ALL_FEATURES
  6
Continuous
 62
     9
100
AcDbCircle
 10
284.6880031842
 20
3421.0013262207
 30
0.0
 40
1737.2639975233
100
AcDbArc
 50
271.7705927949
 51
271.892025856
1001
ACAD
1000
RTMaterial
1005
0
  0
ARC
  5
41A
330
21D
100
AcDbEntity
  8
0
  6
Continuous
 62
     9
100
AcDbCircle
 10
274.0443925231
 20
1703.0416657798
 30
0.0
 40
6.5697080716
100
AcDbArc
 50
274.168117849
 51
275.4248741006
1001
ACAD
1000
RTMaterial
1005
0
  0
ARC
  5
41B
330
21D
100
AcDbEntity
  8
0
  6
Continuous
 62
     9
100
AcDbCircle
 10
274.8865735161
 20
1695.8373316228
 30
0.0
 40
1.009051225
100
AcDbArc
 50
108.3278590115
 51
120.4662462158
1001
ACAD
1000
RTMaterial
1005
0
  0
ARC
  5
41C
330
21D
100
AcDbEntity
  8
0
  6
Continuous
 62
     9
100
AcDbCircle
 10
274.8859057894
 20
1695.8457697261
 30
0.0
 40
1.001593677699999
100
AcDbArc
 50
126.8656542971
 51
139.9856359547
1001
ACAD
1000
RTMaterial
1005
0
  0
ARC
  5
41D
330
21D
100
AcDbEntity
  8
0
  6
Continuous
 62
     7
100
AcDbCircle
 10
274.8848552631
 20
1695.8524777608
 30
0.0
 40
1.0
100
AcDbArc
 50
89.99993884549999
 51
140.3544112064
1001
ACAD
1000
RTMaterial
1005
0
  0
ARC
  5
41E
330
21D
100
AcDbEntity
  8
0
  6
Continuous
 62
     9
100
AcDbCircle
 10
274.8752529605
 20
1695.859288356199
 30
0.0
 40
0.9843871931999998
100
AcDbArc
 50
120.5462910428
 51
126.8416531219
1001
ACAD
1000
RTMaterial
1005
0
  0
ARC
  5
41F
330
21D
100
AcDbEntity
  8
0
  6
Continuous
 62
     7
100
AcDbCircle
 10
272.2993127232
 20
1696.0528278729
 30
0.0
 40
0.8
100
AcDbArc
 50
29.5061500106
 51
90.0
1001
ACAD
1000
RTMaterial
1005
0
  0
ARC
  5
420
330
21D
100
AcDbEntity
  8
7_ALL_FEATURES
  6
Continuous
 62
     9
100
AcDbCircle
 10
194.0993127232
 20
8839.389000228701
 30
0.0
 40
7156.5569289323
100
AcDbArc
 50
269.7580932099
 51
270.2419067901
1001
ACAD
1000
RTMaterial
1005
0
  0
ARC
  5
421
330
21D
100
AcDbEntity
  8
7_ALL_FEATURES
  6
Continuous
 62
     9
100
AcDbCircle
 10
194.0993127232
 20
8684.9880402532
 30
0.0
 40
7000.261516821399
100
AcDbArc
 50
269.7554050221
 51
270.2445949779
1001
ACAD
1000
RTMaterial
1005
0
  0
ARC
  5
422
330
21D
100
AcDbEntity
  8
7_ALL_FEATURES
  6
Continuous
 62
     9
100
AcDbCircle
 10
343.4896573198
 20
1629.7652088594
 30
0.0
 40
41.6831538279
100
AcDbArc
 50
141.2472055389
 51
142.7798487862
1001
ACAD
1000
RTMaterial
1005
0
  0
ARC
  5
423
330
21D
100
AcDbEntity
  8
7_ALL_FEATURES
  6
Continuous
 62
     9
100
AcDbCircle
 10
342.893648814
 20
1630.2502205969
 30
0.0
 40
40.91475588449999
100
AcDbArc
 50
133.4906569255
 51
141.2544313592
1001
ACAD
1000
RTMaterial
1005
0
  0
ARC
  5
424
330
21D
100
AcDbEntity
  8
02___PRT_ALL_AXES
  6
Continuous
 62
     7
100
AcDbCircle
 10
326.2662381326
 20
1659.063812051
 30
0.0
 40
4.0
100
AcDbArc
 50
191.6975863634
 51
241.82416025
1001
ACAD
1000
RTMaterial
1005
0
  0
ARC
  5
425
330
21D
100
AcDbEntity
  8
7_ALL_FEATURES
  6
Continuous
 62
     9
100
AcDbCircle
 10
309.5615536411
 20
1656.9692236179
 30
0.0
 40
2.0586367228
100
AcDbArc
 50
315.5993257944
 51
319.3893815424
1001
ACAD
1000
RTMaterial
1005
0
  0
ARC
  5
426
330
21D
100
AcDbEntity
  8
7_ALL_FEATURES
  6
Continuous
 62
     7
100
AcDbCircle
 10
322.6599241233
 20
1658.7528278729
 30
0.0
 40
0.5
100
AcDbArc
 50
190.0000034567
 51
270.0000000047
1001
ACAD
1000
RTMaterial
1005
0
  0
ARC
  5
427
330
21D
100
AcDbEntity
  8
02___PRT_ALL_AXES
  6
Continuous
 62
     7
100
AcDbCircle
 10
339.9323873138
 20
1659.063812051
 30
0.0
 40
4.0
100
AcDbArc
 50
298.17583975
 51
348.3024136366
1001
ACAD
1000
RTMaterial
1005
0
  0
ARC
  5
428
330
21D
100
AcDbEntity
  8
7_ALL_FEATURES
  6
Continuous
 62
     7
100
AcDbCircle
 10
345.0794739389
 20
1658.8528278729
 30
0.0
 40
1.0
100
AcDbArc
 50
90.0
 51
169.9999986655
1001
ACAD
1000
RTMaterial
1005
0
  0
ARC
  5
429
330
21D
100
AcDbEntity
  8
7_ALL_FEATURES
  6
Continuous
 62
     7
100
AcDbCircle
 10
343.538701323
 20
1658.7528278729
 30
0.0
 40
0.5
100
AcDbArc
 50
270.0
 51
349.9999932898
1001
ACAD
1000
RTMaterial
1005
0
  0
ARC
  5
42A
330
21D
100
AcDbEntity
  8
02___PRT_ALL_AXES
  6
Continuous
 62
     7
100
AcDbCircle
 10
337.0993127232
 20
1664.3528278729
 30
0.0
 40
10.0
100
AcDbArc
 50
270.0
 51
298.17583975
1001
ACAD
1000
RTMaterial
1005
0
  0
ARC
  5
42B
330
21D
100
AcDbEntity
  8
02___PRT_ALL_AXES
  6
Continuous
 62
     7
100
AcDbCircle
 10
329.0993127232
 20
1664.3528278729
 30
0.0
 40
10.0
100
AcDbArc
 50
241.82416025
 51
270.0
1001
ACAD
1000
RTMaterial
1005
0
  0
ARC
  5
42C
330
21D
100
AcDbEntity
  8
0
  6
Continuous
 62
     9
100
AcDbCircle
 10
364.7444589826
 20
1606.7805707455
 30
0.0
 40
52.44639354270001
100
AcDbArc
 50
92.86778488040001
 51
93.06042133860001
1001
ACAD
1000
RTMaterial
1005
0
  0
ARC
  5
42D
330
21D
100
AcDbEntity
  8
0
  6
Continuous
 62
     9
100
AcDbCircle
 10
364.5741890977
 20
1610.2460430145
 30
0.0
 40
48.9767425463
100
AcDbArc
 50
92.3170673343
 51
92.87167553859999
1001
ACAD
1000
RTMaterial
1005
0
  0
ARC
  5
42E
330
21D
100
AcDbEntity
  8
0
  6
Continuous
 62
     9
100
AcDbCircle
 10
364.4468560463
 20
1613.668332915
 30
0.0
 40
45.5521040801
100
AcDbArc
 50
90.0169962552
 51
92.33106961670001
1001
ACAD
1000
RTMaterial
1005
0
  0
ARC
  5
42F
330
21D
100
AcDbEntity
  8
0
  6
Continuous
 62
     7
100
AcDbCircle
 10
372.292102496
 20
1648.305986399
 30
0.0
 40
6.046845979299999
100
AcDbArc
 50
77.6999644446
 51
89.93004651879999
1001
ACAD
1000
RTMaterial
1005
0
  0
ARC
  5
430
330
21D
100
AcDbEntity
  8
02___PRT_ALL_AXES
  6
Continuous
 62
     7
100
AcDbCircle
 10
347.0993127232
 20
1665.1528278729
 30
0.0
 40
10.0
100
AcDbArc
 50
243.8824322321
 51
270.0
1001
ACAD
1000
RTMaterial
1005
0
  0
ARC
  5
431
330
21D
100
AcDbEntity
  8
02___PRT_ALL_AXES
  6
Continuous
 62
     7
100
AcDbCircle
 10
357.9323873138
 20
1659.863812051
 30
0.0
 40
4.0
100
AcDbArc
 50
298.17583975
 51
348.3024136366
1001
ACAD
1000
RTMaterial
1005
0
  0
ARC
  5
432
330
21D
100
AcDbEntity
  8
7_ALL_FEATURES
  6
Continuous
 62
     7
100
AcDbCircle
 10
363.0064128237
 20
1658.8528278729
 30
0.0
 40
1.0
100
AcDbArc
 50
110.7264287702
 51
152.1818584885
1001
ACAD
1000
RTMaterial
1005
0
  0
ARC
  5
433
330
21D
100
AcDbEntity
  8
7_ALL_FEATURES
  6
Continuous
 62
     7
100
AcDbCircle
 10
361.6797629076
 20
1659.5528278729
 30
0.0
 40
0.5
100
AcDbArc
 50
270.0
 51
332.1818607154
1001
ACAD
1000
RTMaterial
1005
0
  0
ARC
  5
434
330
21D
100
AcDbEntity
  8
02___PRT_ALL_AXES
  6
Continuous
 62
     7
100
AcDbCircle
 10
355.0993127232
 20
1665.1528278729
 30
0.0
 40
10.0
100
AcDbArc
 50
270.0
 51
298.17583975
1001
ACAD
1000
RTMaterial
1005
0
  0
ARC
  5
435
330
21D
100
AcDbEntity
  8
7_ALL_FEATURES
  6
Continuous
 62
     7
100
AcDbCircle
 10
381.5993127232
 20
1663.9528278729
 30
0.0
 40
0.5
100
AcDbArc
 50
270.0
 51
360.0
1001
ACAD
1000
RTMaterial
1005
0
  0
ARC
  5
436
330
21D
100
AcDbEntity
  8
7_ALL_FEATURES
  6
Continuous
 62
     7
100
AcDbCircle
 10
379.5993127232
 20
1694.8528278729
 30
0.0
 40
2.0
100
AcDbArc
 50
0.0
 51
90.0
1001
ACAD
1000
RTMaterial
1005
0
  0
ARC
  5
437
330
21D
100
AcDbEntity
  8
7_ALL_FEATURES
  6
Continuous
 62
     9
100
AcDbCircle
 10
378.1368596816
 20
1687.3575241315
 30
0.0
 40
1.999798722499999
100
AcDbArc
 50
3.0117803719
 51
89.6889185707
1001
ACAD
1000
RTMaterial
1005
0
  0
ARC
  5
438
330
21D
100
AcDbEntity
  8
7_ALL_FEATURES
  6
Continuous
 62
     9
100
AcDbCircle
 10
378.1693239191
 20
1687.4209307434
 30
0.0
 40
1.999777497899999
100
AcDbArc
 50
2.971426454899999
 51
89.70478511709998
1001
ACAD
1000
RTMaterial
1005
0
  0
ARC
  5
439
330
21D
100
AcDbEntity
  8
7_ALL_FEATURES
  6
Continuous
 62
     9
100
AcDbCircle
 10
379.5996328839
 20
1694.8472241121
 30
0.0
 40
1.9996798649
100
AcDbArc
 50
0.0091763355
 51
90.00917339690001
1001
ACAD
1000
RTMaterial
1005
0
  0
ARC
  5
43A
330
21D
100
AcDbEntity
  8
7_ALL_FEATURES
  6
Continuous
 62
     9
100
AcDbCircle
 10
379.6002507228
 20
1694.3409692783
 30
0.0
 40
1.9990620222
100
AcDbArc
 50
359.9913449554
 51
90.0081423451
1001
ACAD
1000
RTMaterial
1005
0
  0
ARC
  5
43B
330
21D
100
AcDbEntity
  8
7_ALL_FEATURES
  6
Continuous
 62
     9
100
AcDbCircle
 10
379.6002514253
 20
1694.5214383151
 30
0.0
 40
1.99906132
100
AcDbArc
 50
359.9914677135
 51
90.02672159579999
1001
ACAD
1000
RTMaterial
1005
0
  0
ARC
  5
43C
330
21D
100
AcDbEntity
  8
7_ALL_FEATURES
  6
Continuous
 62
     7
100
AcDbCircle
 10
381.5993127232
 20
1692.7528278729
 30
0.0
 40
0.5
100
AcDbArc
 50
0.0
 51
90.0
1001
ACAD
1000
RTMaterial
1005
0
  0
ARC
  5
43D
330
21D
100
AcDbEntity
  8
0
  6
Continuous
 62
     9
100
AcDbCircle
 10
733.4333940537888
 20
1661.8449988173
 30
0.0
 40
4.000926764899999
100
AcDbArc
 50
288.3237597945
 51
330.0554574979
1001
ACAD
1000
RTMaterial
1005
0
  0
ARC
  5
43F
330
21D
100
AcDbEntity
  8
0
  6
Continuous
 62
     9
100
AcDbCircle
 10
727.9277249299886
 20
1678.4824610039
 30
0.0
 40
21.5256960192
100
AcDbArc
 50
280.2856664618
 51
288.3128936101
1001
ACAD
1000
RTMaterial
1005
0
  0
ARC
  5
440
330
21D
100
AcDbEntity
  8
0
  6
Continuous
 62
     9
100
AcDbCircle
 10
727.9341238254887
 20
1678.4575286872
 30
0.0
 40
21.5000395148
100
AcDbArc
 50
186.0000663771
 51
250.449702473
1001
ACAD
1000
RTMaterial
1005
0
  0
ARC
  5
441
330
21D
100
AcDbEntity
  8
0
  6
Continuous
 62
     7
100
AcDbCircle
 10
727.9340871307886
 20
1678.3528278729
 30
0.0
 40
19.5
100
AcDbArc
 50
186.0
 51
288.3176984112
1001
ACAD
1000
RTMaterial
1005
0
  0
ARC
  5
442
330
21D
100
AcDbEntity
  8
0
  6
Continuous
 62
     7
100
AcDbCircle
 10
727.9340871307886
 20
1678.3528278729
 30
0.0
 40
18.5
100
AcDbArc
 50
111.471601353
 51
112.2809392419
1001
ACAD
1000
RTMaterial
1005
0
  0
ARC
  5
443
330
21D
100
AcDbEntity
  8
0
  6
Continuous
 62
     7
100
AcDbCircle
 10
727.9340871307886
 20
1678.3528278729
 30
0.0
 40
18.5
100
AcDbArc
 50
115.4573504117
 51
115.948601598
1001
ACAD
1000
RTMaterial
1005
0
  0
ARC
  5
444
330
21D
100
AcDbEntity
  8
0
  6
Continuous
 62
     7
100
AcDbCircle
 10
727.9340871307886
 20
1678.3528278729
 30
0.0
 40
18.5
100
AcDbArc
 50
88.54789971009999
 51
90.5657878727
1001
ACAD
1000
RTMaterial
1005
0
  0
ARC
  5
445
330
21D
100
AcDbEntity
  8
0
  6
Continuous
 62
     7
100
AcDbCircle
 10
727.9340871307886
 20
1678.3528278729
 30
0.0
 40
18.5
100
AcDbArc
 50
99.61131406379999
 51
103.5804943667
1001
ACAD
1000
RTMaterial
1005
0
  0
ARC
  5
446
330
21D
100
AcDbEntity
  8
0
  6
Continuous
 62
     7
100
AcDbCircle
 10
727.9340871307886
 20
1678.3528278729
 30
0.0
 40
18.5
100
AcDbArc
 50
177.0206701864
 51
178.5517996354
1001
ACAD
1000
RTMaterial
1005
0
  0
ARC
  5
447
330
21D
100
AcDbEntity
  8
7_ALL_FEATURES
  6
Continuous
 62
     7
100
AcDbCircle
 10
727.9340871307886
 20
1678.3528278729
 30
0.0
 40
18.5
100
AcDbArc
 50
88.55
 51
270.0
1001
ACAD
1000
RTMaterial
1005
0
  0
ARC
  5
448
330
21D
100
AcDbEntity
  8
7_ALL_FEATURES
  6
Continuous
 62
     9
100
AcDbCircle
 10
727.9340871307886
 20
1678.3528278729
 30
0.0
 40
16.5
100
AcDbArc
 50
88.55
 51
180.0
1001
ACAD
1000
RTMaterial
1005
0
  0
CIRCLE
  5
449
330
21D
100
AcDbEntity
  8
0
  6
Continuous
 62
     7
100
AcDbCircle
 10
727.9340871307886
 20
1678.3528278729
 30
0.0
 40
16.0
1001
ACAD
1000
RTMaterial
1005
0
  0
CIRCLE
  5
44A
330
21D
100
AcDbEntity
  8
0
  6
Continuous
 62
     9
100
AcDbCircle
 10
727.9340871307886
 20
1678.3528278729
 30
0.0
 40
15.5
1001
ACAD
1000
RTMaterial
1005
0
  0
ARC
  5
44B
330
21D
100
AcDbEntity
  8
0
  6
Continuous
 62
     9
100
AcDbCircle
 10
705.9949614134886
 20
1681.3252597842
 30
0.0
 40
3.005501027099999
100
AcDbArc
 50
6.015644263099999
 51
20.5247252533
1001
ACAD
1000
RTMaterial
1005
0
  0
ARC
  5
44C
330
21D
100
AcDbEntity
  8
0
  6
Continuous
 62
     7
100
AcDbCircle
 10
706.0003464143886
 20
1681.3528278729
 30
0.0
 40
2.0
100
AcDbArc
 50
6.0
 51
90.0
1001
ACAD
1000
RTMaterial
1005
0
  0
ARC
  5
44D
330
21D
100
AcDbEntity
  8
0
  6
Continuous
 62
     7
100
AcDbCircle
 10
626.3518418633887
 20
1681.3528278729
 30
0.0
 40
2.0
100
AcDbArc
 50
90.0
 51
177.0
1001
ACAD
1000
RTMaterial
1005
0
  0
ARC
  5
44E
330
21D
100
AcDbEntity
  8
02___PRT_ALL_AXES
  6
Continuous
 62
     7
100
AcDbCircle
 10
893.9340871307885
 20
1665.1528278729
 30
0.0
 40
10.0
100
AcDbArc
 50
241.82416025
 51
270.0
1001
ACAD
1000
RTMaterial
1005
0
  0
ARC
  5
44F
330
21D
100
AcDbEntity
  8
02___PRT_ALL_AXES
  6
Continuous
 62
     7
100
AcDbCircle
 10
901.9340871307885
 20
1665.1528278729
 30
0.0
 40
10.0
100
AcDbArc
 50
270.0
 51
298.17583975
1001
ACAD
1000
RTMaterial
1005
0
  0
ARC
  5
450
330
21D
100
AcDbEntity
  8
02___PRT_ALL_AXES
  6
Continuous
 62
     7
100
AcDbCircle
 10
891.1010125401887
 20
1659.863812051
 30
0.0
 40
4.0
100
AcDbArc
 50
191.6975863634
 51
241.82416025
1001
ACAD
1000
RTMaterial
1005
0
  0
ARC
  5
451
330
21D
100
AcDbEntity
  8
02___PRT_ALL_AXES
  6
Continuous
 62
     7
100
AcDbCircle
 10
904.7671617213886
 20
1659.863812051
 30
0.0
 40
4.0
100
AcDbArc
 50
298.17583975
 51
348.3024136366
1001
ACAD
1000
RTMaterial
1005
0
  0
ARC
  5
452
330
21D
100
AcDbEntity
  8
7_ALL_FEATURES
  6
Continuous
 62
     9
100
AcDbCircle
 10
907.1072171809888
 20
1663.1420274511
 30
0.0
 40
3.8225265662
100
AcDbArc
 50
269.9365297541
 51
275.3767105976
1001
ACAD
1000
RTMaterial
1005
0
  0
ARC
  5
453
330
21D
100
AcDbEntity
  8
7_ALL_FEATURES
  6
Continuous
 62
     9
100
AcDbCircle
 10
888.6720043108887
 20
1662.4231052043
 30
0.0
 40
3.097512775
100
AcDbArc
 50
252.6824456587
 51
255.8084610304
1001
ACAD
1000
RTMaterial
1005
0
  0
ARC
  5
454
330
21D
100
AcDbEntity
  8
7_ALL_FEATURES
  6
Continuous
 62
     9
100
AcDbCircle
 10
906.4356524591884
 20
1661.4443806804
 30
0.0
 40
2.597094671699999
100
AcDbArc
 50
310.3799190077
 51
311.9450467063
1001
ACAD
1000
RTMaterial
1005
0
  0
ARC
  5
455
330
21D
100
AcDbEntity
  8
0
  6
Continuous
 62
     7
100
AcDbCircle
 10
831.7970235300888
 20
1656.9157853297
 30
0.0
 40
2.0
100
AcDbArc
 50
3.0
 51
88.03418546290002
1001
ACAD
1000
RTMaterial
1005
0
  0
ARC
  5
456
330
21D
100
AcDbEntity
  8
7_ALL_FEATURES
  6
Continuous
 62
     7
100
AcDbCircle
 10
887.3536369463886
 20
1659.5528278729
 30
0.0
 40
0.5
100
AcDbArc
 50
190.0
 51
270.0
1001
ACAD
1000
RTMaterial
1005
0
  0
ARC
  5
457
330
21D
100
AcDbEntity
  8
7_ALL_FEATURES
  6
Continuous
 62
     7
100
AcDbCircle
 10
908.5145373151886
 20
1659.5528278729
 30
0.0
 40
0.5
100
AcDbArc
 50
270.0
 51
350.0
1001
ACAD
1000
RTMaterial
1005
0
  0
ARC
  5
458
330
21D
100
AcDbEntity
  8
0
  6
Continuous
 62
     9
100
AcDbCircle
 10
883.3253416828886
 20
3158.225642111
 30
0.0
 40
1502.089278425
100
AcDbArc
 50
265.9753305958
 51
267.7285797511
1001
ACAD
1000
RTMaterial
1005
0
  0
ARC
  5
459
330
21D
100
AcDbEntity
  8
0
  6
Continuous
 62
     7
100
AcDbCircle
 10
883.3204375977887
 20
3158.0318160891
 30
0.0
 40
1500.0
100
AcDbArc
 50
267.2023232194
 51
268.0341854629
1001
ACAD
1000
RTMaterial
1005
0
  0
ARC
  5
45A
330
21D
100
AcDbEntity
  8
02___PRT_ALL_AXES
  6
Continuous
 62
     7
100
AcDbCircle
 10
1090.934087130788
 20
1664.3528278729
 30
0.0
 40
10.0
100
AcDbArc
 50
241.82416025
 51
270.0
1001
ACAD
1000
RTMaterial
1005
0
  0
ARC
  5
45B
330
21D
100
AcDbEntity
  8
02___PRT_ALL_AXES
  6
Continuous
 62
     7
100
AcDbCircle
 10
1098.934087130788
 20
1664.3528278729
 30
0.0
 40
10.0
100
AcDbArc
 50
270.0
 51
298.17583975
1001
ACAD
1000
RTMaterial
1005
0
  0
ARC
  5
45C
330
21D
100
AcDbEntity
  8
02___PRT_ALL_AXES
  6
Continuous
 62
     7
100
AcDbCircle
 10
1088.101012540189
 20
1659.063812051
 30
0.0
 40
4.0
100
AcDbArc
 50
191.6975863634
 51
241.82416025
1001
ACAD
1000
RTMaterial
1005
0
  0
ARC
  5
45D
330
21D
100
AcDbEntity
  8
02___PRT_ALL_AXES
  6
Continuous
 62
     7
100
AcDbCircle
 10
1101.767161721388
 20
1659.063812051
 30
0.0
 40
4.0
100
AcDbArc
 50
298.17583975
 51
348.3024136366
1001
ACAD
1000
RTMaterial
1005
0
  0
ARC
  5
45E
330
21D
100
AcDbEntity
  8
7_ALL_FEATURES
  6
Continuous
 62
     7
100
AcDbCircle
 10
1207.700663143189
 20
1682.7275351433
 30
0.0
 40
2.0
100
AcDbArc
 50
3.000000063999999
 51
88.30421948020001
1001
ACAD
1000
RTMaterial
1005
0
  0
ARC
  5
45F
330
21D
100
AcDbEntity
  8
7_ALL_FEATURES
  6
Continuous
 62
     9
100
AcDbCircle
 10
1106.889625072189
 20
1658.8459287259
 30
0.0
 40
1.019863654199999
100
AcDbArc
 50
152.2048239808
 51
163.7762591295
1001
ACAD
1000
RTMaterial
1005
0
  0
ARC
  5
460
330
21D
100
AcDbEntity
  8
7_ALL_FEATURES
  6
Continuous
 62
     9
100
AcDbCircle
 10
1106.869463287189
 20
1658.8558894344
 30
0.0
 40
0.997688162
100
AcDbArc
 50
124.5377539188
 51
133.9020314597
1001
ACAD
1000
RTMaterial
1005
0
  0
ARC
  5
461
330
21D
100
AcDbEntity
  8
7_ALL_FEATURES
  6
Continuous
 62
     9
100
AcDbCircle
 10
1106.857603100088
 20
1658.855460217
 30
0.0
 40
0.9864538888
100
AcDbArc
 50
163.7881859092
 51
170.015783051
1001
ACAD
1000
RTMaterial
1005
0
  0
ARC
  5
462
330
21D
100
AcDbEntity
  8
7_ALL_FEATURES
  6
Continuous
 62
     7
100
AcDbCircle
 10
1084.494698530889
 20
1658.7528278729
 30
0.0
 40
0.5
100
AcDbArc
 50
190.0
 51
270.0
1001
ACAD
1000
RTMaterial
1005
0
  0
ARC
  5
463
330
21D
100
AcDbEntity
  8
7_ALL_FEATURES
  6
Continuous
 62
     7
100
AcDbCircle
 10
1105.373475730589
 20
1658.7528278729
 30
0.0
 40
0.5
100
AcDbArc
 50
270.0
 51
350.0
1001
ACAD
1000
RTMaterial
1005
0
  0
SPLINE
  5
464
330
21D
100
AcDbEntity
  8
0
  6
Continuous
 62
     7
100
AcDbSpline
210
0.0
220
0.0
230
1.0
 70
     8
 71
     3
 72
     8
 73
     4
 74
     0
 42
0.0000000001
 43
0.0000000001
 40
0.0
 40
0.0
 40
0.0
 40
0.0
 40
1.0
 40
1.0
 40
1.0
 40
1.0
 10
114.0993127232
 20
1028.6151227408
 30
0.0
 10
114.0993127232
 20
1028.7192508085
 30
0.0
 10
114.1193825198
 20
1028.8251788173
 30
0.0
 10
114.1576928745
 20
1028.9220032524
 30
0.0
  0
SPLINE
  5
465
330
21D
100
AcDbEntity
  8
0
  6
Continuous
 62
     7
100
AcDbSpline
210
0.0
220
0.0
230
1.0
 70
     8
 71
     3
 72
     8
 73
     4
 74
     0
 42
0.0000000001
 43
0.0000000001
 40
0.0
 40
0.0
 40
0.0
 40
0.0
 40
1.0
 40
1.0
 40
1.0
 40
1.0
 10
273.0409325719
 20
1028.9220032524
 30
0.0
 10
273.0792429266
 20
1028.8251788173
 30
0.0
 10
273.0993127232
 20
1028.7192508085
 30
0.0
 10
273.0993127232
 20
1028.6151227408
 30
0.0
  0
SPLINE
  5
466
330
21D
100
AcDbEntity
  8
0
  6
Continuous
 62
     7
100
AcDbSpline
210
0.0
220
0.0
230
1.0
 70
     8
 71
     3
 72
     8
 73
     4
 74
     0
 42
0.0000000001
 43
0.0000000001
 40
0.0
 40
0.0
 40
0.0
 40
0.0
 40
1.0
 40
1.0
 40
1.0
 40
1.0
 10
189.4712885848
 20
1007.9095456075
 30
0.0
 10
189.4930752583
 20
1007.8801102108
 30
0.0
 10
189.5114077017
 20
1007.8481710978
 30
0.0
 10
189.5338818949
 20
1007.8192572194
 30
0.0
  0
SPLINE
  5
467
330
21D
100
AcDbEntity
  8
0
  6
Continuous
 62
     7
100
AcDbSpline
210
0.0
220
0.0
230
1.0
 70
     8
 71
     3
 72
     8
 73
     4
 74
     0
 42
0.0000000001
 43
0.0000000001
 40
0.0
 40
0.0
 40
0.0
 40
0.0
 40
1.0
 40
1.0
 40
1.0
 40
1.0
 10
189.7617737826
 20
1007.8192572194
 30
0.0
 10
189.7845583181
 20
1007.8529082374
 30
0.0
 10
189.8042589897
 20
1007.8887085329
 30
0.0
 10
189.8288447065
 20
1007.9210669722
 30
0.0
  0
LINE
  5
468
330
21D
100
AcDbEntity
  8
0
  6
Continuous
 62
     7
100
AcDbLine
 10
192.0181176171
 20
1005.0870141386
 30
0.0
 11
192.0302448937
 21
1005.0693173804
 31
0.0
1001
ACAD
1000
RTMaterial
1005
0
  0
LINE
  5
469
330
21D
100
AcDbEntity
  8
0
  6
Continuous
 62
     7
100
AcDbLine
 10
187.1900376175
 20
1005.0693173804
 30
0.0
 11
187.202096629
 21
1005.0866322211
 31
0.0
1001
ACAD
1000
RTMaterial
1005
0
  0
SPLINE
  5
46A
330
21D
100
AcDbEntity
  8
0
  6
Continuous
 62
     7
100
AcDbSpline
210
0.0
220
0.0
230
1.0
 70
     8
 71
     3
 72
    11
 73
     7
 74
     0
 42
0.0000000001
 43
0.0000000001
 40
0.0
 40
0.0
 40
0.0
 40
0.0
 40
0.247007022
 40
0.4961824546
 40
0.7472191175000001
 40
1.0
 40
1.0
 40
1.0
 40
1.0
 10
187.202096629
 20
1005.0866322211
 30
0.0
 10
187.3355149041
 20
1005.2779672239
 30
0.0
 10
187.6110545397
 20
1005.6569992621
 30
0.0
 10
188.0205810461
 20
1006.2316268732
 30
0.0
 10
188.4287245928
 20
1006.8139171653
 30
0.0
 10
188.7018093914
 20
1007.2035153756
 30
0.0
 10
188.8380793611
 20
1007.399508796
 30
0.0
  0
SPLINE
  5
46B
330
21D
100
AcDbEntity
  8
0
  6
Continuous
 62
     7
100
AcDbSpline
210
0.0
220
0.0
230
1.0
 70
     8
 71
     3
 72
     9
 73
     5
 74
     0
 42
0.0000000001
 43
0.0000000001
 40
0.0
 40
0.0
 40
0.0
 40
0.0
 40
0.4999184618000001
 40
1.0
 40
1.0
 40
1.0
 40
1.0
 10
114.1576928745
 20
1028.9220032524
 30
0.0
 10
114.2148848659
 20
1029.0693811033
 30
0.0
 10
114.4174366565
 20
1029.3386317542
 30
0.0
 10
114.741175245
 20
1029.4425393585
 30
0.0
 10
114.8993127232
 20
1029.4425393585
 30
0.0
  0
SPLINE
  5
46C
330
21D
100
AcDbEntity
  8
0
  6
Continuous
 62
     7
100
AcDbSpline
210
0.0
220
0.0
230
1.0
 70
     8
 71
     3
 72
     9
 73
     5
 74
     0
 42
0.0000000001
 43
0.0000000001
 40
0.0
 40
0.0
 40
0.0
 40
0.0
 40
0.5000811754
 40
1.0
 40
1.0
 40
1.0
 40
1.0
 10
272.2993127232
 20
1029.4425393585
 30
0.0
 10
272.4574500871
 20
1029.4425393585
 30
0.0
 10
272.7811886653
 20
1029.3386318518
 30
0.0
 10
272.9837405387
 20
1029.0693812107
 30
0.0
 10
273.0409325719
 20
1028.9220032524
 30
0.0
  0
SPLINE
  5
46D
330
21D
100
AcDbEntity
  8
0
  6
Continuous
 62
     7
100
AcDbSpline
210
0.0
220
0.0
230
1.0
 70
     8
 71
     3
 72
     8
 73
     4
 74
     0
 42
0.0000000001
 43
0.0000000001
 40
0.0
 40
0.0
 40
0.0
 40
0.0
 40
1.0
 40
1.0
 40
1.0
 40
1.0
 10
189.5352811492
 20
1007.0549941749
 30
0.0
 10
189.5093598295
 20
1007.0180003689
 30
0.0
 10
189.4809532114
 20
1006.9826144284
 30
0.0
 10
189.457669176
 20
1006.9439064164
 30
0.0
  0
SPLINE
  5
46E
330
21D
100
AcDbEntity
  8
0
  6
Continuous
 62
     7
100
AcDbSpline
210
0.0
220
0.0
230
1.0
 70
     8
 71
     3
 72
     9
 73
     5
 74
     0
 42
0.0000000001
 43
0.0000000001
 40
0.0
 40
0.0
 40
0.0
 40
0.0
 40
0.2525199057
 40
1.0
 40
1.0
 40
1.0
 40
1.0
 10
189.457669176
 20
1006.9439064164
 30
0.0
 10
189.3594165776
 20
1006.7876532075
 30
0.0
 10
188.9689414584
 20
1006.16975496
 30
0.0
 10
188.5763465637
 20
1005.5531610579
 30
0.0
 10
188.2780044967
 20
1005.0954442193
 30
0.0
  0
SPLINE
  5
46F
330
21D
100
AcDbEntity
  8
0
  6
Continuous
 62
     7
100
AcDbSpline
210
0.0
220
0.0
230
1.0
 70
     8
 71
     3
 72
     9
 73
     5
 74
     0
 42
0.0000000001
 43
0.0000000001
 40
0.0
 40
0.0
 40
0.0
 40
0.0
 40
0.4965950034000001
 40
1.0
 40
1.0
 40
1.0
 40
1.0
 10
191.0071101315
 20
1005.0693173804
 30
0.0
 10
190.8087218914
 20
1005.3703668386
 30
0.0
 10
190.4214506807
 20
1005.9845591617
 30
0.0
 10
190.0335920534999
 20
1006.5982741725
 30
0.0
 10
189.8398521739
 20
1006.9081824508
 30
0.0
  0
SPLINE
  5
470
330
21D
100
AcDbEntity
  8
0
  6
Continuous
 62
     7
100
AcDbSpline
210
0.0
220
0.0
230
1.0
 70
     8
 71
     3
 72
     8
 73
     4
 74
     0
 42
0.0000000001
 43
0.0000000001
 40
0.0
 40
0.0
 40
0.0
 40
0.0
 40
1.0
 40
1.0
 40
1.0
 40
1.0
 10
189.8398521739
 20
1006.9081824508
 30
0.0
 10
189.8185168495
 20
1006.9436070631
 30
0.0
 10
189.7943044709
 20
1006.9772237544
 30
0.0
 10
189.7722215482
 20
1007.0121872175
 30
0.0
  0
SPLINE
  5
471
330
21D
100
AcDbEntity
  8
0
  6
Continuous
 62
     7
100
AcDbSpline
210
0.0
220
0.0
230
1.0
 70
     8
 71
     3
 72
     8
 73
     4
 74
     0
 42
0.0000000001
 43
0.0000000001
 40
0.0
 40
0.0
 40
0.0
 40
0.0
 40
1.0
 40
1.0
 40
1.0
 40
1.0
 10
189.5352811492
 20
1007.0291046807
 30
0.0
 10
189.5093597475
 20
1006.9921094472
 30
0.0
 10
189.4809530738
 20
1006.9567219856
 30
0.0
 10
189.457669176
 20
1006.9180124716
 30
0.0
  0
SPLINE
  5
472
330
21D
100
AcDbEntity
  8
0
  6
Continuous
 62
     7
100
AcDbSpline
210
0.0
220
0.0
230
1.0
 70
     8
 71
     3
 72
     9
 73
     5
 74
     0
 42
0.0000000001
 43
0.0000000001
 40
0.0
 40
0.0
 40
0.0
 40
0.0
 40
0.2525029086
 40
1.0
 40
1.0
 40
1.0
 40
1.0
 10
189.457669176
 20
1006.9180124716
 30
0.0
 10
189.3594175477
 20
1006.7617538193
 30
0.0
 10
188.9689254616
 20
1006.1437889026
 30
0.0
 10
188.5763356696
 20
1005.527114508
 30
0.0
 10
188.2780044967
 20
1005.0693173804
 30
0.0
  0
SPLINE
  5
473
330
21D
100
AcDbEntity
  8
0
  6
Continuous
 62
     7
100
AcDbSpline
210
0.0
220
0.0
230
1.0
 70
     8
 71
     3
 72
     9
 73
     5
 74
     0
 42
0.0000000001
 43
0.0000000001
 40
0.0
 40
0.0
 40
0.0
 40
0.0
 40
0.4965714189
 40
1.0
 40
1.0
 40
1.0
 40
1.0
 10
191.0071101315
 20
1005.0954442193
 30
0.0
 10
190.8087198652
 20
1005.3964329621
 30
0.0
 10
190.4214371259999
 20
1006.0105409746
 30
0.0
 10
190.0335900299
 20
1006.6241859091
 30
0.0
 10
189.8398521739
 20
1006.9340768391
 30
0.0
  0
SPLINE
  5
474
330
21D
100
AcDbEntity
  8
0
  6
Continuous
 62
     7
100
AcDbSpline
210
0.0
220
0.0
230
1.0
 70
     8
 71
     3
 72
     9
 73
     5
 74
     0
 42
0.0000000001
 43
0.0000000001
 40
0.0
 40
0.0
 40
0.0
 40
0.0
 40
0.4998489833
 40
1.0
 40
1.0
 40
1.0
 40
1.0
 10
273.4952545044
 20
1005.7473528613
 30
0.0
 10
273.4952545044
 20
1005.5986006322
 30
0.0
 10
273.563838573
 20
1005.2972608932
 30
0.0
 10
273.7571902247
 20
1005.056086923
 30
0.0
 10
273.8738244959
 20
1004.9636184352
 30
0.0
  0
SPLINE
  5
475
330
21D
100
AcDbEntity
  8
0
  6
Continuous
 62
     7
100
AcDbSpline
210
0.0
220
0.0
230
1.0
 70
     8
 71
     3
 72
     9
 73
     5
 74
     0
 42
0.0000000001
 43
0.0000000001
 40
0.0
 40
0.0
 40
0.0
 40
0.0
 40
0.4997436489
 40
1.0
 40
1.0
 40
1.0
 40
1.0
 10
273.524405922
 20
1005.7473528613
 30
0.0
 10
273.524405922
 20
1005.6055198983
 30
0.0
 10
273.5867606823
 20
1005.3185237614
 30
0.0
 10
273.7629486659
 20
1005.0834754923
 30
0.0
 10
273.8703584936
 20
1004.9906260663
 30
0.0
  0
SPLINE
  5
476
330
21D
100
AcDbEntity
  8
0
  6
Continuous
 62
     7
100
AcDbSpline
210
0.0
220
0.0
230
1.0
 70
     8
 71
     3
 72
    18
 73
    14
 74
     0
 42
0.0000000001
 43
0.0000000001
 40
0.0
 40
0.0
 40
0.0
 40
0.0
 40
0.0054731169
 40
0.0200887775
 40
0.0440115655
 40
0.0771150379
 40
0.1190720001
 40
0.169470188
 40
0.2937408344000001
 40
0.4450617414
 40
0.6177073569
 40
0.8052939830999999
 40
1.0
 40
1.0
 40
1.0
 40
1.0
 10
273.4952545044
 20
1005.7473528613
 30
0.0
 10
273.4897742853
 20
1005.7473259977
 30
0.0
 10
273.4856831158
 20
1005.7190563954
 30
0.0
 10
273.4777589575
 20
1005.6834177782
 30
0.0
 10
273.4715230477
 20
1005.6076001921
 30
0.0
 10
273.464240343
 20
1005.5106400583
 30
0.0
 10
273.4575883146
 20
1005.3844692251
 30
0.0
 10
273.4482388506001
 20
1005.1680908043
 30
0.0
 10
273.4383731748
 20
1004.8416033627
 30
0.0
 10
273.4289772207
 20
1004.3929597573
 30
0.0
 10
273.4219999677
 20
1003.8807518843
 30
0.0
 10
273.4176528723
 20
1003.3251101823
 30
0.0
 10
273.4166724952999
 20
1002.9423138805
 30
0.0
 10
273.4166967397
 20
1002.7473528613
 30
0.0
  0
SPLINE
  5
477
330
21D
100
AcDbEntity
  8
0
  6
Continuous
 62
     9
100
AcDbSpline
210
0.0
220
0.0
230
1.0
 70
     8
 71
     3
 72
    11
 73
     7
 74
     0
 42
0.0000000001
 43
0.0000000001
 40
0.0
 40
0.0
 40
0.0
 40
0.0
 40
0.0958841124
 40
0.2953140372
 40
0.5993611499
 40
1.0
 40
1.0
 40
1.0
 40
1.0
 10
273.4191644398
 20
998.7116961705
 30
0.0
 10
273.4217479453
 20
998.7210809116
 30
0.0
 10
273.4542898415
 20
998.7351496907999
 30
0.0
 10
273.5092692922
 20
998.7500528253001
 30
0.0
 10
273.601949651
 20
998.7652091642999
 30
0.0
 10
273.6724312519
 20
998.77308099
 30
0.0
 10
273.7129137959
 20
998.7769978338999
 30
0.0
  0
SPLINE
  5
478
330
21D
100
AcDbEntity
  8
0
  6
Continuous
 62
     9
100
AcDbSpline
210
0.0
220
0.0
230
1.0
 70
     8
 71
     3
 72
     9
 73
     5
 74
     0
 42
0.0000000001
 43
0.0000000001
 40
0.0
 40
0.0
 40
0.0
 40
0.0
 40
0.3732413913
 40
1.0
 40
1.0
 40
1.0
 40
1.0
 10
273.5492649622
 20
1006.433067147
 30
0.0
 10
273.5532119498
 20
1006.3831404971
 30
0.0
 10
273.6632420974
 20
1006.2744231611
 30
0.0
 10
273.7870421619
 20
1006.2324883855
 30
0.0
 10
273.8675882167
 20
1006.2082987609
 30
0.0
  0
SPLINE
  5
479
330
21D
100
AcDbEntity
  8
0
  6
Continuous
 62
     9
100
AcDbSpline
210
0.0
220
0.0
230
1.0
 70
     8
 71
     3
 72
     9
 73
     5
 74
     0
 42
0.0000000001
 43
0.0000000001
 40
0.0
 40
0.0
 40
0.0
 40
0.0
 40
0.49909203
 40
1.0
 40
1.0
 40
1.0
 40
1.0
 10
273.1400104417
 20
1030.6460079256
 30
0.0
 10
273.1407083759
 20
1030.8997683798
 30
0.0
 10
273.3558606951
 20
1031.4282828821
 30
0.0
 10
273.8849839886
 20
1031.6398365258
 30
0.0
 10
274.1396677667
 20
1031.640529821
 30
0.0
  0
SPLINE
  5
47A
330
21D
100
AcDbEntity
  8
0
  6
Continuous
 62
     9
100
AcDbSpline
210
0.0
220
0.0
230
1.0
 70
     8
 71
     3
 72
     9
 73
     5
 74
     0
 42
0.0000000001
 43
0.0000000001
 40
0.0
 40
0.0
 40
0.0
 40
0.0
 40
0.4990922552000001
 40
1.0
 40
1.0
 40
1.0
 40
1.0
 10
273.002603433
 20
1031.1975278916
 30
0.0
 10
273.0033013672001
 20
1031.4512884621
 30
0.0
 10
273.218453802
 20
1031.9798030001
 30
0.0
 10
273.7475770926
 20
1032.1913564923
 30
0.0
 10
274.0022607579
 20
1032.1920497869
 30
0.0
  0
SPLINE
  5
47C
330
21D
100
AcDbEntity
  8
0
  6
Continuous
 62
     9
100
AcDbSpline
210
0.0
220
0.0
230
1.0
 70
     8
 71
     3
 72
    11
 73
     7
 74
     0
 42
0.0000000001
 43
0.0000000001
 40
0.0
 40
0.0
 40
0.0
 40
0.0
 40
0.3669081974
 40
0.6573672951000001
 40
0.8686755296999999
 40
1.0
 40
1.0
 40
1.0
 40
1.0
 10
14.2911089598
 20
1030.7768768725
 30
0.0
 10
14.3225250532
 20
1031.1296333255
 30
0.0
 10
14.3849793099
 20
1031.7608687677
 30
0.0
 10
14.4915555909
 20
1032.5936304645
 30
0.0
 10
14.6020626506
 20
1033.1931207846
 30
0.0
 10
14.6882482611
 20
1033.5161316335
 30
0.0
 10
14.7448057989
 20
1033.6295736117
 30
0.0
  0
SPLINE
  5
47D
330
21D
100
AcDbEntity
  8
0
  6
Continuous
 62
     9
100
AcDbSpline
210
0.0
220
0.0
230
1.0
 70
     8
 71
     3
 72
    11
 73
     7
 74
     0
 42
0.0000000001
 43
0.0000000001
 40
0.0
 40
0.0
 40
0.0
 40
0.0
 40
0.1313255596
 40
0.3426341336
 40
0.6330927967000001
 40
1.0
 40
1.0
 40
1.0
 40
1.0
 10
372.4538196475
 20
1033.6295736117
 30
0.0
 10
372.5103750418
 20
1033.5161358281
 30
0.0
 10
372.5965586847
 20
1033.1931388901
 30
0.0
 10
372.7070626239
 20
1032.5936750679
 30
0.0
 10
372.8136364765
 20
1031.7609526516
 30
0.0
 10
372.8760893388
 20
1031.1297474086
 30
0.0
 10
372.9075047729
 20
1030.7770080216
 30
0.0
  0
SPLINE
  5
47E
330
21D
100
AcDbEntity
  8
0
  6
Continuous
 62
     9
100
AcDbSpline
210
0.0
220
0.0
230
1.0
 70
     8
 71
     3
 72
     9
 73
     5
 74
     0
 42
0.0000000001
 43
0.0000000001
 40
0.0
 40
0.0
 40
0.0
 40
0.0
 40
0.2719368280999999
 40
1.0
 40
1.0
 40
1.0
 40
1.0
 10
274.7296140826
 20
1116.0688077554
 30
0.0
 10
274.6488570748
 20
1116.0733775796
 30
0.0
 10
274.3519327685
 20
1116.0909419868
 30
0.0
 10
274.0551773569
 20
1116.1116041586
 30
0.0
 10
273.8393577585
 20
1116.129479764
 30
0.0
  0
LINE
  5
47F
330
21D
100
AcDbEntity
  8
0
  6
Continuous
 62
     9
100
AcDbLine
 10
273.8393577585
 20
1116.129479764
 30
0.0
 11
273.8113608834999
 21
1116.1318155733
 31
0.0
1001
ACAD
1000
RTMaterial
1005
0
  0
SPLINE
  5
480
330
21D
100
AcDbEntity
  8
0
  6
Continuous
 62
     9
100
AcDbSpline
210
0.0
220
0.0
230
1.0
 70
     8
 71
     3
 72
     9
 73
     5
 74
     0
 42
0.0000000001
 43
0.0000000001
 40
0.0
 40
0.0
 40
0.0
 40
0.0
 40
0.2682685865
 40
1.0
 40
1.0
 40
1.0
 40
1.0
 10
273.8113608834999
 20
1116.1318155733
 30
0.0
 10
273.7737245465
 20
1116.1349786014
 30
0.0
 10
273.6334614036
 20
1116.1471195793
 30
0.0
 10
273.4933177367
 20
1116.1606990962
 30
0.0
 10
273.3909037916
 20
1116.171848501
 30
0.0
  0
SPLINE
  5
481
330
21D
100
AcDbEntity
  8
0
  6
Continuous
 62
     9
100
AcDbSpline
210
0.0
220
0.0
230
1.0
 70
     8
 71
     3
 72
    11
 73
     7
 74
     0
 42
0.0000000001
 43
0.0000000001
 40
0.0
 40
0.0
 40
0.0
 40
0.0
 40
0.4196693658
 40
0.7258929373000001
 40
0.9165465087999999
 40
1.0
 40
1.0
 40
1.0
 40
1.0
 10
273.3909037916
 20
1116.171848501
 30
0.0
 10
273.2763301941
 20
1116.1843216795
 30
0.0
 10
273.0809601163
 20
1116.2072667674
 30
0.0
 10
272.8246903639
 20
1116.2529121813
 30
0.0
 10
272.6848789806
 20
1116.2872436761
 30
0.0
 10
272.5993064523
 20
1116.3307596165
 30
0.0
 10
272.5993127232
 20
1116.3536778022
 30
0.0
  0
SPLINE
  5
482
330
21D
100
AcDbEntity
  8
0
  6
Continuous
 62
     9
100
AcDbSpline
210
0.0
220
0.0
230
1.0
 70
     8
 71
     3
 72
    11
 73
     7
 74
     0
 42
0.0000000001
 43
0.0000000001
 40
0.0
 40
0.0
 40
0.0
 40
0.0
 40
0.083453507
 40
0.2741070477
 40
0.5803306193
 40
1.0
 40
1.0
 40
1.0
 40
1.0
 10
339.5993127232
 20
1116.3536778022
 30
0.0
 10
339.599318961
 20
1116.3307596121
 30
0.0
 10
339.5137464904
 20
1116.2872436893
 30
0.0
 10
339.3739350671
 20
1116.2529121703
 30
0.0
 10
339.1176653406
 20
1116.2072667716
 30
0.0
 10
338.9222952506
 20
1116.1843216799
 30
0.0
 10
338.8077216485
 20
1116.1718485012
 30
0.0
  0
SPLINE
  5
483
330
21D
100
AcDbEntity
  8
0
  6
Continuous
 62
     9
100
AcDbSpline
210
0.0
220
0.0
230
1.0
 70
     8
 71
     3
 72
     9
 73
     5
 74
     0
 42
0.0000000001
 43
0.0000000001
 40
0.0
 40
0.0
 40
0.0
 40
0.0
 40
0.2176524599
 40
1.0
 40
1.0
 40
1.0
 40
1.0
 10
338.6238349608
 20
1116.1530571451
 30
0.0
 10
338.5412270317
 20
1116.1451145952
 30
0.0
 10
338.1614190829
 20
1116.1114052564
 30
0.0
 10
337.7808734862
 20
1116.0865448909
 30
0.0
 10
337.4830529839
 20
1116.069604396
 30
0.0
  0
SPLINE
  5
484
330
21D
100
AcDbEntity
  8
0
  6
Continuous
 62
     9
100
AcDbSpline
210
0.0
220
0.0
230
1.0
 70
     8
 71
     3
 72
    11
 73
     7
 74
     0
 42
0.0000000001
 43
0.0000000001
 40
0.0
 40
0.0
 40
0.0
 40
0.0
 40
0.1288733734
 40
0.3399404315
 40
0.6313498949000001
 40
1.0
 40
1.0
 40
1.0
 40
1.0
 10
274.1396677667
 20
1031.640529821
 30
0.0
 10
274.164154791
 20
1031.536856254
 30
0.0
 10
274.1991985661
 20
1031.2572188261
 30
0.0
 10
274.2458940464
 20
1030.7378319117
 30
0.0
 10
274.2902447619
 20
1030.0188647227
 30
0.0
 10
274.316544562
 20
1029.473951317
 30
0.0
 10
274.3297504227
 20
1029.1695130569
 30
0.0
  0
SPLINE
  5
485
330
21D
100
AcDbEntity
  8
0
  6
Continuous
 62
     9
100
AcDbSpline
210
0.0
220
0.0
230
1.0
 70
     8
 71
     3
 72
     9
 73
     5
 74
     0
 42
0.0000000001
 43
0.0000000001
 40
0.0
 40
0.0
 40
0.0
 40
0.0
 40
0.3842631116
 40
1.0
 40
1.0
 40
1.0
 40
1.0
 10
370.456560578
 20
1031.640529821
 30
0.0
 10
370.5131703725
 20
1031.5375539293
 30
0.0
 10
370.6005405207
 20
1031.2403995879
 30
0.0
 10
370.6610906
 20
1030.9418498481
 30
0.0
 10
370.6934148613
 20
1030.7563482998
 30
0.0
  0
SPLINE
  5
486
330
21D
100
AcDbEntity
  8
0
  6
Continuous
 62
     9
100
AcDbSpline
210
0.0
220
0.0
230
1.0
 70
     8
 71
     3
 72
     9
 73
     5
 74
     0
 42
0.0000000001
 43
0.0000000001
 40
0.0
 40
0.0
 40
0.0
 40
0.0
 40
0.2719368280999999
 40
1.0
 40
1.0
 40
1.0
 40
1.0
 10
49.7296140826
 20
1116.0688077554
 30
0.0
 10
49.6488570748
 20
1116.0733775796
 30
0.0
 10
49.3519327685
 20
1116.0909419868
 30
0.0
 10
49.0551773569
 20
1116.1116041586
 30
0.0
 10
48.8393577585
 20
1116.129479764
 30
0.0
  0
LINE
  5
487
330
21D
100
AcDbEntity
  8
0
  6
Continuous
 62
     9
100
AcDbLine
 10
48.8393577585
 20
1116.129479764
 30
0.0
 11
48.8113608835
 21
1116.1318155733
 31
0.0
1001
ACAD
1000
RTMaterial
1005
0
  0
SPLINE
  5
488
330
21D
100
AcDbEntity
  8
0
  6
Continuous
 62
     9
100
AcDbSpline
210
0.0
220
0.0
230
1.0
 70
     8
 71
     3
 72
     9
 73
     5
 74
     0
 42
0.0000000001
 43
0.0000000001
 40
0.0
 40
0.0
 40
0.0
 40
0.0
 40
0.2682685865
 40
1.0
 40
1.0
 40
1.0
 40
1.0
 10
48.8113608835
 20
1116.1318155733
 30
0.0
 10
48.7737245465
 20
1116.1349786014
 30
0.0
 10
48.6334614036
 20
1116.1471195793
 30
0.0
 10
48.4933177367
 20
1116.1606990962
 30
0.0
 10
48.39090379159999
 20
1116.171848501
 30
0.0
  0
SPLINE
  5
489
330
21D
100
AcDbEntity
  8
0
  6
Continuous
 62
     9
100
AcDbSpline
210
0.0
220
0.0
230
1.0
 70
     8
 71
     3
 72
    11
 73
     7
 74
     0
 42
0.0000000001
 43
0.0000000001
 40
0.0
 40
0.0
 40
0.0
 40
0.0
 40
0.4196693658
 40
0.7258929373000001
 40
0.9165465087999999
 40
1.0
 40
1.0
 40
1.0
 40
1.0
 10
48.39090379159999
 20
1116.171848501
 30
0.0
 10
48.2763301941
 20
1116.1843216795
 30
0.0
 10
48.08096011629999
 20
1116.2072667674
 30
0.0
 10
47.8246903639
 20
1116.2529121813
 30
0.0
 10
47.6848789806
 20
1116.2872436761
 30
0.0
 10
47.59930645229999
 20
1116.3307596165
 30
0.0
 10
47.59931272319999
 20
1116.3536778022
 30
0.0
  0
SPLINE
  5
48A
330
21D
100
AcDbEntity
  8
0
  6
Continuous
 62
     9
100
AcDbSpline
210
0.0
220
0.0
230
1.0
 70
     8
 71
     3
 72
    11
 73
     7
 74
     0
 42
0.0000000001
 43
0.0000000001
 40
0.0
 40
0.0
 40
0.0
 40
0.0
 40
0.083453507
 40
0.2741070477
 40
0.5803306193
 40
1.0
 40
1.0
 40
1.0
 40
1.0
 10
89.5993127232
 20
1116.3536778022
 30
0.0
 10
89.599318961
 20
1116.3307596121
 30
0.0
 10
89.51374649040001
 20
1116.2872436893
 30
0.0
 10
89.3739350671
 20
1116.2529121703
 30
0.0
 10
89.11766534059999
 20
1116.2072667716
 30
0.0
 10
88.92229525060001
 20
1116.1843216799
 30
0.0
 10
88.8077216485
 20
1116.1718485012
 30
0.0
  0
SPLINE
  5
48B
330
21D
100
AcDbEntity
  8
0
  6
Continuous
 62
     9
100
AcDbSpline
210
0.0
220
0.0
230
1.0
 70
     8
 71
     3
 72
     9
 73
     5
 74
     0
 42
0.0000000001
 43
0.0000000001
 40
0.0
 40
0.0
 40
0.0
 40
0.0
 40
0.2176524599
 40
1.0
 40
1.0
 40
1.0
 40
1.0
 10
88.62383496079999
 20
1116.1530571451
 30
0.0
 10
88.5412270317
 20
1116.1451145952
 30
0.0
 10
88.16141908290001
 20
1116.1114052564
 30
0.0
 10
87.78087348620001
 20
1116.0865448909
 30
0.0
 10
87.48305298389999
 20
1116.069604396
 30
0.0
  0
SPLINE
  5
48C
330
21D
100
AcDbEntity
  8
0
  6
Continuous
 62
     9
100
AcDbSpline
210
0.0
220
0.0
230
1.0
 70
     8
 71
     3
 72
    10
 73
     6
 74
     0
 42
0.0000000001
 43
0.0000000001
 40
0.0
 40
0.0
 40
0.0
 40
0.0
 40
0.1367970179
 40
0.349922543
 40
1.0
 40
1.0
 40
1.0
 40
1.0
 10
114.0586150047
 20
1030.6460079256
 30
0.0
 10
114.0395214419
 20
1030.5692609255
 30
0.0
 10
114.0096651333
 20
1030.3686534891
 30
0.0
 10
113.9492602881
 20
1029.7939495898
 30
0.0
 10
113.9197618313
 20
1029.2953830191
 30
0.0
 10
113.8993252655
 20
1028.9201098523
 30
0.0
  0
SPLINE
  5
48D
330
21D
100
AcDbEntity
  8
0
  6
Continuous
 62
     9
100
AcDbSpline
210
0.0
220
0.0
230
1.0
 70
     8
 71
     3
 72
     9
 73
     5
 74
     0
 42
0.0000000001
 43
0.0000000001
 40
0.0
 40
0.0
 40
0.0
 40
0.0
 40
0.2178262294
 40
1.0
 40
1.0
 40
1.0
 40
1.0
 10
113.8993252655
 20
1028.9201098523
 30
0.0
 10
113.8912782639
 20
1028.772344136
 30
0.0
 10
113.8569500223
 20
1028.093836671
 30
0.0
 10
113.8309622331
 20
1027.414931037
 30
0.0
 10
113.8129688338
 20
1026.8838501551
 30
0.0
  0
SPLINE
  5
48E
330
21D
100
AcDbEntity
  8
0
  6
Continuous
 62
     9
100
AcDbSpline
210
0.0
220
0.0
230
1.0
 70
     8
 71
     3
 72
     9
 73
     5
 74
     0
 42
0.0000000001
 43
0.0000000001
 40
0.0
 40
0.0
 40
0.0
 40
0.0
 40
0.3491273304
 40
1.0
 40
1.0
 40
1.0
 40
1.0
 10
114.2153678283
 20
1031.3717638276
 30
0.0
 10
114.2139427549
 20
1031.3514060966
 30
0.0
 10
114.2089976141
 20
1031.2932674997
 30
0.0
 10
114.2053403389
 20
1031.2344145709
 30
0.0
 10
114.1960220134
 20
1031.1975278916
 30
0.0
  0
SPLINE
  5
48F
330
21D
100
AcDbEntity
  8
0
  6
Continuous
 62
     9
100
AcDbSpline
210
0.0
220
0.0
230
1.0
 70
     8
 71
     3
 72
     9
 73
     5
 74
     0
 42
0.0000000001
 43
0.0000000001
 40
0.0
 40
0.0
 40
0.0
 40
0.0
 40
0.3490846169
 40
1.0
 40
1.0
 40
1.0
 40
1.0
 10
272.983259444
 20
1031.3717146857
 30
0.0
 10
272.984676455
 20
1031.3513645605
 30
0.0
 10
272.9895713941
 20
1031.2932303851
 30
0.0
 10
272.9934515267
 20
1031.2344479273
 30
0.0
 10
273.002603433
 20
1031.1975278916
 30
0.0
  0
SPLINE
  5
490
330
21D
100
AcDbEntity
  8
0
  6
Continuous
 62
     9
100
AcDbSpline
210
0.0
220
0.0
230
1.0
 70
     8
 71
     3
 72
    16
 73
    12
 74
     0
 42
0.0000000001
 43
0.0000000001
 40
0.0
 40
0.0
 40
0.0
 40
0.0
 40
0.0139670118
 40
0.0361836649
 40
0.0665152151
 40
0.1047020164
 40
0.2033036653
 40
0.3286179761
 40
0.4763283388000001
 40
0.6413330291000001
 40
1.0
 40
1.0
 40
1.0
 40
1.0
 10
273.1400104417
 20
1030.6460079256
 30
0.0
 10
273.1612046953
 20
1030.5608151681
 30
0.0
 10
273.193241378
 20
1030.334999108
 30
0.0
 10
273.2351879266
 20
1029.9192899722
 30
0.0
 10
273.2757088355
 20
1029.3502244143
 30
0.0
 10
273.334177533
 20
1028.3014735889
 30
0.0
 10
273.397253786
 20
1026.6550887789
 30
0.0
 10
273.4600534556
 20
1024.3200853196
 30
0.0
 10
273.5109828909
 20
1021.5672872018
 30
0.0
 10
273.5621071854
 20
1017.3476188457
 30
0.0
 10
273.5750923043
 20
1014.0560325805
 30
0.0
 10
273.5736718864
 20
1011.8016348214
 30
0.0
  0
LINE
  5
491
330
21D
100
AcDbEntity
  8
0
  6
Continuous
 62
     9
100
AcDbLine
 10
273.5736718864
 20
1011.8016348214
 30
0.0
 11
273.5736367481
 21
1011.74898124
 31
0.0
1001
ACAD
1000
RTMaterial
1005
0
  0
SPLINE
  5
492
330
21D
100
AcDbEntity
  8
0
  6
Continuous
 62
     9
100
AcDbSpline
210
0.0
220
0.0
230
1.0
 70
     8
 71
     3
 72
    14
 73
    10
 74
     0
 42
0.0000000001
 43
0.0000000001
 40
0.0
 40
0.0
 40
0.0
 40
0.0
 40
0.4031200628000001
 40
0.5756009644
 40
0.7227940331
 40
0.8412050481000001
 40
0.9281071560999999
 40
0.9812801002
 40
1.0
 40
1.0
 40
1.0
 40
1.0
 10
273.5492649622
 20
1006.433067147
 30
0.0
 10
273.5484644084
 20
1006.340770557
 30
0.0
 10
273.546861505
 20
1006.2088459039
 30
0.0
 10
273.5430719271
 20
1006.0437168044
 30
0.0
 10
273.5403781821
 20
1005.9427231416
 30
0.0
 10
273.5362059903
 20
1005.8640547358
 30
0.0
 10
273.5347074732
 20
1005.8003320257
 30
0.0
 10
273.5277499772
 20
1005.7724915314
 30
0.0
 10
273.5286913158
 20
1005.7472704079
 30
0.0
 10
273.524405922
 20
1005.7473528613
 30
0.0
  0
LINE
  5
493
330
21D
100
AcDbEntity
  8
0
  6
Continuous
 62
     9
100
AcDbLine
 10
273.4191644398
 20
998.7116961705
 30
0.0
 11
273.4215857348
 21
997.7355675283
 31
0.0
1001
ACAD
1000
RTMaterial
1005
0
  0
SPLINE
  5
494
330
21D
100
AcDbEntity
  8
0
  6
Continuous
 62
     9
100
AcDbSpline
210
0.0
220
0.0
230
1.0
 70
     8
 71
     3
 72
     8
 73
     4
 74
     0
 42
0.0000000001
 43
0.0000000001
 40
0.0
 40
0.0
 40
0.0
 40
0.0
 40
1.0
 40
1.0
 40
1.0
 40
1.0
 10
89.5993127232
 20
1116.3536778022
 30
0.0
 10
89.43480575629999
 20
1116.3536778022
 30
0.0
 10
89.2657465603
 20
1116.310214133
 30
0.0
 10
89.1210308045
 20
1116.2319843932
 30
0.0
  0
SPLINE
  5
497
330
21D
100
AcDbEntity
  8
0
  6
Continuous
 62
     9
100
AcDbSpline
210
0.0
220
0.0
230
1.0
 70
     8
 71
     3
 72
    11
 73
     7
 74
     0
 42
0.0000000001
 43
0.0000000001
 40
0.0
 40
0.0
 40
0.0
 40
0.0
 40
0.249309604
 40
0.4993047392000001
 40
0.7496994085999999
 40
1.0
 40
1.0
 40
1.0
 40
1.0
 10
15.0198083863
 20
1034.1810935777
 30
0.0
 10
15.0212261064
 20
1033.9230068301
 30
0.0
 10
15.1276867613
 20
1033.4011281001
 30
0.0
 10
15.5728779121
 20
1032.7420371719
 30
0.0
 10
16.2346723052
 20
1032.2992230234
 30
0.0
 10
16.7579547684
 20
1032.1934614575
 30
0.0
 10
17.0170674558
 20
1032.1920497869
 30
0.0
  0
SPLINE
  5
498
330
21D
100
AcDbEntity
  8
0
  6
Continuous
 62
     9
100
AcDbSpline
210
0.0
220
0.0
230
1.0
 70
     8
 71
     3
 72
    11
 73
     7
 74
     0
 42
0.0000000001
 43
0.0000000001
 40
0.0
 40
0.0
 40
0.0
 40
0.0
 40
0.2493427155
 40
0.4993305047
 40
0.7497096253
 40
1.0
 40
1.0
 40
1.0
 40
1.0
 10
14.7448057989
 20
1033.6295736117
 30
0.0
 10
14.7462237068
 20
1033.3714526686
 30
0.0
 10
14.8527115343
 20
1032.8495471709
 30
0.0
 10
15.2979316197
 20
1032.1904668491
 30
0.0
 10
15.9597074878
 20
1031.7476904802
 30
0.0
 10
16.4829628394
 20
1031.6419414334
 30
0.0
 10
16.7420648684
 20
1031.640529821
 30
0.0
  0
SPLINE
  5
49A
330
21D
100
AcDbEntity
  8
0
  6
Continuous
 62
     9
100
AcDbSpline
210
0.0
220
0.0
230
1.0
 70
     8
 71
     3
 72
    11
 73
     7
 74
     0
 42
0.0000000001
 43
0.0000000001
 40
0.0
 40
0.0
 40
0.0
 40
0.0
 40
0.2493096073
 40
0.4993047325
 40
0.7496994097
 40
1.0
 40
1.0
 40
1.0
 40
1.0
 10
372.17881706
 20
1034.1810935777
 30
0.0
 10
372.1773993399
 20
1033.9230068267
 30
0.0
 10
372.0709386846
 20
1033.4011281034
 30
0.0
 10
371.6257475362001
 20
1032.742037175
 30
0.0
 10
370.9639531471
 20
1032.2992230238
 30
0.0
 10
370.4406706768
 20
1032.1934614575
 30
0.0
 10
370.1815579905
 20
1032.1920497869
 30
0.0
  0
SPLINE
  5
49B
330
21D
100
AcDbEntity
  8
0
  6
Continuous
 62
     9
100
AcDbSpline
210
0.0
220
0.0
230
1.0
 70
     8
 71
     3
 72
    11
 73
     7
 74
     0
 42
0.0000000001
 43
0.0000000001
 40
0.0
 40
0.0
 40
0.0
 40
0.0
 40
0.2493427223
 40
0.4993305143
 40
0.7497096305
 40
1.0
 40
1.0
 40
1.0
 40
1.0
 10
372.4538196475
 20
1033.6295736117
 30
0.0
 10
372.4524017395
 20
1033.3714526616
 30
0.0
 10
372.3459139053
 20
1032.8495471539
 30
0.0
 10
371.9006938095
 20
1032.1904668324
 30
0.0
 10
371.2389179430001
 20
1031.7476904746
 30
0.0
 10
370.7156626015
 20
1031.6419414334
 30
0.0
 10
370.456560578
 20
1031.640529821
 30
0.0
  0
SPLINE
  5
49C
330
21D
100
AcDbEntity
  8
0
  6
Continuous
 62
     9
100
AcDbSpline
210
0.0
220
0.0
230
1.0
 70
     8
 71
     3
 72
     8
 73
     4
 74
     0
 42
0.0000000001
 43
0.0000000001
 40
0.0
 40
0.0
 40
0.0
 40
0.0
 40
1.0
 40
1.0
 40
1.0
 40
1.0
 10
47.59931272319999
 20
1116.3536778022
 30
0.0
 10
47.7637899468
 20
1116.3536778022
 30
0.0
 10
47.9328169727
 20
1116.3102306152
 30
0.0
 10
48.0775137384
 20
1116.2320282937
 30
0.0
  0
SPLINE
  5
49D
330
21D
100
AcDbEntity
  8
0
  6
Continuous
 62
     9
100
AcDbSpline
210
0.0
220
0.0
230
1.0
 70
     8
 71
     3
 72
     8
 73
     4
 74
     0
 42
0.0000000001
 43
0.0000000001
 40
0.0
 40
0.0
 40
0.0
 40
0.0
 40
1.0
 40
1.0
 40
1.0
 40
1.0
 10
339.5993127232
 20
1116.3536778022
 30
0.0
 10
339.4348057563
 20
1116.3536778022
 30
0.0
 10
339.2657465603
 20
1116.310214133
 30
0.0
 10
339.1210308045
 20
1116.2319843932
 30
0.0
  0
SPLINE
  5
49E
330
21D
100
AcDbEntity
  8
0
  6
Continuous
 62
     9
100
AcDbSpline
210
0.0
220
0.0
230
1.0
 70
     8
 71
     3
 72
     8
 73
     4
 74
     0
 42
0.0000000001
 43
0.0000000001
 40
0.0
 40
0.0
 40
0.0
 40
0.0
 40
1.0
 40
1.0
 40
1.0
 40
1.0
 10
272.5993127232
 20
1116.3536778022
 30
0.0
 10
272.7637899468
 20
1116.3536778022
 30
0.0
 10
272.9328169727
 20
1116.3102306152
 30
0.0
 10
273.0775137384
 20
1116.2320282937
 30
0.0
  0
SPLINE
  5
4A0
330
21D
100
AcDbEntity
  8
0
  6
Continuous
 62
     9
100
AcDbSpline
210
0.0
220
0.0
230
1.0
 70
     8
 71
     3
 72
     9
 73
     5
 74
     0
 42
0.0000000001
 43
0.0000000001
 40
0.0
 40
0.0
 40
0.0
 40
0.0
 40
0.3770431279999999
 40
1.0
 40
1.0
 40
1.0
 40
1.0
 10
113.0589576797
 20
1031.640529821
 30
0.0
 10
113.0333474978
 20
1031.5321022798
 30
0.0
 10
112.9974018182
 20
1031.2378730117
 30
0.0
 10
112.9712052835
 20
1030.9438818551
 30
0.0
 10
112.9574209729
 20
1030.7603235869
 30
0.0
  0
LINE
  5
4A1
330
21D
100
AcDbEntity
  8
0
  6
Continuous
 62
     9
100
AcDbLine
 10
112.9574209729
 20
1030.7603235869
 30
0.0
 11
112.9544668876
 21
1030.7205598401
 31
0.0
1001
ACAD
1000
RTMaterial
1005
0
  0
SPLINE
  5
4A2
330
21D
100
AcDbEntity
  8
0
  6
Continuous
 62
     7
100
AcDbSpline
210
0.0
220
0.0
230
1.0
 70
     8
 71
     3
 72
     9
 73
     5
 74
     0
 42
0.0000000001
 43
0.0000000001
 40
0.0
 40
0.0
 40
0.0
 40
0.0
 40
0.2787288747
 40
1.0
 40
1.0
 40
1.0
 40
1.0
 10
272.6920862506
 20
1029.3393751049
 30
0.0
 10
272.7059080133
 20
1029.3396703419
 30
0.0
 10
272.7554958856
 20
1029.340744502
 30
0.0
 10
272.8050843364
 20
1029.3419126323
 30
0.0
 10
272.8408365965
 20
1029.3431866618
 30
0.0
  0
SPLINE
  5
4A3
330
21D
100
AcDbEntity
  8
0
  6
Continuous
 62
     7
100
AcDbSpline
210
0.0
220
0.0
230
1.0
 70
     8
 71
     3
 72
    10
 73
     6
 74
     0
 42
0.0000000001
 43
0.0000000001
 40
0.0
 40
0.0
 40
0.0
 40
0.0
 40
0.7177568696
 40
0.9151083662999999
 40
1.0
 40
1.0
 40
1.0
 40
1.0
 10
272.8408365965
 20
1029.3431866618
 30
0.0
 10
272.8750755161
 20
1029.3444067636
 30
0.0
 10
272.9199591286
 20
1029.3448142953
 30
0.0
 10
272.9654146418
 20
1029.3520440885
 30
0.0
 10
272.9803083316
 20
1029.3525461566
 30
0.0
 10
272.9832580988
 20
1029.3553243961
 30
0.0
  0
SPLINE
  5
4A4
330
21D
100
AcDbEntity
  8
0
  6
Continuous
 62
     7
100
AcDbSpline
210
0.0
220
0.0
230
1.0
 70
     8
 71
     3
 72
    11
 73
     7
 74
     0
 42
0.0000000001
 43
0.0000000001
 40
0.0
 40
0.0
 40
0.0
 40
0.0
 40
0.0801087068
 40
0.2782964558
 40
0.5882321743
 40
1.0
 40
1.0
 40
1.0
 40
1.0
 10
114.2153673476
 20
1029.3553243961
 30
0.0
 10
114.2210426068
 20
1029.3499791508
 30
0.0
 10
114.2518238414
 20
1029.3524242129
 30
0.0
 10
114.3056600772
 20
1029.3438559644
 30
0.0
 10
114.396832774
 20
1029.3420312202
 30
0.0
 10
114.4664721898
 20
1029.3385771501
 30
0.0
 10
114.5065280924
 20
1029.3374005457
 30
0.0
  0
SPLINE
  5
4A5
330
21D
100
AcDbEntity
  8
0
  6
Continuous
 62
     9
100
AcDbSpline
210
0.0
220
0.0
230
1.0
 70
     8
 71
     3
 72
     9
 73
     5
 74
     0
 42
0.0000000001
 43
0.0000000001
 40
0.0
 40
0.0
 40
0.0
 40
0.0
 40
0.6157345512
 40
1.0
 40
1.0
 40
1.0
 40
1.0
 10
16.5052188031
 20
1030.7563954628
 30
0.0
 10
16.5375420656
 20
1030.9418864997
 30
0.0
 10
16.5980902717
 20
1031.2404205259
 30
0.0
 10
16.6854576603
 20
1031.5375586796
 30
0.0
 10
16.7420648684
 20
1031.640529821
 30
0.0
  0
SPLINE
  5
4A6
330
21D
100
AcDbEntity
  8
0
  6
Continuous
 62
     9
100
AcDbSpline
210
0.0
220
0.0
230
1.0
 70
     8
 71
     3
 72
     9
 73
     5
 74
     0
 42
0.0000000001
 43
0.0000000001
 40
0.0
 40
0.0
 40
0.0
 40
0.0
 40
0.5004366046000001
 40
1.0
 40
1.0
 40
1.0
 40
1.0
 10
113.0589576797
 20
1031.640529821
 30
0.0
 10
113.2409089611
 20
1031.6400345168
 30
0.0
 10
113.6113063721
 20
1031.5363242647
 30
0.0
 10
113.8710973216
 20
1031.2519460385
 30
0.0
 10
113.9523290564
 20
1031.0894883965
 30
0.0
  0
SPLINE
  5
4A7
330
21D
100
AcDbEntity
  8
0
  6
Continuous
 62
     9
100
AcDbSpline
210
0.0
220
0.0
230
1.0
 70
     8
 71
     3
 72
     8
 73
     4
 74
     0
 42
0.0000000001
 43
0.0000000001
 40
0.0
 40
0.0
 40
0.0
 40
0.0
 40
1.0
 40
1.0
 40
1.0
 40
1.0
 10
113.9523290564
 20
1031.0894883965
 30
0.0
 10
114.0203132977
 20
1030.9535247914
 30
0.0
 10
114.0581969147
 20
1030.7980203731
 30
0.0
 10
114.0586150047
 20
1030.6460079256
 30
0.0
  0
SPLINE
  5
4A8
330
21D
100
AcDbEntity
  8
0
  6
Continuous
 62
     9
100
AcDbSpline
210
0.0
220
0.0
230
1.0
 70
     8
 71
     3
 72
     9
 73
     5
 74
     0
 42
0.0000000001
 43
0.0000000001
 40
0.0
 40
0.0
 40
0.0
 40
0.0
 40
0.5009077448000001
 40
1.0
 40
1.0
 40
1.0
 40
1.0
 10
113.1963646884
 20
1032.1920497869
 30
0.0
 10
113.4510483537
 20
1032.1913564923
 30
0.0
 10
113.9801716443
 20
1031.9798030001
 30
0.0
 10
114.1953240791
 20
1031.4512884621
 30
0.0
 10
114.1960220134
 20
1031.1975278916
 30
0.0
  0
SPLINE
  5
4AA
330
21D
100
AcDbEntity
  8
0
  6
Continuous
 62
     7
100
AcDbSpline
210
0.0
220
0.0
230
1.0
 70
     8
 71
     3
 72
    11
 73
     7
 74
     0
 42
0.0000000001
 43
0.0000000001
 40
0.0
 40
0.0
 40
0.0
 40
0.0
 40
0.2499769321
 40
0.4999357915
 40
0.7499349453000001
 40
1.0
 40
1.0
 40
1.0
 40
1.0
 10
114.3558831119
 20
999.1348102097999
 30
0.0
 10
114.4507469426
 20
998.4273685174999
 30
0.0
 10
114.9000867726
 20
997.0341114066
 30
0.0
 10
116.2626199945
 20
995.3242038404999
 30
0.0
 10
118.1382500096
 20
994.1999516863001
 30
0.0
 10
119.5793893685
 20
993.9399583295999
 30
0.0
 10
120.2934146624
 20
993.9401558952001
 30
0.0
  0
SPLINE
  5
4AB
330
21D
100
AcDbEntity
  8
0
  6
Continuous
 62
     7
100
AcDbSpline
210
0.0
220
0.0
230
1.0
 70
     8
 71
     3
 72
     8
 73
     4
 74
     0
 42
0.0000000001
 43
0.0000000001
 40
0.0
 40
0.0
 40
0.0
 40
0.0
 40
1.0
 40
1.0
 40
1.0
 40
1.0
 10
120.2934146624
 20
993.9401558952001
 30
0.0
 10
169.4973467026
 20
993.9403433755
 30
0.0
 10
218.7012787438
 20
993.9403433755
 30
0.0
 10
267.9052107839
 20
993.9401558952001
 30
0.0
  0
SPLINE
  5
4AC
330
21D
100
AcDbEntity
  8
7_ALL_FEATURES
  6
Continuous
 62
     9
100
AcDbSpline
210
0.0
220
0.0
230
1.0
 70
     8
 71
     3
 72
     8
 73
     4
 74
     0
 42
0.0000000001
 43
0.0000000001
 40
0.0
 40
0.0
 40
0.0
 40
0.0
 40
1.0
 40
1.0
 40
1.0
 40
1.0
 10
378.1795682811
 20
717.6952980464
 30
0.0
 10
378.1691218326999
 20
716.8125871397998
 30
0.0
 10
378.1587010154
 20
715.9298758159
 30
0.0
 10
378.1477173257
 20
715.0471714308999
 30
0.0
  0
SPLINE
  5
4AD
330
21D
100
AcDbEntity
  8
7_ALL_FEATURES
  6
Continuous
 62
     9
100
AcDbSpline
210
0.0
220
0.0
230
1.0
 70
     8
 71
     3
 72
    15
 73
    11
 74
     0
 42
0.0000000001
 43
0.0000000001
 40
0.0
 40
0.0
 40
0.0
 40
0.0
 40
0.1249500341
 40
0.2499051785
 40
0.3748699557
 40
0.4998490249
 40
0.6248470082999999
 40
0.7498685414000001
 40
0.8749154487999998
 40
1.0
 40
1.0
 40
1.0
 40
1.0
 10
378.1477173257
 20
715.0471714308999
 30
0.0
 10
378.0145390529
 20
704.3443053099
 30
0.0
 10
375.8745616172
 20
682.9151318926999
 30
0.0
 10
367.1622731477
 20
651.8466244246
 30
0.0
 10
353.2075661885
 20
622.7396924506999
 30
0.0
 10
334.4290165148
 20
596.4831940439999
 30
0.0
 10
311.3904085081
 20
573.8650184917999
 30
0.0
 10
284.7798483729
 20
555.5685602951999
 30
0.0
 10
255.4088924301
 20
542.1482490869
 30
0.0
 10
234.5481572758
 20
536.7212188928999
 30
0.0
 10
223.9832522585
 20
534.9327343323999
 30
0.0
  0
SPLINE
  5
4AF
330
21D
100
AcDbEntity
  8
0
  6
Continuous
 62
     9
100
AcDbSpline
210
0.0
220
0.0
230
1.0
 70
     8
 71
     3
 72
    12
 73
     8
 74
     0
 42
0.0000000001
 43
0.0000000001
 40
0.0
 40
0.0
 40
0.0
 40
0.0
 40
0.0133553019
 40
0.0656626404
 40
0.2794400018
 40
0.6091758471000001
 40
1.0
 40
1.0
 40
1.0
 40
1.0
 10
114.3559248416
 20
999.1348158460999
 30
0.0
 10
114.3600776424
 20
999.133170512
 30
0.0
 10
114.3174223789
 20
999.1213166367
 30
0.0
 10
114.2638423964
 20
999.1133616042001
 30
0.0
 10
114.0279818095
 20
999.0708150345
 30
0.0
 10
113.7399981683
 20
999.0303691047
 30
0.0
 10
113.4952438574
 20
998.9954784614999
 30
0.0
 10
113.3657073187
 20
998.9779543941001
 30
0.0
  0
SPLINE
  5
4B0
330
21D
100
AcDbEntity
  8
0
  6
Continuous
 62
     9
100
AcDbSpline
210
0.0
220
0.0
230
1.0
 70
     8
 71
     3
 72
    11
 73
     7
 74
     0
 42
0.0000000001
 43
0.0000000001
 40
0.0
 40
0.0
 40
0.0
 40
0.0
 40
0.0643711802
 40
0.2783537654
 40
0.6088627151
 40
1.0
 40
1.0
 40
1.0
 40
1.0
 10
273.0119187841999
 20
996.7979020922999
 30
0.0
 10
272.9902941139
 20
996.7999405536
 30
0.0
 10
273.162373177
 20
996.6987135064
 30
0.0
 10
273.2407803471
 20
996.6335482552999
 30
0.0
 10
273.5574239073
 20
996.4403848164998
 30
0.0
 10
273.7503664412
 20
996.3195051717999
 30
0.0
 10
273.8629373444
 20
996.2506101419998
 30
0.0
  0
LINE
  5
4B1
330
21D
100
AcDbEntity
  8
0
  6
Continuous
 62
     9
100
AcDbLine
 10
120.2933056586
 20
992.9197880894999
 30
0.0
 11
267.9053197878
 21
992.9197880894999
 31
0.0
1001
ACAD
1000
RTMaterial
1005
0
  0
LINE
  5
4BD
330
21D
100
AcDbEntity
  8
7_ALL_FEATURES
  6
Continuous
 62
     9
100
AcDbLine
 10
380.1663934814
 20
717.7131466569999
 30
0.0
 11
380.133856294
 21
715.06813913
 31
0.0
1001
ACAD
1000
RTMaterial
1005
0
  0
LINE
  5
4BE
330
21D
100
AcDbEntity
  8
7_ALL_FEATURES
  6
Continuous
 62
     9
100
AcDbLine
 10
8.0647691713
 20
715.0681391218999
 30
0.0
 11
8.0322319835
 21
717.7131466488
 31
0.0
1001
ACAD
1000
RTMaterial
1005
0
  0
SPLINE
  5
4BF
330
21D
100
AcDbEntity
  8
0
  6
Continuous
 62
     9
100
AcDbSpline
210
0.0
220
0.0
230
1.0
 70
     8
 71
     3
 72
    14
 73
    10
 74
     0
 42
0.0000000001
 43
0.0000000001
 40
0.0
 40
0.0
 40
0.0
 40
0.0
 40
0.0201361527
 40
0.0700003943
 40
0.1510437492
 40
0.2630144826
 40
0.4050677135000001
 40
0.5761761073000001
 40
1.0
 40
1.0
 40
1.0
 40
1.0
 10
112.7028073564
 20
1030.7471640071
 30
0.0
 10
112.7333802574
 20
1030.7471380427
 30
0.0
 10
112.7785591062
 20
1030.6125262259
 30
0.0
 10
112.8215045442
 20
1030.4180336671
 30
0.0
 10
112.8733366376
 20
1030.035980377
 30
0.0
 10
112.9221462595999
 20
1029.5367738286
 30
0.0
 10
112.9713755754
 20
1028.8903864363
 30
0.0
 10
113.0389565222
 20
1027.7747250441
 30
0.0
 10
113.0783533548
 20
1026.8716504128
 30
0.0
 10
113.1028668454
 20
1026.2286216485
 30
0.0
  0
SPLINE
  5
4C0
330
21D
100
AcDbEntity
  8
0
  6
Continuous
 62
     9
100
AcDbSpline
210
0.0
220
0.0
230
1.0
 70
     8
 71
     3
 72
     9
 73
     5
 74
     0
 42
0.0000000001
 43
0.0000000001
 40
0.0
 40
0.0
 40
0.0
 40
0.0
 40
0.4505430901
 40
1.0
 40
1.0
 40
1.0
 40
1.0
 10
113.1028668454
 20
1026.2286216485
 30
0.0
 10
113.185544422
 20
1024.0598542158
 30
0.0
 10
113.2859922482
 20
1019.2431985956
 30
0.0
 10
113.3157840008
 20
1014.4260448368
 30
0.0
 10
113.3135867235
 20
1011.7792182633
 30
0.0
  0
SPLINE
  5
4C2
330
21D
100
AcDbEntity
  8
0
  6
Continuous
 62
     9
100
AcDbSpline
210
0.0
220
0.0
230
1.0
 70
     8
 71
     3
 72
    14
 73
    10
 74
     0
 42
0.0000000001
 43
0.0000000001
 40
0.0
 40
0.0
 40
0.0
 40
0.0
 40
0.0201320535
 40
0.0770962556
 40
0.1693214614
 40
0.2935663745
 40
0.4449728220000001
 40
0.6183490957
 40
1.0
 40
1.0
 40
1.0
 40
1.0
 10
114.3030726307
 20
999.9410390341001
 30
0.0
 10
114.3026708683
 20
999.934333835
 30
0.0
 10
114.263496341
 20
999.9391024244001
 30
0.0
 10
114.2197857409
 20
999.9275009086
 30
0.0
 10
114.1217005697
 20
999.9277466556
 30
0.0
 10
114.0019084241
 20
999.9224933930001
 30
0.0
 10
113.8510653759
 20
999.9202366883
 30
0.0
 10
113.6158162525
 20
999.9171074360001
 30
0.0
 10
113.4304418697
 20
999.9165058364999
 30
0.0
 10
113.3031009671
 20
999.9166183231
 30
0.0
  0
SPLINE
  5
4C3
330
21D
100
AcDbEntity
  8
7_ALL_FEATURES
  6
Continuous
 62
     9
100
AcDbSpline
210
0.0
220
0.0
230
1.0
 70
     8
 71
     3
 72
    15
 73
    11
 74
     0
 42
0.0000000001
 43
0.0000000001
 40
0.0
 40
0.0
 40
0.0
 40
0.0
 40
0.1249508916
 40
0.2499063015
 40
0.3748712213
 40
0.4998503066
 40
0.6248481641
 40
0.7498694334
 40
0.8749159268000001
 40
1.0
 40
1.0
 40
1.0
 40
1.0
 10
380.1338961958
 20
715.0681562388
 30
0.0
 10
379.9956666518
 20
704.250520976
 30
0.0
 10
377.8335938662999
 20
682.5919070538
 30
0.0
 10
369.0279111817
 20
651.1899777048
 30
0.0
 10
354.9239763898
 20
621.7708551607
 30
0.0
 10
335.9441919328
 20
595.2327695049
 30
0.0
 10
312.6586560589
 20
572.3721135754
 30
0.0
 10
285.7628741274
 20
553.8795141052999
 30
0.0
 10
256.0770945805
 20
540.3155349083
 30
0.0
 10
234.9928568881
 20
534.8300437665
 30
0.0
 10
224.3147070578
 20
533.0225347017
 30
0.0
  0
SPLINE
  5
4C4
330
21D
100
AcDbEntity
  8
0
  6
Continuous
 62
     9
100
AcDbSpline
210
0.0
220
0.0
230
1.0
 70
     8
 71
     3
 72
     9
 73
     5
 74
     0
 42
0.0000000001
 43
0.0000000001
 40
0.0
 40
0.0
 40
0.0
 40
0.0
 40
0.5494828144000001
 40
1.0
 40
1.0
 40
1.0
 40
1.0
 10
274.8850387228
 20
1011.7792182633
 30
0.0
 10
274.8828403352
 20
1014.4266053779
 30
0.0
 10
274.9126460906
 20
1019.2445520173
 30
0.0
 10
275.0131302133
 20
1024.0620006965
 30
0.0
 10
275.0958492144
 20
1026.2309992055
 30
0.0
  0
SPLINE
  5
4C5
330
21D
100
AcDbEntity
  8
0
  6
Continuous
 62
     9
100
AcDbSpline
210
0.0
220
0.0
230
1.0
 70
     8
 71
     3
 72
    14
 73
    10
 74
     0
 42
0.0000000001
 43
0.0000000001
 40
0.0
 40
0.0
 40
0.0
 40
0.0
 40
0.4238197828
 40
0.5949252235
 40
0.7369761742000001
 40
0.8489462012
 40
0.9299910106
 40
0.9798587029
 40
1.0
 40
1.0
 40
1.0
 40
1.0
 10
275.0958492144
 20
1026.2309992055
 30
0.0
 10
275.120359269
 20
1026.8736843324
 30
0.0
 10
275.15974908
 20
1027.7762738649
 30
0.0
 10
275.2273152502
 20
1028.8913360917
 30
0.0
 10
275.2765312747
 20
1029.5373724852
 30
0.0
 10
275.3253301273
 20
1030.0363193882
 30
0.0
 10
275.3771426295
 20
1030.4181649243
 30
0.0
 10
275.4200857919
 20
1030.6125891644
 30
0.0
 10
275.4652421903
 20
1030.7471213728
 30
0.0
 10
275.4958068591
 20
1030.7471609151
 30
0.0
  0
SPLINE
  5
4C6
330
21D
100
AcDbEntity
  8
0
  6
Continuous
 62
     9
100
AcDbSpline
210
0.0
220
0.0
230
1.0
 70
     8
 71
     3
 72
    11
 73
     7
 74
     0
 42
0.0000000001
 43
0.0000000001
 40
0.0
 40
0.0
 40
0.0
 40
0.0
 40
0.0687087027
 40
0.2608611278000001
 40
0.5731207229000001
 40
1.0
 40
1.0
 40
1.0
 40
1.0
 10
114.313558423
 20
1011.803638924
 30
0.0
 10
114.3132926339
 20
1011.799210974
 30
0.0
 10
114.288086642
 20
1011.8007696949
 30
0.0
 10
114.2591369279
 20
1011.7934629119
 30
0.0
 10
114.1946438792
 20
1011.7923629533
 30
0.0
 10
114.1483940415
 20
1011.7897985954
 30
0.0
 10
114.1208498466
 20
1011.7888694876
 30
0.0
  0
SPLINE
  5
4C7
330
21D
100
AcDbEntity
  8
0
  6
Continuous
 62
     9
100
AcDbSpline
210
0.0
220
0.0
230
1.0
 70
     8
 71
     3
 72
     9
 73
     5
 74
     0
 42
0.0000000001
 43
0.0000000001
 40
0.0
 40
0.0
 40
0.0
 40
0.0
 40
0.1975496243
 40
1.0
 40
1.0
 40
1.0
 40
1.0
 10
114.1208498466
 20
1011.7888694876
 30
0.0
 10
114.0677167377
 20
1011.7870772264
 30
0.0
 10
113.7986762012
 20
1011.7804732899
 30
0.0
 10
113.5295371016
 20
1011.7790274987
 30
0.0
 10
113.3135867235
 20
1011.7792182633
 30
0.0
  0
SPLINE
  5
4C8
330
21D
100
AcDbEntity
  8
7_ALL_FEATURES
  6
Continuous
 62
     9
100
AcDbSpline
210
0.0
220
0.0
230
1.0
 70
     8
 71
     3
 72
    15
 73
    11
 74
     0
 42
0.0000000001
 43
0.0000000001
 40
0.0
 40
0.0
 40
0.0
 40
0.0
 40
0.1250845375
 40
0.2501318656
 40
0.3751536148
 40
0.5001515867000001
 40
0.6251305055
 40
0.7500950203
 40
0.8750498378999999
 40
1.0
 40
1.0
 40
1.0
 40
1.0
 10
163.8839183885
 20
533.0225347017
 30
0.0
 10
153.2057297312999
 20
534.8300546373999
 30
0.0
 10
132.1213804446
 20
540.3155702397
 30
0.0
 10
102.4354846993
 20
553.8796731331999
 30
0.0
 10
75.5396323919
 20
572.3723887891999
 30
0.0
 10
52.2541261672
 20
595.2331293769999
 30
0.0
 10
33.2744315347
 20
621.7712293478999
 30
0.0
 10
19.1706051436
 20
651.1902900729999
 30
0.0
 10
10.3650081326
 20
682.5920854662999
 30
0.0
 10
8.202957969399999
 20
704.2505842424
 30
0.0
 10
8.064729250499999
 20
715.0681562388
 30
0.0
  0
SPLINE
  5
4CA
330
21D
100
AcDbEntity
  8
0
  6
Continuous
 62
     9
100
AcDbSpline
210
0.0
220
0.0
230
1.0
 70
     8
 71
     3
 72
    14
 73
    10
 74
     0
 42
0.0000000001
 43
0.0000000001
 40
0.0
 40
0.0
 40
0.0
 40
0.0
 40
0.020132045
 40
0.0770963335
 40
0.1693217749
 40
0.2935670898
 40
0.444973668
 40
0.6183495705
 40
1.0
 40
1.0
 40
1.0
 40
1.0
 10
273.8850670107
 20
1011.8036389804
 30
0.0
 10
273.8854687306
 20
1011.7969337814
 30
0.0
 10
273.9246434114
 20
1011.8017024449
 30
0.0
 10
273.9683539857
 20
1011.7901008668
 30
0.0
 10
274.0664394833
 20
1011.7903466299
 30
0.0
 10
274.1862318554
 20
1011.7850933177
 30
0.0
 10
274.3370749733
 20
1011.782836577
 30
0.0
 10
274.572323866
 20
1011.7797072912
 30
0.0
 10
274.7576979764
 20
1011.779105718
 30
0.0
 10
274.8850387264
 20
1011.7792182128
 30
0.0
  0
SPLINE
  5
4CB
330
21D
100
AcDbEntity
  8
0
  6
Continuous
 62
     9
100
AcDbSpline
210
0.0
220
0.0
230
1.0
 70
     8
 71
     3
 72
    14
 73
    10
 74
     0
 42
0.0000000001
 43
0.0000000001
 40
0.0
 40
0.0
 40
0.0
 40
0.0
 40
0.020132706
 40
0.0770976517
 40
0.1693234145
 40
0.2935689947
 40
0.4449754489
 40
0.6183506552
 40
1.0
 40
1.0
 40
1.0
 40
1.0
 10
273.8955528287
 20
999.9410389901999
 30
0.0
 10
273.8959553207
 20
999.9343336167999
 30
0.0
 10
273.9351290269
 20
999.9391026684
 30
0.0
 10
273.9788416386
 20
999.9275008324
 30
0.0
 10
274.0769266675
 20
999.9277466877
 30
0.0
 10
274.1967195692
 20
999.9224933788999
 30
0.0
 10
274.3475623549
 20
999.9202366763
 30
0.0
 10
274.5828106628
 20
999.9171074007
 30
0.0
 10
274.7681841456
 20
999.9165058404999
 30
0.0
 10
274.8955245281
 20
999.9166183294001
 30
0.0
  0
SPLINE
  5
4CC
330
21D
100
AcDbEntity
  8
7_ALL_FEATURES
  6
Continuous
 62
     9
100
AcDbSpline
210
0.0
220
0.0
230
1.0
 70
     8
 71
     3
 72
    15
 73
    11
 74
     0
 42
0.0000000001
 43
0.0000000001
 40
0.0
 40
0.0
 40
0.0
 40
0.0
 40
0.1250850166
 40
0.250132757
 40
0.3751547697999999
 40
0.5001528677
 40
0.6251317705
 40
0.7500961427
 40
0.8750506951000001
 40
1.0
 40
1.0
 40
1.0
 40
1.0
 10
164.2153731879
 20
534.9327343323999
 30
0.0
 10
153.6504304433
 20
536.7212340789
 30
0.0
 10
132.7895845899
 20
542.1482846724
 30
0.0
 10
103.4185138445
 20
555.5687192385
 30
0.0
 10
76.8078834563
 20
573.8652908131999
 30
0.0
 10
53.7693052062
 20
596.4835505742
 30
0.0
 10
34.9908441939
 20
622.7400628345
 30
0.0
 10
21.0362444038
 20
651.8469335612
 30
0.0
 10
12.324040624
 20
682.9153084266001
 30
0.0
 10
10.1840855737
 20
704.3443679046999
 30
0.0
 10
10.0509081206
 20
715.0471714308999
 30
0.0
  0
SPLINE
  5
4CD
330
21D
100
AcDbEntity
  8
7_ALL_FEATURES
  6
Continuous
 62
     9
100
AcDbSpline
210
0.0
220
0.0
230
1.0
 70
     8
 71
     3
 72
     8
 73
     4
 74
     0
 42
0.0000000001
 43
0.0000000001
 40
0.0
 40
0.0
 40
0.0
 40
0.0
 40
1.0
 40
1.0
 40
1.0
 40
1.0
 10
10.0509081206
 20
715.0471714308999
 30
0.0
 10
10.0399244301
 20
715.9298758130001
 30
0.0
 10
10.0295045468
 20
716.8125871453
 30
0.0
 10
10.0190578814
 20
717.6952980464
 30
0.0
  0
SPLINE
  5
4CF
330
21D
100
AcDbEntity
  8
0
  6
Continuous
 62
     9
100
AcDbSpline
210
0.0
220
0.0
230
1.0
 70
     8
 71
     3
 72
     9
 73
     5
 74
     0
 42
0.0000000001
 43
0.0000000001
 40
0.0
 40
0.0
 40
0.0
 40
0.0
 40
0.2727059129
 40
1.0
 40
1.0
 40
1.0
 40
1.0
 10
17.9815192813
 20
1659.2387832584
 30
0.0
 10
17.8594678219
 20
1659.2447952532
 30
0.0
 10
17.4124852285
 20
1659.273141517
 30
0.0
 10
16.9651833452
 20
1659.3244387225
 30
0.0
 10
16.6471022071
 20
1659.3953990784
 30
0.0
  0
SPLINE
  5
4D0
330
21D
100
AcDbEntity
  8
0
  6
Continuous
 62
     9
100
AcDbSpline
210
0.0
220
0.0
230
1.0
 70
     8
 71
     3
 72
     9
 73
     5
 74
     0
 42
0.0000000001
 43
0.0000000001
 40
0.0
 40
0.0
 40
0.0
 40
0.0
 40
0.60987562
 40
1.0
 40
1.0
 40
1.0
 40
1.0
 10
16.6471022071
 20
1659.3953990784
 30
0.0
 10
16.4552096443
 20
1659.43820817
 30
0.0
 10
16.1474173208
 20
1659.5183972592
 30
0.0
 10
15.8635433599
 20
1659.7310535148
 30
0.0
 10
15.8182243477
 20
1659.8483715849
 30
0.0
  0
SPLINE
  5
4D1
330
21D
100
AcDbEntity
  8
0
  6
Continuous
 62
     9
100
AcDbSpline
210
0.0
220
0.0
230
1.0
 70
     8
 71
     3
 72
     9
 73
     5
 74
     0
 42
0.0000000001
 43
0.0000000001
 40
0.0
 40
0.0
 40
0.0
 40
0.0
 40
0.2413334431
 40
1.0
 40
1.0
 40
1.0
 40
1.0
 10
26.07535512110001
 20
1659.1023159544
 30
0.0
 10
25.8094869421
 20
1659.1202663135
 30
0.0
 10
24.7074105932
 20
1659.1880828702
 30
0.0
 10
23.6029798239
 20
1659.2203145612
 30
0.0
 10
22.765282004
 20
1659.2204349909
 30
0.0
  0
SPLINE
  5
4D2
330
21D
100
AcDbEntity
  8
0
  6
Continuous
 62
     9
100
AcDbSpline
210
0.0
220
0.0
230
1.0
 70
     8
 71
     3
 72
    11
 73
     7
 74
     0
 42
0.0000000001
 43
0.0000000001
 40
0.0
 40
0.0
 40
0.0
 40
0.0
 40
0.1558178009
 40
0.3723598234
 40
0.6572207287
 40
1.0
 40
1.0
 40
1.0
 40
1.0
 10
371.3804090766
 20
1659.8483686206
 30
0.0
 10
371.3505462772
 20
1659.7710828727
 30
0.0
 10
371.2053322759
 20
1659.6190953161
 30
0.0
 10
370.8842982161
 20
1659.4763441021
 30
0.0
 10
370.4480145192
 20
1659.3644350996
 30
0.0
 10
370.1173418048
 20
1659.3166594989
 30
0.0
 10
369.9362653714
 20
1659.2958398484
 30
0.0
  0
SPLINE
  5
4D3
330
21D
100
AcDbEntity
  8
0
  6
Continuous
 62
     9
100
AcDbSpline
210
0.0
220
0.0
230
1.0
 70
     8
 71
     3
 72
     9
 73
     5
 74
     0
 42
0.0000000001
 43
0.0000000001
 40
0.0
 40
0.0
 40
0.0
 40
0.0
 40
0.2369194832
 40
1.0
 40
1.0
 40
1.0
 40
1.0
 10
369.9362653714
 20
1659.2958398484
 30
0.0
 10
369.8193477980999
 20
1659.2823970001
 30
0.0
 10
369.3246930931
 20
1659.2358969712
 30
0.0
 10
368.8274726639
 20
1659.2204389761
 30
0.0
 10
368.4484185601001
 20
1659.2204349909
 30
0.0
  0
SPLINE
  5
4D4
330
21D
100
AcDbEntity
  8
0
  6
Continuous
 62
     9
100
AcDbSpline
210
0.0
220
0.0
230
1.0
 70
     8
 71
     3
 72
    10
 73
     6
 74
     0
 42
0.0000000001
 43
0.0000000001
 40
0.0
 40
0.0
 40
0.0
 40
0.0
 40
0.2016266564
 40
0.4438255357
 40
1.0
 40
1.0
 40
1.0
 40
1.0
 10
27.4549202711
 20
1657.02736706
 30
0.0
 10
27.1400656677
 20
1657.0561565522
 30
0.0
 10
26.4490449698
 20
1657.1402083253
 30
0.0
 10
24.8912609185
 20
1657.3174014564
 30
0.0
 10
23.6372828629
 20
1657.3778059959
 30
0.0
 10
22.765282004
 20
1657.3628101976
 30
0.0
  0
SPLINE
  5
4D5
330
21D
100
AcDbEntity
  8
0
  6
Continuous
 62
     9
100
AcDbSpline
210
0.0
220
0.0
230
1.0
 70
     8
 71
     3
 72
     9
 73
     5
 74
     0
 42
0.0000000001
 43
0.0000000001
 40
0.0
 40
0.0
 40
0.0
 40
0.0
 40
0.5276346935000001
 40
1.0
 40
1.0
 40
1.0
 40
1.0
 10
364.4333434424
 20
1657.3628101976
 30
0.0
 10
363.800108655
 20
1657.3737397443
 30
0.0
 10
362.5983553353
 20
1657.3397767209
 30
0.0
 10
361.4040890573
 20
1657.2149584658
 30
0.0
 10
360.8408967928
 20
1657.149458849
 30
0.0
  0
SPLINE
  5
4D6
330
21D
100
AcDbEntity
  8
0
  6
Continuous
 62
     9
100
AcDbSpline
210
0.0
220
0.0
230
1.0
 70
     8
 71
     3
 72
    13
 73
     9
 74
     0
 42
0.0000000001
 43
0.0000000001
 40
0.0
 40
0.0
 40
0.0
 40
0.0
 40
0.0954573493
 40
0.1866293053
 40
0.3077744532
 40
0.4555204958
 40
0.6245479206
 40
1.0
 40
1.0
 40
1.0
 40
1.0
 10
373.3978478083999
 20
1658.1970074493
 30
0.0
 10
373.4063806363
 20
1658.0340278107
 30
0.0
 10
373.0314854457
 20
1657.8260260964
 30
0.0
 10
372.5615512724
 20
1657.7028116856
 30
0.0
 10
371.9411603634
 20
1657.5880377191
 30
0.0
 10
371.2021232645
 20
1657.5040812727
 30
0.0
 10
370.0199618996
 20
1657.4110392406
 30
0.0
 10
369.0901872869
 20
1657.376188649999
 30
0.0
 10
368.4484185601001
 20
1657.3628101976
 30
0.0
  0
SPLINE
  5
4D7
330
21D
100
AcDbEntity
  8
0
  6
Continuous
 62
     9
100
AcDbSpline
210
0.0
220
0.0
230
1.0
 70
     8
 71
     3
 72
    13
 73
     9
 74
     0
 42
0.0000000001
 43
0.0000000001
 40
0.0
 40
0.0
 40
0.0
 40
0.0
 40
0.3754516286
 40
0.5444789669
 40
0.6922248164
 40
0.8133696760999999
 40
0.9045423505
 40
1.0
 40
1.0
 40
1.0
 40
1.0
 10
18.7502068863
 20
1657.3628101976
 30
0.0
 10
18.1084380663
 20
1657.3761810507
 30
0.0
 10
17.1786632019
 20
1657.4110467612
 30
0.0
 10
15.9965032881
 20
1657.5040900721
 30
0.0
 10
15.2574610098
 20
1657.5880169383
 30
0.0
 10
14.6370731845
 20
1657.7027878691
 30
0.0
 10
14.1671273158
 20
1657.8260239188
 30
0.0
 10
13.7922703708
 20
1658.034025780799
 30
0.0
 10
13.8007776379
 20
1658.1970074493
 30
0.0
  0
SPLINE
  5
4D8
330
21D
100
AcDbEntity
  8
0
  6
Continuous
 62
     9
100
AcDbSpline
210
0.0
220
0.0
230
1.0
 70
     8
 71
     3
 72
     9
 73
     5
 74
     0
 42
0.0000000001
 43
0.0000000001
 40
0.0
 40
0.0
 40
0.0
 40
0.0
 40
0.4924571729000001
 40
1.0
 40
1.0
 40
1.0
 40
1.0
 10
373.3976888442
 20
1658.1969991247
 30
0.0
 10
373.3788241076
 20
1658.5572039725
 30
0.0
 10
373.1017573276
 20
1659.29195304
 30
0.0
 10
372.4610167617
 20
1659.735289510499
 30
0.0
 10
372.1102745146
 20
1659.8584820638
 30
0.0
  0
SPLINE
  5
4D9
330
21D
100
AcDbEntity
  8
0
  6
Continuous
 62
     9
100
AcDbSpline
210
0.0
220
0.0
230
1.0
 70
     8
 71
     3
 72
     9
 73
     5
 74
     0
 42
0.0000000001
 43
0.0000000001
 40
0.0
 40
0.0
 40
0.0
 40
0.0
 40
0.4969171049
 40
1.0
 40
1.0
 40
1.0
 40
1.0
 10
13.8007935055
 20
1658.1970066184
 30
0.0
 10
13.8111106203
 20
1658.3940821351
 30
0.0
 10
13.8995283268
 20
1658.789891847999
 30
0.0
 10
14.1122797589
 20
1659.1346370532
 30
0.0
 10
14.2426746196
 20
1659.2860135682
 30
0.0
  0
SPLINE
  5
4DA
330
21D
100
AcDbEntity
  8
0
  6
Continuous
 62
     9
100
AcDbSpline
210
0.0
220
0.0
230
1.0
 70
     8
 71
     3
 72
     8
 73
     4
 74
     0
 42
0.0000000001
 43
0.0000000001
 40
0.0
 40
0.0
 40
0.0
 40
0.0
 40
1.0
 40
1.0
 40
1.0
 40
1.0
 10
14.4193254728
 20
1659.4656330054
 30
0.0
 10
14.6122753325
 20
1659.6376066498
 30
0.0
 10
14.8440327337
 20
1659.7727207976
 30
0.0
 10
15.0878797327
 20
1659.8584134098
 30
0.0
  0
SPLINE
  5
4DB
330
21D
100
AcDbEntity
  8
0
  6
Continuous
 62
     7
100
AcDbSpline
210
0.0
220
0.0
230
1.0
 70
     8
 71
     3
 72
     9
 73
     5
 74
     0
 42
0.0000000001
 43
0.0000000001
 40
0.0
 40
0.0
 40
0.0
 40
0.0
 40
0.5729161104000001
 40
1.0
 40
1.0
 40
1.0
 40
1.0
 10
267.9053197871
 20
1696.3914467545
 30
0.0
 10
269.0431684481
 20
1696.3913407939
 30
0.0
 10
271.0291749459
 20
1696.4021496295
 30
0.0
 10
273.0152245743
 20
1696.4334705664
 30
0.0
 10
273.8629090173
 20
1696.4635059921
 30
0.0
  0
SPLINE
  5
4DC
330
21D
100
AcDbEntity
  8
0
  6
Continuous
 62
     7
100
AcDbSpline
210
0.0
220
0.0
230
1.0
 70
     8
 71
     3
 72
     8
 73
     4
 74
     0
 42
0.0000000001
 43
0.0000000001
 40
0.0
 40
0.0
 40
0.0
 40
0.0
 40
1.0
 40
1.0
 40
1.0
 40
1.0
 10
120.2933056586
 20
1696.3914631733
 30
0.0
 10
169.4973100761
 20
1696.3968256068
 30
0.0
 10
218.7013153703
 20
1696.3968256068
 30
0.0
 10
267.9053197878
 20
1696.3914631733
 30
0.0
  0
LINE
  5
4DD
330
21D
100
AcDbEntity
  8
0
  6
Continuous
 62
     9
100
AcDbLine
 10
273.8646411944
 20
1696.3962951767
 30
0.0
 11
273.8629100997
 21
1696.4538316782
 31
0.0
1001
ACAD
1000
RTMaterial
1005
0
  0
SPLINE
  5
4DE
330
21D
100
AcDbEntity
  8
0
  6
Continuous
 62
     9
100
AcDbSpline
210
0.0
220
0.0
230
1.0
 70
     8
 71
     3
 72
     9
 73
     5
 74
     0
 42
0.0000000001
 43
0.0000000001
 40
0.0
 40
0.0
 40
0.0
 40
0.0
 40
0.2891765393
 40
1.0
 40
1.0
 40
1.0
 40
1.0
 10
273.9627247424
 20
1696.4580902724
 30
0.0
 10
274.0166575962
 20
1696.460465842999
 30
0.0
 10
274.2031382381
 20
1696.4691518093
 30
0.0
 10
274.3895632564
 20
1696.4795153765
 30
0.0
 10
274.5219001369
 20
1696.4893340861
 30
0.0
  0
SPLINE
  5
4DF
330
21D
100
AcDbEntity
  8
0
  6
Continuous
 62
     9
100
AcDbSpline
210
0.0
220
0.0
230
1.0
 70
     8
 71
     3
 72
    10
 73
     6
 74
     0
 42
0.0000000001
 43
0.0000000001
 40
0.0
 40
0.0
 40
0.0
 40
0.0
 40
0.7352569093000002
 40
0.9235487073999999
 40
1.0
 40
1.0
 40
1.0
 40
1.0
 10
274.6654960924
 20
1696.5013833316
 30
0.0
 10
274.7233123004999
 20
1696.5069504703
 30
0.0
 10
274.8016796472
 20
1696.515448598
 30
0.0
 10
274.8697925207
 20
1696.5304075979
 30
0.0
 10
274.8957929775
 20
1696.5405962669
 30
0.0
 10
274.8955245281
 20
1696.5466297756
 30
0.0
  0
SPLINE
  5
4E0
330
21D
100
AcDbEntity
  8
0
  6
Continuous
 62
     9
100
AcDbSpline
210
0.0
220
0.0
230
1.0
 70
     8
 71
     3
 72
     9
 73
     5
 74
     0
 42
0.0000000001
 43
0.0000000001
 40
0.0
 40
0.0
 40
0.0
 40
0.0
 40
0.2888917005
 40
1.0
 40
1.0
 40
1.0
 40
1.0
 10
113.3031009183
 20
1696.5466297756
 30
0.0
 10
113.3028114912
 20
1696.5400858542
 30
0.0
 10
113.3320050296
 20
1696.5299010483
 30
0.0
 10
113.3497751642
 20
1696.5258389931
 30
0.0
 10
113.3656188251
 20
1696.5228473038
 30
0.0
  0
SPLINE
  5
4E1
330
21D
100
AcDbEntity
  8
7_ALL_FEATURES
  6
Continuous
 62
     9
100
AcDbSpline
210
0.0
220
0.0
230
1.0
 70
     8
 71
     3
 72
    26
 73
    22
 74
     0
 42
0.0000000001
 43
0.0000000001
 40
0.0
 40
0.0
 40
0.0
 40
0.0
 40
0.2015105124
 40
0.3908590334
 40
0.4791816873000001
 40
0.5623712252000001
 40
0.6398040808
 40
0.7108989945000001
 40
0.775123533
 40
0.8319976269999999
 40
0.8810972929
 40
0.9220589201999999
 40
0.9393921010999999
 40
0.9545841769999999
 40
0.9676091506999998
 40
0.9784465839
 40
0.9870831218999999
 40
0.9935165457
 40
0.9977700310999999
 40
0.9991140253000001
 40
1.0
 40
1.0
 40
1.0
 40
1.0
 10
164.2153731879
 20
1684.7903106139
 30
0.0
 10
153.8454603198
 20
1684.8348538167
 30
0.0
 10
133.7316608745
 20
1684.9655276202
 30
0.0
 10
109.0737778806
 20
1685.245813482399
 30
0.0
 10
90.5056709798
 20
1685.5386543297
 30
0.0
 10
77.69690352800001
 20
1685.7820944828
 30
0.0
 10
65.77544601609999
 20
1686.052429539
 30
0.0
 10
54.8308533114
 20
1686.3474032504
 30
0.0
 10
44.9453470574
 20
1686.6646361726
 30
0.0
 10
36.1931004442
 20
1687.0013389878
 30
0.0
 10
28.639770397
 20
1687.3546886705
 30
0.0
 10
23.1221675911
 20
1687.6746771038
 30
0.0
 10
19.3499804919
 20
1687.9443418467
 30
0.0
 10
17.0138592523
 20
1688.1375126244
 30
0.0
 10
15.0132871741
 20
1688.3322217313
 30
0.0
 10
13.3525692896
 20
1688.5280625543
 30
0.0
 10
12.0323443591
 20
1688.722634908299
 30
0.0
 10
11.0586612587
 20
1688.9163303832
 30
0.0
 10
10.4577542279
 20
1689.0862110012
 30
0.0
 10
10.1609925469
 20
1689.236858406
 30
0.0
 10
10.0715825555
 20
1689.3166567771
 30
0.0
 10
10.0509081206
 20
1689.3572933717
 30
0.0
  0
LINE
  5
4E2
330
21D
100
AcDbEntity
  8
7_ALL_FEATURES
  6
Continuous
 62
     9
100
AcDbLine
 10
10.0509081206
 20
1689.3572933717
 30
0.0
 11
10.0190578814
 21
1689.4206573959
 31
0.0
1001
ACAD
1000
RTMaterial
1005
0
  0
LINE
  5
4E3
330
21D
100
AcDbEntity
  8
7_ALL_FEATURES
  6
Continuous
 62
     9
100
AcDbLine
 10
10.0190578814
 20
1689.4206573959
 30
0.0
 11
13.1622374826
 21
1689.436733503
 31
0.0
1001
ACAD
1000
RTMaterial
1005
0
  0
LINE
  5
4E4
330
21D
100
AcDbEntity
  8
7_ALL_FEATURES
  6
Continuous
 62
     9
100
AcDbLine
 10
375.0362510516001
 20
1689.4367341972
 30
0.0
 11
378.1795682811
 21
1689.4206573923
 31
0.0
1001
ACAD
1000
RTMaterial
1005
0
  0
LINE
  5
4E5
330
21D
100
AcDbEntity
  8
7_ALL_FEATURES
  6
Continuous
 62
     9
100
AcDbLine
 10
378.1795682811
 20
1689.4206573923
 30
0.0
 11
378.1477173257
 21
1689.3572933717
 31
0.0
1001
ACAD
1000
RTMaterial
1005
0
  0
SPLINE
  5
4E6
330
21D
100
AcDbEntity
  8
7_ALL_FEATURES
  6
Continuous
 62
     9
100
AcDbSpline
210
0.0
220
0.0
230
1.0
 70
     8
 71
     3
 72
    26
 73
    22
 74
     0
 42
0.0000000001
 43
0.0000000001
 40
0.0
 40
0.0
 40
0.0
 40
0.0
 40
0.0008859817
 40
0.002229989
 40
0.0064835198
 40
0.0129170133
 40
0.021553644
 40
0.0323911906
 40
0.0454162949
 40
0.0606085181
 40
0.0779418603
 40
0.1189038429
 40
0.1680038486
 40
0.2248782623
 40
0.2891030655
 40
0.360198146
 40
0.4376310556
 40
0.5208205417000001
 40
0.6091428199
 40
0.7984902155000001
 40
1.0
 40
1.0
 40
1.0
 40
1.0
 10
378.1477173257
 20
1689.3572933717
 30
0.0
 10
378.1270427138
 20
1689.3166564632
 30
0.0
 10
378.0376317227
 20
1689.2368575375
 30
0.0
 10
377.7408667725
 20
1689.0862092208
 30
0.0
 10
377.1399530885
 20
1688.9163276635
 30
0.0
 10
376.1662593304
 20
1688.7226311109
 30
0.0
 10
374.8460201913
 20
1688.528057747
 30
0.0
 10
373.1852849776
 20
1688.3322159813
 30
0.0
 10
371.1846927544
 20
1688.1375059776
 30
0.0
 10
368.8485488977
 20
1687.9443344382
 30
0.0
 10
365.0763276185
 20
1687.6746686559
 30
0.0
 10
359.5586807023
 20
1687.3546795826
 30
0.0
 10
352.0052984053
 20
1687.0013293414
 30
0.0
 10
343.2530041983
 20
1686.6646265225
 30
0.0
 10
333.3674592527
 20
1686.3473940492
 30
0.0
 10
322.4228415307
 20
1686.0524212471
 30
0.0
 10
310.5013753083
 20
1685.7820869125
 30
0.0
 10
297.6926270466
 20
1685.5386488366
 30
0.0
 10
279.1246000527999
 20
1685.2458094883
 30
0.0
 10
254.4668317347
 20
1684.9655272246
 30
0.0
 10
234.3531276698
 20
1684.8348534947
 30
0.0
 10
223.9832522585
 20
1684.7903106139
 30
0.0
  0
SPLINE
  5
4E7
330
21D
100
AcDbEntity
  8
7_ALL_FEATURES
  6
Continuous
 62
     9
100
AcDbSpline
210
0.0
220
0.0
230
1.0
 70
     8
 71
     3
 72
    10
 73
     6
 74
     0
 42
0.0000000001
 43
0.0000000001
 40
0.0
 40
0.0
 40
0.0
 40
0.0
 40
0.5533106131000001
 40
0.7939778615000001
 40
1.0
 40
1.0
 40
1.0
 40
1.0
 10
163.8839183885
 20
1682.8958571457
 30
0.0
 10
142.8467288448
 20
1682.985274758
 30
0.0
 10
112.6592520163
 20
1683.2380740975
 30
0.0
 10
74.64392679159999
 20
1683.9006112405
 30
0.0
 10
57.6653671138
 20
1684.3244307806
 30
0.0
 10
49.8359627673
 20
1684.5666950017
 30
0.0
  0
SPLINE
  5
4E8
330
21D
100
AcDbEntity
  8
7_ALL_FEATURES
  6
Continuous
 62
     9
100
AcDbSpline
210
0.0
220
0.0
230
1.0
 70
     8
 71
     3
 72
    19
 73
    15
 74
     0
 42
0.0000000001
 43
0.0000000001
 40
0.0
 40
0.0
 40
0.0
 40
0.0
 40
0.2229649167
 40
0.4198277172
 40
0.5893842404000001
 40
0.7306066782
 40
0.7903237962000001
 40
0.8426596054999999
 40
0.8875436304
 40
0.9249230483999999
 40
0.954768959
 40
0.9770928299999999
 40
0.9920027547
 40
1.0
 40
1.0
 40
1.0
 40
1.0
 10
45.41890441189999
 20
1684.7088716973
 30
0.0
 10
42.6296204261
 20
1684.8023031984
 30
0.0
 10
37.3780241051
 20
1684.991689649
 30
0.0
 10
30.0073864786
 20
1685.3074087136
 30
0.0
 10
23.661648465
 20
1685.6354994385
 30
0.0
 10
19.0332931071
 20
1685.9304024779
 30
0.0
 10
15.8727106068
 20
1686.1776496184
 30
0.0
 10
13.9160814924
 20
1686.3542618388
 30
0.0
 10
12.24104818
 20
1686.5319332144
 30
0.0
 10
10.8477473567
 20
1686.7102612003
 30
0.0
 10
9.7440317561
 20
1686.8874462824
 30
0.0
 10
8.9142598026
 20
1687.0633305759
 30
0.0
 10
8.3889284351
 20
1687.2302440367
 30
0.0
 10
8.111477155299999
 20
1687.374081032
 30
0.0
 10
8.064729250499999
 20
1687.4625961297
 30
0.0
  0
SPLINE
  5
4E9
330
21D
100
AcDbEntity
  8
7_ALL_FEATURES
  6
Continuous
 62
     9
100
AcDbSpline
210
0.0
220
0.0
230
1.0
 70
     8
 71
     3
 72
    19
 73
    15
 74
     0
 42
0.0000000001
 43
0.0000000001
 40
0.0
 40
0.0
 40
0.0
 40
0.0
 40
0.007956711
 40
0.0228437618
 40
0.0451576004
 40
0.0750037122
 40
0.1123917301
 40
0.1572910674
 40
0.2096471619
 40
0.2693876468
 40
0.4106576127000001
 40
0.580246349
 40
0.7771036764
 40
1.0
 40
1.0
 40
1.0
 40
1.0
 10
380.1338961958
 20
1687.4625961297
 30
0.0
 10
380.0864755836
 20
1687.3728073963
 30
0.0
 10
379.8034468861
 20
1687.2277087759
 30
0.0
 10
379.2686483205
 20
1687.059058482
 30
0.0
 10
378.4225611403
 20
1686.8814723909
 30
0.0
 10
377.2970829983
 20
1686.7024865206
 30
0.0
 10
375.8759797111
 20
1686.5223984334
 30
0.0
 10
374.1674484687
 20
1686.3429898316
 30
0.0
 10
372.1716374957
 20
1686.1646910947
 30
0.0
 10
368.9478816905
 20
1685.9151465144
 30
0.0
 10
364.2274933919
 20
1685.6176523413
 30
0.0
 10
357.7565116725
 20
1685.2869153511
 30
0.0
 10
350.24209642
 20
1684.968945237
 30
0.0
 10
344.8886507942
 20
1684.7783965072
 30
0.0
 10
342.0456494681
 20
1684.684449177999
 30
0.0
  0
SPLINE
  5
4EA
330
21D
100
AcDbEntity
  8
7_ALL_FEATURES
  6
Continuous
 62
     9
100
AcDbSpline
210
0.0
220
0.0
230
1.0
 70
     8
 71
     3
 72
    10
 73
     6
 74
     0
 42
0.0000000001
 43
0.0000000001
 40
0.0
 40
0.0
 40
0.0
 40
0.0
 40
0.2060200104
 40
0.4466868022
 40
1.0
 40
1.0
 40
1.0
 40
1.0
 10
338.3655617124
 20
1684.5667847533
 30
0.0
 10
330.5360395138
 20
1684.3245052546
 30
0.0
 10
313.5571467447
 20
1683.9006598189
 30
0.0
 10
275.5408551853
 20
1683.2380865965
 30
0.0
 10
245.3525298066
 20
1682.9852769373
 30
0.0
 10
224.3147070578
 20
1682.8958571457
 30
0.0
  0
SPLINE
  5
4EB
330
21D
100
AcDbEntity
  8
7_ALL_FEATURES
  6
Continuous
 62
     9
100
AcDbSpline
210
0.0
220
0.0
230
1.0
 70
     8
 71
     3
 72
     9
 73
     5
 74
     0
 42
0.0000000001
 43
0.0000000001
 40
0.0
 40
0.0
 40
0.0
 40
0.0
 40
0.5075358429
 40
1.0
 40
1.0
 40
1.0
 40
1.0
 10
8.032212185499998
 20
1687.5245849635
 30
0.0
 10
7.517630072999999
 20
1688.5932168632
 30
0.0
 10
6.782911682599999
 20
1690.8441262833
 30
0.0
 10
6.5993127708
 20
1693.1898158073
 30
0.0
 10
6.5993127232
 20
1694.3406673018
 30
0.0
  0
LINE
  5
4EC
330
21D
100
AcDbEntity
  8
7_ALL_FEATURES
  6
Continuous
 62
     9
100
AcDbLine
 10
8.0647691713
 20
1687.4633531828
 30
0.0
 11
8.0322319835
 21
1687.5249651328
 31
0.0
1001
ACAD
1000
RTMaterial
1005
0
  0
LINE
  5
4ED
330
21D
100
AcDbEntity
  8
7_ALL_FEATURES
  6
Continuous
 62
     9
100
AcDbLine
 10
380.1663934814
 20
1687.5249647729
 30
0.0
 11
380.133856294
 21
1687.4633528237
 31
0.0
1001
ACAD
1000
RTMaterial
1005
0
  0
SPLINE
  5
4EE
330
21D
100
AcDbEntity
  8
7_ALL_FEATURES
  6
Continuous
 62
     9
100
AcDbSpline
210
0.0
220
0.0
230
1.0
 70
     8
 71
     3
 72
     9
 73
     5
 74
     0
 42
0.0000000001
 43
0.0000000001
 40
0.0
 40
0.0
 40
0.0
 40
0.0
 40
0.4924641897
 40
1.0
 40
1.0
 40
1.0
 40
1.0
 10
381.5993127232
 20
1694.3406673021
 30
0.0
 10
381.5993124282
 20
1693.189815737
 30
0.0
 10
381.4157135522
 20
1690.8441262745
 30
0.0
 10
380.6809953622
 20
1688.593216777
 30
0.0
 10
380.1664132607
 20
1687.5245849633
 30
0.0
  0
SPLINE
  5
4F1
330
21D
100
AcDbEntity
  8
0
  6
Continuous
 62
     9
100
AcDbSpline
210
0.0
220
0.0
230
1.0
 70
     8
 71
     3
 72
     8
 73
     4
 74
     0
 42
0.0000000001
 43
0.0000000001
 40
0.0
 40
0.0
 40
0.0
 40
0.0
 40
1.0
 40
1.0
 40
1.0
 40
1.0
 10
113.627606622
 20
1696.7957743124
 30
0.0
 10
113.5268951805
 20
1696.8290034605
 30
0.0
 10
113.4196384596
 20
1696.8469015801
 30
0.0
 10
113.3135867235
 20
1696.8469039514
 30
0.0
  0
SPLINE
  5
4F2
330
21D
100
AcDbEntity
  8
0
  6
Continuous
 62
     9
100
AcDbSpline
210
0.0
220
0.0
230
1.0
 70
     8
 71
     3
 72
     8
 73
     4
 74
     0
 42
0.0000000001
 43
0.0000000001
 40
0.0
 40
0.0
 40
0.0
 40
0.0
 40
1.0
 40
1.0
 40
1.0
 40
1.0
 10
113.5483254459
 20
1696.5155641787
 30
0.0
 10
113.4684689079
 20
1696.5358579007
 30
0.0
 10
113.3854957595
 20
1696.5466279291
 30
0.0
 10
113.3031009671
 20
1696.5466297755
 30
0.0
  0
SPLINE
  5
4F3
330
21D
100
AcDbEntity
  8
0
  6
Continuous
 62
     9
100
AcDbSpline
210
0.0
220
0.0
230
1.0
 70
     8
 71
     3
 72
     8
 73
     4
 74
     0
 42
0.0000000001
 43
0.0000000001
 40
0.0
 40
0.0
 40
0.0
 40
0.0
 40
1.0
 40
1.0
 40
1.0
 40
1.0
 10
274.6485199618
 20
1696.5151105437
 30
0.0
 10
274.7289287501
 20
1696.5356979147
 30
0.0
 10
274.8125220397
 20
1696.5466279197
 30
0.0
 10
274.8955245281
 20
1696.5466297756
 30
0.0
  0
SPLINE
  5
4F4
330
21D
100
AcDbEntity
  8
0
  6
Continuous
 62
     9
100
AcDbSpline
210
0.0
220
0.0
230
1.0
 70
     8
 71
     3
 72
     8
 73
     4
 74
     0
 42
0.0000000001
 43
0.0000000001
 40
0.0
 40
0.0
 40
0.0
 40
0.0
 40
1.0
 40
1.0
 40
1.0
 40
1.0
 10
274.5692732622
 20
1696.7951963959
 30
0.0
 10
274.6704994422
 20
1696.828796733
 30
0.0
 10
274.7783816959
 20
1696.8469015655
 30
0.0
 10
274.8850387264
 20
1696.8469039501
 30
0.0
  0
SPLINE
  5
4F5
330
21D
100
AcDbEntity
  8
7_ALL_FEATURES
  6
Continuous
 62
     9
100
AcDbSpline
210
0.0
220
0.0
230
1.0
 70
     8
 71
     3
 72
     9
 73
     5
 74
     0
 42
0.0000000001
 43
0.0000000001
 40
0.0
 40
0.0
 40
0.0
 40
0.0
 40
0.5115502661
 40
1.0
 40
1.0
 40
1.0
 40
1.0
 10
10.0189868931
 20
1689.4206570297
 30
0.0
 10
9.510251442999999
 20
1690.5207324082
 30
0.0
 10
8.777567044999999
 20
1692.8038988237
 30
0.0
 10
8.5945843366
 20
1695.1827565836
 30
0.0
 10
8.5986588117
 20
1696.3400312788
 30
0.0
  0
SPLINE
  5
4F6
330
21D
100
AcDbEntity
  8
0
  6
Continuous
 62
     9
100
AcDbSpline
210
0.0
220
0.0
230
1.0
 70
     8
 71
     3
 72
     9
 73
     5
 74
     0
 42
0.0000000001
 43
0.0000000001
 40
0.0
 40
0.0
 40
0.0
 40
0.0
 40
0.1611940363
 40
1.0
 40
1.0
 40
1.0
 40
1.0
 10
113.3659592415
 20
1696.5228473038
 30
0.0
 10
113.3898259264
 20
1696.5189887114
 30
0.0
 10
113.5388121073
 20
1696.5010946711
 30
0.0
 10
113.688679988
 20
1696.4928104461
 30
0.0
 10
113.8143053102
 20
1696.4860370428
 30
0.0
  0
SPLINE
  5
4F7
330
21D
100
AcDbEntity
  8
0
  6
Continuous
 62
     9
100
AcDbSpline
210
0.0
220
0.0
230
1.0
 70
     8
 71
     3
 72
     9
 73
     5
 74
     0
 42
0.0000000001
 43
0.0000000001
 40
0.0
 40
0.0
 40
0.0
 40
0.0
 40
0.2149991096
 40
1.0
 40
1.0
 40
1.0
 40
1.0
 10
113.9985423799
 20
1696.4769695355
 30
0.0
 10
114.0619365168
 20
1696.4741071392
 30
0.0
 10
114.3568424974
 20
1696.461864528
 30
0.0
 10
114.6518763568
 20
1696.4529187039
 30
0.0
 10
114.8834939606
 20
1696.4467640509
 30
0.0
  0
LINE
  5
4F8
330
21D
100
AcDbEntity
  8
0
  6
Continuous
 62
     9
100
AcDbLine
 10
114.8834939606
 20
1696.4467640509
 30
0.0
 11
114.9879384131
 21
1696.444054260499
 31
0.0
1001
ACAD
1000
RTMaterial
1005
0
  0
LINE
  5
4F9
330
21D
100
AcDbEntity
  8
0
  6
Continuous
 62
     9
100
AcDbLine
 10
114.9879384131
 20
1696.444054260499
 30
0.0
 11
115.0909545713
 21
1696.4415032643
 31
0.0
1001
ACAD
1000
RTMaterial
1005
0
  0
LINE
  5
4FA
330
21D
100
AcDbEntity
  8
0
  6
Continuous
 62
     9
100
AcDbLine
 10
116.3936435892
 20
1696.4169233043
 30
0.0
 11
116.5851567575
 21
1696.4142321999
 31
0.0
1001
ACAD
1000
RTMaterial
1005
0
  0
LINE
  5
4FB
330
21D
100
AcDbEntity
  8
0
  6
Continuous
 62
     9
100
AcDbLine
 10
118.1708404535
 20
1696.3983918429
 30
0.0
 11
118.4091804093
 21
1696.3968676092
 31
0.0
1001
ACAD
1000
RTMaterial
1005
0
  0
LINE
  5
4FC
330
21D
100
AcDbEntity
  8
7_ALL_FEATURES
  6
Continuous
 62
     9
100
AcDbLine
 10
379.5993148528
 20
1696.5204982506
 30
0.0
 11
274.6504539159
 21
1696.3972189776
 31
0.0
1001
ACAD
1000
RTMaterial
1005
0
  0
LINE
  5
4FD
330
21D
100
AcDbEntity
  8
7_ALL_FEATURES
  6
Continuous
 62
     9
100
AcDbLine
 10
274.6504539159
 20
1696.3972189776
 30
0.0
 11
273.8646411944
 21
1696.3962951767
 31
0.0
1001
ACAD
1000
RTMaterial
1005
0
  0
SPLINE
  5
4FE
330
21D
100
AcDbEntity
  8
7_ALL_FEATURES
  6
Continuous
 62
     9
100
AcDbSpline
210
0.0
220
0.0
230
1.0
 70
     8
 71
     3
 72
     9
 73
     5
 74
     0
 42
0.0000000001
 43
0.0000000001
 40
0.0
 40
0.0
 40
0.0
 40
0.0
 40
0.4884497391
 40
1.0
 40
1.0
 40
1.0
 40
1.0
 10
379.5999666347
 20
1696.340031279
 30
0.0
 10
379.6040408598
 20
1695.1827565777
 30
0.0
 10
379.4210601541
 20
1692.8038979614
 30
0.0
 10
378.6883698033
 20
1690.5207343294
 30
0.0
 10
378.1796385542
 20
1689.4206570297
 30
0.0
  0
SPLINE
  5
4FF
330
21D
100
AcDbEntity
  8
7_ALL_FEATURES
  6
Continuous
 62
     9
100
AcDbSpline
210
0.0
220
0.0
230
1.0
 70
     8
 71
     3
 72
    14
 73
    10
 74
     0
 42
0.0000000001
 43
0.0000000001
 40
0.0
 40
0.0
 40
0.0
 40
0.0
 40
0.2618867553
 40
0.393031202
 40
0.522910058
 40
0.6494430465
 40
0.7710974727
 40
0.8880226247999999
 40
1.0
 40
1.0
 40
1.0
 40
1.0
 10
334.0746762994
 20
1659.0265047912
 30
0.0
 10
333.4585306269
 20
1659.0264796894
 30
0.0
 10
332.5377688477
 20
1659.212795614
 30
0.0
 10
331.3629603648
 20
1659.5687038791
 30
0.0
 10
330.4811846763
 20
1659.8067737307
 30
0.0
 10
329.5857162083
 20
1659.8823309372
 30
0.0
 10
328.7338021546
 20
1659.7252880934
 30
0.0
 10
327.9516077371
 20
1659.464175436
 30
0.0
 10
327.4411741999
 20
1659.2915621631
 30
0.0
 10
327.1878827106001
 20
1659.2191056471
 30
0.0
  0
SPLINE
  5
500
330
21D
100
AcDbEntity
  8
7_ALL_FEATURES
  6
Continuous
 62
     9
100
AcDbSpline
210
0.0
220
0.0
230
1.0
 70
     8
 71
     3
 72
     9
 73
     5
 74
     0
 42
0.0000000001
 43
0.0000000001
 40
0.0
 40
0.0
 40
0.0
 40
0.0
 40
0.4215118571
 40
1.0
 40
1.0
 40
1.0
 40
1.0
 10
30.490352376
 20
1659.8528278729
 30
0.0
 10
30.5972194282
 20
1659.8528277686
 30
0.0
 10
30.8409438492
 20
1659.7013600175
 30
0.0
 10
30.9400307879
 20
1659.4602563535
 30
0.0
 10
30.9812543196
 20
1659.3195032303
 30
0.0
  0
SPLINE
  5
501
330
21D
100
AcDbEntity
  8
7_ALL_FEATURES
  6
Continuous
 62
     9
100
AcDbSpline
210
0.0
220
0.0
230
1.0
 70
     8
 71
     3
 72
     8
 73
     4
 74
     0
 42
0.0000000001
 43
0.0000000001
 40
0.0
 40
0.0
 40
0.0
 40
0.0
 40
1.0
 40
1.0
 40
1.0
 40
1.0
 10
327.7239905711
 20
1659.8538405826
 30
0.0
 10
327.5461168517
 20
1659.64156494
 30
0.0
 10
327.3708104491
 20
1659.4270418176
 30
0.0
 10
327.1878827106001
 20
1659.2191056471
 30
0.0
  0
SPLINE
  5
502
330
21D
100
AcDbEntity
  8
7_ALL_FEATURES
  6
Continuous
 62
     9
100
AcDbSpline
210
0.0
220
0.0
230
1.0
 70
     8
 71
     3
 72
    11
 73
     7
 74
     0
 42
0.0000000001
 43
0.0000000001
 40
0.0
 40
0.0
 40
0.0
 40
0.0
 40
0.1614752161
 40
0.472684751
 40
0.7011728017000002
 40
1.0
 40
1.0
 40
1.0
 40
1.0
 10
77.0787825663
 20
1655.6276033424
 30
0.0
 10
77.1822176701
 20
1655.5061621094
 30
0.0
 10
77.53086893449999
 20
1655.1908866192
 30
0.0
 10
78.1322592993
 20
1654.8328016842
 30
0.0
 10
78.91479288560001
 20
1654.5556728155
 30
0.0
 10
79.41858647140001
 20
1654.4220092336
 30
0.0
 10
79.7055481032
 20
1654.3527138281
 30
0.0
  0
SPLINE
  5
503
330
21D
100
AcDbEntity
  8
7_ALL_FEATURES
  6
Continuous
 62
     9
100
AcDbSpline
210
0.0
220
0.0
230
1.0
 70
     8
 71
     3
 72
     9
 73
     5
 74
     0
 42
0.0000000001
 43
0.0000000001
 40
0.0
 40
0.0
 40
0.0
 40
0.0
 40
0.2864005738
 40
1.0
 40
1.0
 40
1.0
 40
1.0
 10
308.4661144014
 20
1654.3511270748
 30
0.0
 10
308.5929789274
 20
1654.3818164881
 30
0.0
 10
309.0346581299
 20
1654.4936856306
 30
0.0
 10
309.4726072595
 20
1654.6238449655
 30
0.0
 10
309.7765353735
 20
1654.739570013
 30
0.0
  0
SPLINE
  5
504
330
21D
100
AcDbEntity
  8
7_ALL_FEATURES
  6
Continuous
 62
     9
100
AcDbSpline
210
0.0
220
0.0
230
1.0
 70
     8
 71
     3
 72
     9
 73
     5
 74
     0
 42
0.0000000001
 43
0.0000000001
 40
0.0
 40
0.0
 40
0.0
 40
0.0
 40
0.2809697329
 40
1.0
 40
1.0
 40
1.0
 40
1.0
 10
309.7765353735
 20
1654.739570013
 30
0.0
 10
309.8266577645
 20
1654.758654842
 30
0.0
 10
310.0040137566
 20
1654.8290775221
 30
0.0
 10
310.1777989556
 20
1654.9098151195
 30
0.0
 10
310.2966405853
 20
1654.9784793596
 30
0.0
  0
SPLINE
  5
505
330
21D
100
AcDbEntity
  8
7_ALL_FEATURES
  6
Continuous
 62
     9
100
AcDbSpline
210
0.0
220
0.0
230
1.0
 70
     8
 71
     3
 72
     9
 73
     5
 74
     0
 42
0.0000000001
 43
0.0000000001
 40
0.0
 40
0.0
 40
0.0
 40
0.0
 40
0.2813337048
 40
1.0
 40
1.0
 40
1.0
 40
1.0
 10
310.2966009703
 20
1654.9784607941
 30
0.0
 10
310.3715479345
 20
1655.0212843083
 30
0.0
 10
310.6336631183
 20
1655.180497799
 30
0.0
 10
310.8782986046
 20
1655.3711178733
 30
0.0
 10
311.032376388
 20
1655.5288536641
 30
0.0
  0
LINE
  5
506
330
21D
100
AcDbEntity
  8
7_ALL_FEATURES
  6
Continuous
 62
     9
100
AcDbLine
 10
311.1243691261
 20
1655.629226261
 30
0.0
 11
311.1328258424
 21
1655.6391870887
 31
0.0
1001
ACAD
1000
RTMaterial
1005
0
  0
LINE
  5
507
330
21D
100
AcDbEntity
  8
7_ALL_FEATURES
  6
Continuous
 62
     9
100
AcDbLine
 10
311.1328258424
 20
1655.6391870887
 30
0.0
 11
311.150979313
 21
1655.6610819112
 31
0.0
1001
ACAD
1000
RTMaterial
1005
0
  0
SPLINE
  5
508
330
21D
100
AcDbEntity
  8
7_ALL_FEATURES
  6
Continuous
 62
     9
100
AcDbSpline
210
0.0
220
0.0
230
1.0
 70
     8
 71
     3
 72
     9
 73
     5
 74
     0
 42
0.0000000001
 43
0.0000000001
 40
0.0
 40
0.0
 40
0.0
 40
0.0
 40
0.4215042426000001
 40
1.0
 40
1.0
 40
1.0
 40
1.0
 10
357.7083278716
 20
1659.8528278729
 30
0.0
 10
357.6014621422
 20
1659.8528277679
 30
0.0
 10
357.3577411001001
 20
1659.7013529927
 30
0.0
 10
357.2586458185
 20
1659.4602545502
 30
0.0
 10
357.2174176086
 20
1659.3194999165
 30
0.0
  0
SPLINE
  5
509
330
21D
100
AcDbEntity
  8
7_ALL_FEATURES
  6
Continuous
 62
     9
100
AcDbSpline
210
0.0
220
0.0
230
1.0
 70
     8
 71
     3
 72
    14
 73
    10
 74
     0
 42
0.0000000001
 43
0.0000000001
 40
0.0
 40
0.0
 40
0.0
 40
0.0
 40
0.1119721731
 40
0.2288944093
 40
0.3505444174
 40
0.4770805554999999
 40
0.6069716506000001
 40
0.7381143784000001
 40
1.0
 40
1.0
 40
1.0
 40
1.0
 10
61.01074259899999
 20
1659.2191042006
 30
0.0
 10
60.7574603263
 20
1659.2915601283
 30
0.0
 10
60.2470391262
 20
1659.464172064
 30
0.0
 10
59.4648705838
 20
1659.7252947933
 30
0.0
 10
58.61294948979999
 20
1659.8823485313
 30
0.0
 10
57.7174565465
 20
1659.8066807926
 30
0.0
 10
56.8356168039
 20
1659.5687060206
 30
0.0
 10
55.6607801409
 20
1659.2127529467
 30
0.0
 10
54.7400085517
 20
1659.0264516329
 30
0.0
 10
54.1238580246
 20
1659.0264885241
 30
0.0
  0
SPLINE
  5
50A
330
21D
100
AcDbEntity
  8
7_ALL_FEATURES
  6
Continuous
 62
     9
100
AcDbSpline
210
0.0
220
0.0
230
1.0
 70
     8
 71
     3
 72
     9
 73
     5
 74
     0
 42
0.0000000001
 43
0.0000000001
 40
0.0
 40
0.0
 40
0.0
 40
0.0
 40
0.2593341139
 40
1.0
 40
1.0
 40
1.0
 40
1.0
 10
32.752798247
 20
1659.4660037841
 30
0.0
 10
32.6005855412
 20
1659.4444626649
 30
0.0
 10
32.013378469
 20
1659.3643354131
 30
0.0
 10
31.4203100174
 20
1659.3194970484
 30
0.0
 10
30.9812543197
 20
1659.3195032303
 30
0.0
  0
SPLINE
  5
50B
330
21D
100
AcDbEntity
  8
7_ALL_FEATURES
  6
Continuous
 62
     9
100
AcDbSpline
210
0.0
220
0.0
230
1.0
 70
     8
 71
     3
 72
     9
 73
     5
 74
     0
 42
0.0000000001
 43
0.0000000001
 40
0.0
 40
0.0
 40
0.0
 40
0.0
 40
0.2418720314
 40
1.0
 40
1.0
 40
1.0
 40
1.0
 10
357.2174176147
 20
1659.319499915
 30
0.0
 10
357.0740141497
 20
1659.3195457681
 30
0.0
 10
356.481014282
 20
1659.3329809586
 30
0.0
 10
355.8908542919001
 20
1659.4030204026
 30
0.0
 10
355.4458025003
 20
1659.4660037841
 30
0.0
  0
SPLINE
  5
50C
330
21D
100
AcDbEntity
  8
7_ALL_FEATURES
  6
Continuous
 62
     9
100
AcDbSpline
210
0.0
220
0.0
230
1.0
 70
     8
 71
     3
 72
    12
 73
     8
 74
     0
 42
0.0000000001
 43
0.0000000001
 40
0.0
 40
0.0
 40
0.0
 40
0.0
 40
0.0258914193
 40
0.0825900243
 40
0.2920107791
 40
0.6108301741
 40
1.0
 40
1.0
 40
1.0
 40
1.0
 10
334.1620214764
 20
1659.8528278729
 30
0.0
 10
334.1547885557
 20
1659.8528270852
 30
0.0
 10
334.1404144513
 20
1659.8276781898
 30
0.0
 10
334.1214180547
 20
1659.7546904584
 30
0.0
 10
334.09911698
 20
1659.5864648141
 30
0.0
 10
334.0825927951
 20
1659.3338737899
 30
0.0
 10
334.0763625851
 20
1659.1352086004
 30
0.0
 10
334.0746762926
 20
1659.0265047915
 30
0.0
  0
SPLINE
  5
50D
330
21D
100
AcDbEntity
  8
7_ALL_FEATURES
  6
Continuous
 62
     9
100
AcDbSpline
210
0.0
220
0.0
230
1.0
 70
     8
 71
     3
 72
     9
 73
     5
 74
     0
 42
0.0000000001
 43
0.0000000001
 40
0.0
 40
0.0
 40
0.0
 40
0.0
 40
0.255163472
 40
1.0
 40
1.0
 40
1.0
 40
1.0
 10
328.4733344604
 20
1659.8575096453
 30
0.0
 10
328.3627029034
 20
1659.805902845
 30
0.0
 10
327.933020068
 20
1659.5954106226
 30
0.0
 10
327.5104388481
 20
1659.3705686352
 30
0.0
 10
327.1878827976
 20
1659.2191056758
 30
0.0
  0
SPLINE
  5
50E
330
21D
100
AcDbEntity
  8
7_ALL_FEATURES
  6
Continuous
 62
     9
100
AcDbSpline
210
0.0
220
0.0
230
1.0
 70
     8
 71
     3
 72
     9
 73
     5
 74
     0
 42
0.0000000001
 43
0.0000000001
 40
0.0
 40
0.0
 40
0.0
 40
0.0
 40
0.2398958879
 40
1.0
 40
1.0
 40
1.0
 40
1.0
 10
355.6536306506
 20
1659.8600935602
 30
0.0
 10
355.6336455163
 20
1659.8305556267
 30
0.0
 10
355.5540876496
 20
1659.704911961
 30
0.0
 10
355.488329887
 20
1659.5706951082
 30
0.0
 10
355.4458025048
 20
1659.4660037821
 30
0.0
  0
SPLINE
  5
50F
330
21D
100
AcDbEntity
  8
7_ALL_FEATURES
  6
Continuous
 62
     9
100
AcDbSpline
210
0.0
220
0.0
230
1.0
 70
     8
 71
     3
 72
     9
 73
     5
 74
     0
 42
0.0000000001
 43
0.0000000001
 40
0.0
 40
0.0
 40
0.0
 40
0.0
 40
0.2551688373
 40
1.0
 40
1.0
 40
1.0
 40
1.0
 10
59.7166373008
 20
1659.8620396187
 30
0.0
 10
59.8280683674
 20
1659.8101757818
 30
0.0
 10
60.26046508859999
 20
1659.597803964899
 30
0.0
 10
60.6864338306
 20
1659.3725298073
 30
0.0
 10
61.0107426
 20
1659.2191042002
 30
0.0
  0
SPLINE
  5
510
330
21D
100
AcDbEntity
  8
7_ALL_FEATURES
  6
Continuous
 62
     9
100
AcDbSpline
210
0.0
220
0.0
230
1.0
 70
     8
 71
     3
 72
    12
 73
     8
 74
     0
 42
0.0000000001
 43
0.0000000001
 40
0.0
 40
0.0
 40
0.0
 40
0.0
 40
0.0258742286
 40
0.0825693273
 40
0.2919941693
 40
0.61082218
 40
1.0
 40
1.0
 40
1.0
 40
1.0
 10
54.0365089814
 20
1659.8528278728
 30
0.0
 10
54.043737072
 20
1659.8528264817
 30
0.0
 10
54.0580854897
 20
1659.8276628092
 30
0.0
 10
54.07707131529999
 20
1659.7546947158
 30
0.0
 10
54.09936590979999
 20
1659.5864504269
 30
0.0
 10
54.1159102849
 20
1659.3338650104
 30
0.0
 10
54.1221586428
 20
1659.1351939457
 30
0.0
 10
54.1238580284
 20
1659.0264885242
 30
0.0
  0
SPLINE
  5
511
330
21D
100
AcDbEntity
  8
7_ALL_FEATURES
  6
Continuous
 62
     9
100
AcDbSpline
210
0.0
220
0.0
230
1.0
 70
     8
 71
     3
 72
     9
 73
     5
 74
     0
 42
0.0000000001
 43
0.0000000001
 40
0.0
 40
0.0
 40
0.0
 40
0.0
 40
0.2398917552
 40
1.0
 40
1.0
 40
1.0
 40
1.0
 10
32.54504010780001
 20
1659.8600975772
 30
0.0
 10
32.5650242861
 20
1659.8305622207
 30
0.0
 10
32.6445773489
 20
1659.7049255388
 30
0.0
 10
32.7103236815
 20
1659.5707120657
 30
0.0
 10
32.7528418672
 20
1659.4660233713
 30
0.0
  0
SPLINE
  5
512
330
21D
100
AcDbEntity
  8
7_ALL_FEATURES
  6
Continuous
 62
     9
100
AcDbSpline
210
0.0
220
0.0
230
1.0
 70
     8
 71
     3
 72
     8
 73
     4
 74
     0
 42
0.0000000001
 43
0.0000000001
 40
0.0
 40
0.0
 40
0.0
 40
0.0
 40
1.0
 40
1.0
 40
1.0
 40
1.0
 10
60.47554717739999
 20
1659.8528260382
 30
0.0
 10
60.6536111783
 20
1659.6413034071
 30
0.0
 10
60.8301867891
 20
1659.4285038456
 30
0.0
 10
61.01074259899999
 20
1659.2191042006
 30
0.0
  0
SPLINE
  5
513
330
21D
100
AcDbEntity
  8
7_ALL_FEATURES
  6
Continuous
 62
     9
100
AcDbSpline
210
0.0
220
0.0
230
1.0
 70
     8
 71
     3
 72
     8
 73
     4
 74
     0
 42
0.0000000001
 43
0.0000000001
 40
0.0
 40
0.0
 40
0.0
 40
0.0
 40
1.0
 40
1.0
 40
1.0
 40
1.0
 10
33.3462609847
 20
1659.7462586392
 30
0.0
 10
33.1508726281
 20
1659.6478539669
 30
0.0
 10
32.9535146048
 20
1659.55302696
 30
0.0
 10
32.752798247
 20
1659.4660037841
 30
0.0
  0
SPLINE
  5
514
330
21D
100
AcDbEntity
  8
7_ALL_FEATURES
  6
Continuous
 62
     9
100
AcDbSpline
210
0.0
220
0.0
230
1.0
 70
     8
 71
     3
 72
     8
 73
     4
 74
     0
 42
0.0000000001
 43
0.0000000001
 40
0.0
 40
0.0
 40
0.0
 40
0.0
 40
1.0
 40
1.0
 40
1.0
 40
1.0
 10
310.2965996261001
 20
1654.9784595149
 30
0.0
 10
310.1489794519
 20
1654.7865711935
 30
0.0
 10
309.9626087004
 20
1654.6194878924
 30
0.0
 10
309.755762753
 20
1654.4936801115
 30
0.0
  0
SPLINE
  5
515
330
21D
100
AcDbEntity
  8
7_ALL_FEATURES
  6
Continuous
 62
     9
100
AcDbSpline
210
0.0
220
0.0
230
1.0
 70
     8
 71
     3
 72
     8
 73
     4
 74
     0
 42
0.0000000001
 43
0.0000000001
 40
0.0
 40
0.0
 40
0.0
 40
0.0
 40
1.0
 40
1.0
 40
1.0
 40
1.0
 10
355.4458025003
 20
1659.4660037841
 30
0.0
 10
355.1740078367
 20
1659.5837898918
 30
0.0
 10
354.9084010662
 20
1659.7158115621
 30
0.0
 10
354.6454576608
 20
1659.852217837
 30
0.0
  0
SPLINE
  5
516
330
21D
100
AcDbEntity
  8
0
  6
Continuous
 62
     7
100
AcDbSpline
210
0.0
220
0.0
230
1.0
 70
     8
 71
     3
 72
    11
 73
     7
 74
     0
 42
0.0000000001
 43
0.0000000001
 40
0.0
 40
0.0
 40
0.0
 40
0.0
 40
0.2500016434
 40
0.4999501661
 40
0.7499069284000001
 40
1.0
 40
1.0
 40
1.0
 40
1.0
 10
378.2923695587001
 20
1648.0604930522
 30
0.0
 10
378.3263881886
 20
1648.7582561611
 30
0.0
 10
378.1465493432
 20
1650.178046934
 30
0.0
 10
377.1617908932
 20
1652.0752059478
 30
0.0
 10
375.5872074521
 20
1653.5211204849
 30
0.0
 10
374.2630831303
 20
1654.0651966594
 30
0.0
 10
373.580268097
 20
1654.214029703
 30
0.0
  0
SPLINE
  5
517
330
21D
100
AcDbEntity
  8
0
  6
Continuous
 62
     7
100
AcDbSpline
210
0.0
220
0.0
230
1.0
 70
     8
 71
     3
 72
    11
 73
     7
 74
     0
 42
0.0000000001
 43
0.0000000001
 40
0.0
 40
0.0
 40
0.0
 40
0.0
 40
0.2500923779
 40
0.5000498102000001
 40
0.7499983619
 40
1.0
 40
1.0
 40
1.0
 40
1.0
 10
13.6183674499
 20
1654.2140089333
 30
0.0
 10
12.9355490559
 20
1654.0651994804
 30
0.0
 10
11.6114154976
 20
1653.5211275464
 30
0.0
 10
10.0368394242
 20
1652.0752069143
 30
0.0
 10
9.0520735795
 20
1650.1780482288
 30
0.0
 10
8.872240752699999
 20
1648.7582566145
 30
0.0
 10
8.9062559498
 20
1648.0604931545
 30
0.0
  0
SPLINE
  5
518
330
21D
100
AcDbEntity
  8
0
  6
Continuous
 62
     7
100
AcDbSpline
210
0.0
220
0.0
230
1.0
 70
     8
 71
     3
 72
    11
 73
     7
 74
     0
 42
0.0000000001
 43
0.0000000001
 40
0.0
 40
0.0
 40
0.0
 40
0.0
 40
0.2500093613
 40
0.4998859415
 40
0.7498637390999999
 40
1.0
 40
1.0
 40
1.0
 40
1.0
 10
15.6763831083
 20
1654.3560223373
 30
0.0
 10
14.8161355059
 20
1654.3542267238
 30
0.0
 10
13.0738184933
 20
1653.9696751651
 30
0.0
 10
10.9624370928
 20
1652.352721292199
 30
0.0
 10
9.716646155199999
 20
1650.0025671404
 30
0.0
 10
9.625788164699999
 20
1648.2197507451
 30
0.0
 10
9.766602176799999
 20
1647.3706618138
 30
0.0
  0
SPLINE
  5
519
330
21D
100
AcDbEntity
  8
0
  6
Continuous
 62
     7
100
AcDbSpline
210
0.0
220
0.0
230
1.0
 70
     8
 71
     3
 72
    11
 73
     7
 74
     0
 42
0.0000000001
 43
0.0000000001
 40
0.0
 40
0.0
 40
0.0
 40
0.0
 40
0.2500128993
 40
0.4998983256000001
 40
0.7498803848000001
 40
1.0
 40
1.0
 40
1.0
 40
1.0
 10
371.5222423115
 20
1654.3559590671
 30
0.0
 10
372.3804162166
 20
1654.3541390006
 30
0.0
 10
374.1184260718
 20
1653.9714140845
 30
0.0
 10
376.2269451845
 20
1652.3618718598
 30
0.0
 10
377.475561658
 20
1650.0209826504
 30
0.0
 10
377.5727393487001
 20
1648.2432081833
 30
0.0
 10
377.435848278
 20
1647.3956496654
 30
0.0
  0
SPLINE
  5
51A
330
21D
100
AcDbEntity
  8
0
  6
Continuous
 62
     7
100
AcDbSpline
210
0.0
220
0.0
230
1.0
 70
     8
 71
     3
 72
    10
 73
     6
 74
     0
 42
0.0000000001
 43
0.0000000001
 40
0.0
 40
0.0
 40
0.0
 40
0.0
 40
0.4955504539000001
 40
0.7595553137000001
 40
1.0
 40
1.0
 40
1.0
 40
1.0
 10
377.435848278
 20
1647.3956496654
 30
0.0
 10
377.5923588992
 20
1647.4830161114
 30
0.0
 10
377.8112507759
 20
1647.6542832867
 30
0.0
 10
378.079622632
 20
1647.8929923178
 30
0.0
 10
378.2139930942
 20
1648.0225372041
 30
0.0
 10
378.292241154
 20
1648.0604993126
 30
0.0
  0
SPLINE
  5
51B
330
21D
100
AcDbEntity
  8
0
  6
Continuous
 62
     9
100
AcDbSpline
210
0.0
220
0.0
230
1.0
 70
     8
 71
     3
 72
    11
 73
     7
 74
     0
 42
0.0000000001
 43
0.0000000001
 40
0.0
 40
0.0
 40
0.0
 40
0.0
 40
0.2364389155
 40
0.4960684300000001
 40
0.7490944545999999
 40
1.0
 40
1.0
 40
1.0
 40
1.0
 10
8.906926160700001
 20
1648.0605258265
 30
0.0
 10
8.985110872999999
 20
1648.0225555156
 30
0.0
 10
9.119116504299999
 20
1647.8928423909
 30
0.0
 10
9.324423552999999
 20
1647.7118337905
 30
0.0
 10
9.539242082699999
 20
1647.5305542916
 30
0.0
 10
9.701543245199999
 20
1647.436042805
 30
0.0
 10
9.766602176799999
 20
1647.3706618138
 30
0.0
  0
SPLINE
  5
51C
330
21D
100
AcDbEntity
  8
0
  6
Continuous
 62
     9
100
AcDbSpline
210
0.0
220
0.0
230
1.0
 70
     8
 71
     3
 72
    51
 73
    47
 74
     0
 42
0.0000000001
 43
0.0000000001
 40
0.0
 40
0.0
 40
0.0
 40
0.0
 40
0.0002194716
 40
0.0007325565
 40
0.0015417775
 40
0.0026406437
 40
0.0040241969
 40
0.0056878151
 40
0.0098388728
 40
0.015074518
 40
0.0213868988
 40
0.028780918
 40
0.0372646549
 40
0.0468483994
 40
0.0575467685
 40
0.0823443762
 40
0.1115115921
 40
0.1445966869
 40
0.1811534631
 40
0.2207663316
 40
0.2630358851
 40
0.3075701068
 40
0.4018125131000001
 40
0.4999998986
 40
0.5981871994
 40
0.6924296849
 40
0.7369640140000002
 40
0.7792332787000001
 40
0.8188457926999998
 40
0.8554030816
 40
0.8884876047
 40
0.9176548992
 40
0.94245304
 40
0.9531513679999999
 40
0.9627352312999999
 40
0.9712190056999999
 40
0.9786130225
 40
0.9849253990000001
 40
0.9901609926
 40
0.9943119915
 40
0.9959755838999999
 40
0.9973591225999999
 40
0.9984580251
 40
0.9992673062999999
 40
0.9997804434999999
 40
1.0
 40
1.0
 40
1.0
 40
1.0
 10
9.7575787035
 20
1647.3691653446
 30
0.0
 10
9.766429701599999
 20
1647.3437609691
 30
0.0
 10
9.8753227771
 20
1647.3231214014
 30
0.0
 10
10.0432285478
 20
1647.2869737242
 30
0.0
 10
10.3482686395
 20
1647.2585530901
 30
0.0
 10
10.746455267
 20
1647.226808674
 30
0.0
 10
11.2553880954
 20
1647.1977648742
 30
0.0
 10
12.1360568013
 20
1647.1565342526
 30
0.0
 10
13.4902703402
 20
1647.1101588175
 30
0.0
 10
15.4137381868
 20
1647.0589777997
 30
0.0
 10
17.735118463
 20
1647.0084695275
 30
0.0
 10
20.4546117185
 20
1646.9575244381
 30
0.0
 10
23.5751760435
 20
1646.9056827392
 30
0.0
 10
27.1008009119
 20
1646.8529287847
 30
0.0
 10
32.6259951485
 20
1646.776484752
 30
0.0
 10
40.5516905782
 20
1646.6862665432
 30
0.0
 10
51.22156953560001
 20
1646.5921337021
 30
0.0
 10
63.3329783276
 20
1646.5092581719
 30
0.0
 10
76.7248808385
 20
1646.4400228
 30
0.0
 10
91.2426209873
 20
1646.3764276782
 30
0.0
 10
106.7382567268
 20
1646.3227448097
 30
0.0
 10
128.9302067628
 20
1646.2621341665
 30
0.0
 10
157.9764190351
 20
1646.2103912588
 30
0.0
 10
193.5992853982
 20
1646.187488995
 30
0.0
 10
229.2221613122
 20
1646.2104157398
 30
0.0
 10
258.2683864358001
 20
1646.2621063434
 30
0.0
 10
280.4603224009
 20
1646.3233009151
 30
0.0
 10
295.9558937546
 20
1646.3764150593
 30
0.0
 10
310.4736248671
 20
1646.4386224857
 30
0.0
 10
323.8654655581
 20
1646.5098657508
 30
0.0
 10
335.9768883371
 20
1646.5908812577
 30
0.0
 10
346.6467735056
 20
1646.685139439
 30
0.0
 10
354.5725252187001
 20
1646.7764621666
 30
0.0
 10
360.0977983823999
 20
1646.8526097412
 30
0.0
 10
363.6234324523
 20
1646.9056984445
 30
0.0
 10
366.7440150188
 20
1646.9575676473
 30
0.0
 10
369.4635122614
 20
1647.0085054496
 30
0.0
 10
371.784884795
 20
1647.0590354375
 30
0.0
 10
373.7083403456
 20
1647.1101494462
 30
0.0
 10
375.0625399825
 20
1647.1564277944
 30
0.0
 10
375.9431999085
 20
1647.1976026849
 30
0.0
 10
376.4521316483
 20
1647.2266315064
 30
0.0
 10
376.8503321594
 20
1647.2583789266
 30
0.0
 10
377.1553772680001
 20
1647.2868547212
 30
0.0
 10
377.3233159599
 20
1647.3230312176
 30
0.0
 10
377.4321973216
 20
1647.3437493968
 30
0.0
 10
377.4410467429
 20
1647.3691653446
 30
0.0
  0
SPLINE
  5
51E
330
21D
100
AcDbEntity
  8
0
  6
Continuous
 62
     9
100
AcDbSpline
210
0.0
220
0.0
230
1.0
 70
     8
 71
     3
 72
     9
 73
     5
 74
     0
 42
0.0000000001
 43
0.0000000001
 40
0.0
 40
0.0
 40
0.0
 40
0.0
 40
0.3306440918
 40
1.0
 40
1.0
 40
1.0
 40
1.0
 10
831.6444722970887
 20
1659.8967135983
 30
0.0
 10
831.6680263540886
 20
1659.7921582137
 30
0.0
 10
831.7369842562886
 20
1659.4754327307
 30
0.0
 10
831.8089657510887
 20
1659.1593779426
 30
0.0
 10
831.8576900240886
 20
1658.9479533282
 30
0.0
  0
SPLINE
  5
51F
330
21D
100
AcDbEntity
  8
0
  6
Continuous
 62
     9
100
AcDbSpline
210
0.0
220
0.0
230
1.0
 70
     8
 71
     3
 72
     9
 73
     5
 74
     0
 42
0.0000000001
 43
0.0000000001
 40
0.0
 40
0.0
 40
0.0
 40
0.0
 40
0.7471235548000001
 40
1.0
 40
1.0
 40
1.0
 40
1.0
 10
831.8576900240886
 20
1658.9479533282
 30
0.0
 10
831.8596070491885
 20
1658.9396349629
 30
0.0
 10
831.8653051710887
 20
1658.9326461302
 30
0.0
 10
831.8627407622887
 20
1658.9145897073
 30
0.0
 10
831.8656299820887
 20
1658.9146096078
 30
0.0
  0
SPLINE
  5
521
330
21D
100
AcDbEntity
  8
0
  6
Continuous
 62
     9
100
AcDbSpline
210
0.0
220
0.0
230
1.0
 70
     8
 71
     3
 72
    14
 73
    10
 74
     0
 42
0.0000000001
 43
0.0000000001
 40
0.0
 40
0.0
 40
0.0
 40
0.0
 40
0.0200354604
 40
0.077016315
 40
0.1691692257
 40
0.293349986
 40
0.4446983159000001
 40
0.6180181307
 40
1.0
 40
1.0
 40
1.0
 40
1.0
 10
707.9893902050887
 20
1681.5618847994
 30
0.0
 10
707.9900871455889
 20
1681.5552538535
 30
0.0
 10
708.0292676335886
 20
1681.5637668949
 30
0.0
 10
708.0729755867887
 20
1681.5567972624
 30
0.0
 10
708.1706604679887
 20
1681.5669684915
 30
0.0
 10
708.2897973205888
 20
1681.5740566632
 30
0.0
 10
708.4396838262887
 20
1681.5872971956
 30
0.0
 10
708.6734290752886
 20
1681.6084174273
 30
0.0
 10
708.8574902440886
 20
1681.6269579469
 30
0.0
 10
708.9839121004886
 20
1681.6402363144
 30
0.0
  0
SPLINE
  5
522
330
21D
100
AcDbEntity
  8
0
  6
Continuous
 62
     9
100
AcDbSpline
210
0.0
220
0.0
230
1.0
 70
     8
 71
     3
 72
    11
 73
     7
 74
     0
 42
0.0000000001
 43
0.0000000001
 40
0.0
 40
0.0
 40
0.0
 40
0.0
 40
0.2579225752
 40
0.505532766
 40
0.7523687381000001
 40
1.0
 40
1.0
 40
1.0
 40
1.0
 10
708.8096692776887
 20
1682.3790422699
 30
0.0
 10
708.5625461770887
 20
1682.4513226653
 30
0.0
 10
708.0908383276887
 20
1682.6384572869
 30
0.0
 10
707.4328170311887
 20
1683.0001086812
 30
0.0
 10
706.7435644105887
 20
1683.281964479
 30
0.0
 10
706.2475496558886
 20
1683.3528200528
 30
0.0
 10
706.0003464216886
 20
1683.3527899755
 30
0.0
  0
SPLINE
  5
523
330
21D
100
AcDbEntity
  8
0
  6
Continuous
 62
     9
100
AcDbSpline
210
0.0
220
0.0
230
1.0
 70
     8
 71
     3
 72
    15
 73
    11
 74
     0
 42
0.0000000001
 43
0.0000000001
 40
0.0
 40
0.0
 40
0.0
 40
0.0
 40
0.0070059353
 40
0.0222140845
 40
0.0795911789
 40
0.1720219
 40
0.2959011384
 40
0.4467401354
 40
0.6189304521
 40
1.0
 40
1.0
 40
1.0
 40
1.0
 10
624.3545827938886
 20
1681.4574997854
 30
0.0
 10
624.3548277441886
 20
1681.4621737154
 30
0.0
 10
624.3710047969886
 20
1681.4710215405
 30
0.0
 10
624.4193757803887
 20
1681.4815732895
 30
0.0
 10
624.5329123223887
 20
1681.4928058924
 30
0.0
 10
624.7135957160886
 20
1681.4992345819
 30
0.0
 10
624.9597429218886
 20
1681.5015958757
 30
0.0
 10
625.2579895117886
 20
1681.4983219635
 30
0.0
 10
625.7283591693886
 20
1681.4866041137
 30
0.0
 10
626.0976137493886
 20
1681.4707868224
 30
0.0
 10
626.3518418633887
 20
1681.4574997854
 30
0.0
  0
SPLINE
  5
524
330
21D
100
AcDbEntity
  8
0
  6
Continuous
 62
     9
100
AcDbSpline
210
0.0
220
0.0
230
1.0
 70
     8
 71
     3
 72
    15
 73
    11
 74
     0
 42
0.0000000001
 43
0.0000000001
 40
0.0
 40
0.0
 40
0.0
 40
0.0
 40
0.3812352322
 40
0.553425983
 40
0.7042498131999999
 40
0.8280893693999999
 40
0.9204723737
 40
0.9778116734000001
 40
0.9930071439
 40
1.0
 40
1.0
 40
1.0
 40
1.0
 10
706.0003464143886
 20
1681.4574997854
 30
0.0
 10
706.2529451206887
 20
1681.4839762596
 30
0.0
 10
706.6199620917887
 20
1681.5189823735
 30
0.0
 10
707.0878798588885
 20
1681.5552023965
 30
0.0
 10
707.3846856818886
 20
1681.5740406195
 30
0.0
 10
707.6298744695886
 20
1681.5845599553
 30
0.0
 10
707.8100544001886
 20
1681.5876177536
 30
0.0
 10
707.9236593824887
 20
1681.5824002101
 30
0.0
 10
707.9723286219887
 20
1681.574451335
 30
0.0
 10
707.9889032375888
 20
1681.5665179851
 30
0.0
 10
707.9893902050887
 20
1681.5618847994
 30
0.0
  0
SPLINE
  5
529
330
21D
100
AcDbEntity
  8
0
  6
Continuous
 62
     9
100
AcDbSpline
210
0.0
220
0.0
230
1.0
 70
     8
 71
     3
 72
    18
 73
    14
 74
     0
 42
0.0000000001
 43
0.0000000001
 40
0.0
 40
0.0
 40
0.0
 40
0.0
 40
0.1974310903
 40
0.3865480606
 40
0.5594768986
 40
0.7101994394
 40
0.8334191858
 40
0.8833663741999998
 40
0.9248704509000001
 40
0.9574860805
 40
0.9809904905999999
 40
0.9952167598
 40
1.0
 40
1.0
 40
1.0
 40
1.0
 10
823.7924685461887
 20
1657.3165717889
 30
0.0
 10
823.7974258086888
 20
1657.4412120202
 30
0.0
 10
823.8071780048887
 20
1657.6852437853
 30
0.0
 10
823.8214452008888
 20
1658.038430234
 30
0.0
 10
823.8346445610886
 20
1658.3621590421
 30
0.0
 10
823.8463988026888
 20
1658.6441729746
 30
0.0
 10
823.8548582756887
 20
1658.8488258524
 30
0.0
 10
823.8609798795888
 20
1658.9840154322
 30
0.0
 10
823.8638582576886
 20
1659.0630077614
 30
0.0
 10
823.8681715552885
 20
1659.1228368679
 30
0.0
 10
823.8668304163887
 20
1659.171323508999
 30
0.0
 10
823.8743552724885
 20
1659.190898182
 30
0.0
 10
823.8687137654885
 20
1659.2104483277
 30
0.0
 10
823.8717334861886
 20
1659.2103285558
 30
0.0
  0
SPLINE
  5
52A
330
21D
100
AcDbEntity
  8
0
  6
Continuous
 62
     9
100
AcDbSpline
210
0.0
220
0.0
230
1.0
 70
     8
 71
     3
 72
    21
 73
    17
 74
     0
 42
0.0000000001
 43
0.0000000001
 40
0.0
 40
0.0
 40
0.0
 40
0.0
 40
0.1935453297
 40
0.3796643141
 40
0.5514377979999999
 40
0.7027466165
 40
0.7689911109000001
 40
0.8280690417
 40
0.8793526324
 40
0.9222087893000001
 40
0.9560928107999998
 40
0.9805083801
 40
0.989046564
 40
0.9951172632999998
 40
0.9987236384999999
 40
1.0
 40
1.0
 40
1.0
 40
1.0
 10
731.7712686910886
 20
1657.3026885673
 30
0.0
 10
731.3908093468885
 20
1657.2171296554
 30
0.0
 10
730.6362597223888
 20
1657.0837051693
 30
0.0
 10
729.5277376807887
 20
1656.990165686799
 30
0.0
 10
728.5006376442886
 20
1656.9916733125
 30
0.0
 10
727.7178754782885
 20
1657.0522711787
 30
0.0
 10
727.1648747884888
 20
1657.122280236199
 30
0.0
 10
726.8131178559886
 20
1657.1763922569
 30
0.0
 10
726.5091711011887
 20
1657.2300765057
 30
0.0
 10
726.2556584545887
 20
1657.2788565638
 30
0.0
 10
726.0564291727884
 20
1657.3191392087
 30
0.0
 10
725.9232005941885
 20
1657.345558648
 30
0.0
 10
725.8473404513885
 20
1657.359224288599
 30
0.0
 10
725.8084238489886
 20
1657.3644180108
 30
0.0
 10
725.7909703308887
 20
1657.3664331168
 30
0.0
 10
725.7762178798887
 20
1657.3653789181
 30
0.0
 10
725.7763406413885
 20
1657.3628101976
 30
0.0
  0
SPLINE
  5
52B
330
21D
100
AcDbEntity
  8
0
  6
Continuous
 62
     9
100
AcDbSpline
210
0.0
220
0.0
230
1.0
 70
     8
 71
     3
 72
    19
 73
    15
 74
     0
 42
0.0000000001
 43
0.0000000001
 40
0.0
 40
0.0
 40
0.0
 40
0.0
 40
0.0055218466
 40
0.0204162047
 40
0.0447494234
 40
0.0783298609
 40
0.120799146
 40
0.1717665053
 40
0.2306999483
 40
0.2969906774
 40
0.4489048123
 40
0.6212632387000001
 40
0.8074151998999999
 40
1.0
 40
1.0
 40
1.0
 40
1.0
 10
725.7763406413885
 20
1657.3628101976
 30
0.0
 10
725.7758211615887
 20
1657.372196776
 30
0.0
 10
725.7274114764887
 20
1657.3777642125
 30
0.0
 10
725.6667211248887
 20
1657.398514213699
 30
0.0
 10
725.5370279340886
 20
1657.4175686578
 30
0.0
 10
725.3715234703886
 20
1657.445380933699
 30
0.0
 10
725.1563838150887
 20
1657.4768663638
 30
0.0
 10
724.9000869363885
 20
1657.5141385279
 30
0.0
 10
724.6030107272888
 20
1657.556663958
 30
0.0
 10
724.1360897313886
 20
1657.6241407063
 30
0.0
 10
723.4783492777885
 20
1657.7219472819
 30
0.0
 10
722.6200739609887
 20
1657.8580785217
 30
0.0
 10
721.6952686921886
 20
1658.0164582848
 30
0.0
 10
721.0613183456887
 20
1658.134405921
 30
0.0
 10
720.7394745421886
 20
1658.1970074493
 30
0.0
  0
SPLINE
  5
52C
330
21D
100
AcDbEntity
  8
0
  6
Continuous
 62
     9
100
AcDbSpline
210
0.0
220
0.0
230
1.0
 70
     8
 71
     3
 72
    22
 73
    18
 74
     0
 42
0.0000000001
 43
0.0000000001
 40
0.0
 40
0.0
 40
0.0
 40
0.0
 40
0.0013446511
 40
0.0050238538
 40
0.0110771394
 40
0.01950106
 40
0.0302865628
 40
0.0434111092
 40
0.0765258363
 40
0.1185335933
 40
0.1690354768
 40
0.2275307939
 40
0.2934710236
 40
0.4450307803000001
 40
0.6178207771000001
 40
0.8052389714
 40
1.0
 40
1.0
 40
1.0
 40
1.0
 10
833.7942825995888
 20
1657.0204572422
 30
0.0
 10
833.7940019210886
 20
1657.0249341982
 30
0.0
 10
833.7700180286887
 20
1657.0262148132
 30
0.0
 10
833.7403934058887
 20
1657.033690368
 30
0.0
 10
833.6761854314886
 20
1657.0380856167
 30
0.0
 10
833.5938529269888
 20
1657.0449787399
 30
0.0
 10
833.4855356307887
 20
1657.051464197
 30
0.0
 10
833.2958894370886
 20
1657.0618539576
 30
0.0
 10
833.0015913355888
 20
1657.0750639614
 30
0.0
 10
832.5829126774886
 20
1657.091405504
 30
0.0
 10
832.0794323889886
 20
1657.1088642762
 30
0.0
 10
831.4961460292886
 20
1657.1273870095
 30
0.0
 10
830.5758237293886
 20
1657.1545454804
 30
0.0
 10
829.2742907086887
 20
1657.1895586167
 30
0.0
 10
827.5675584425886
 20
1657.231826416
 30
0.0
 10
825.7166825506887
 20
1657.2747435182
 30
0.0
 10
824.4420418738886
 20
1657.3027062683
 30
0.0
 10
823.7924685461887
 20
1657.3165717889
 30
0.0
  0
SPLINE
  5
52D
330
21D
100
AcDbEntity
  8
7_ALL_FEATURES
  6
Continuous
 62
     7
100
AcDbSpline
210
0.0
220
0.0
230
1.0
 70
     8
 71
     3
 72
     8
 73
     4
 74
     0
 42
0.0000000001
 43
0.0000000001
 40
0.0
 40
0.0
 40
0.0
 40
0.0
 40
1.0
 40
1.0
 40
1.0
 40
1.0
 10
1022.486141945688
 20
1689.4206570297
 30
0.0
 10
931.1417207048886
 20
1691.7300933839
 30
0.0
 10
839.7972104370888
 20
1694.0360090689
 30
0.0
 10
748.4526524724885
 20
1696.3400312788
 30
0.0
  0
LINE
  5
52E
330
21D
100
AcDbEntity
  8
0
  6
Continuous
 62
     7
100
AcDbLine
 10
741.2043694895888
 20
1696.5228473038
 30
0.0
 11
747.2624073110887
 21
1696.3914466495
 31
0.0
1001
ACAD
1000
RTMaterial
1005
0
  0
LINE
  5
52F
330
21D
100
AcDbEntity
  8
7_ALL_FEATURES
  6
Continuous
 62
     7
100
AcDbLine
 10
1207.759848725988
 20
1684.726659274
 30
0.0
 11
1205.248705659589
 21
1684.7903106139
 31
0.0
1001
ACAD
1000
RTMaterial
1005
0
  0
SPLINE
  5
530
330
21D
100
AcDbEntity
  8
7_ALL_FEATURES
  6
Continuous
 62
     9
100
AcDbSpline
210
0.0
220
0.0
230
1.0
 70
     8
 71
     3
 72
     8
 73
     4
 74
     0
 42
0.0000000001
 43
0.0000000001
 40
0.0
 40
0.0
 40
0.0
 40
0.0
 40
1.0
 40
1.0
 40
1.0
 40
1.0
 10
1025.134268561088
 20
1689.3572933717
 30
0.0
 10
1024.251570998589
 20
1689.3788821767
 30
0.0
 10
1023.368866783488
 20
1689.4002142023
 30
0.0
 10
1022.486141945688
 20
1689.4206573959
 30
0.0
  0
LINE
  5
531
330
21D
100
AcDbEntity
  8
7_ALL_FEATURES
  6
Continuous
 62
     9
100
AcDbLine
 10
1209.697922520088
 20
1682.8322070704
 30
0.0
 11
1207.158905290288
 21
1682.8958571457
 31
0.0
1001
ACAD
1000
RTMaterial
1005
0
  0
LINE
  5
532
330
21D
100
AcDbEntity
  8
7_ALL_FEATURES
  6
Continuous
 62
     9
100
AcDbLine
 10
1207.158905290288
 20
1682.8958571457
 30
0.0
 11
1025.113283753188
 21
1687.4625961297
 31
0.0
1001
ACAD
1000
RTMaterial
1005
0
  0
LINE
  5
533
330
21D
100
AcDbEntity
  8
7_ALL_FEATURES
  6
Continuous
 62
     9
100
AcDbLine
 10
1205.248705659589
 20
1684.7903106139
 30
0.0
 11
1025.134268561088
 21
1689.3572933717
 31
0.0
1001
ACAD
1000
RTMaterial
1005
0
  0
SPLINE
  5
534
330
21D
100
AcDbEntity
  8
7_ALL_FEATURES
  6
Continuous
 62
     9
100
AcDbSpline
210
0.0
220
0.0
230
1.0
 70
     8
 71
     3
 72
     8
 73
     4
 74
     0
 42
0.0000000001
 43
0.0000000001
 40
0.0
 40
0.0
 40
0.0
 40
0.0
 40
1.0
 40
1.0
 40
1.0
 40
1.0
 10
1022.468284953888
 20
1687.5245849635
 30
0.0
 10
931.1117500211887
 20
1689.7486382192
 30
0.0
 10
839.7567718753887
 20
1692.0365285698
 30
0.0
 10
748.4022217287886
 20
1694.3406673018
 30
0.0
  0
LINE
  5
535
330
21D
100
AcDbEntity
  8
7_ALL_FEATURES
  6
Continuous
 62
     9
100
AcDbLine
 10
1025.113300870089
 20
1687.4633531828
 30
0.0
 11
1022.468293343188
 21
1687.5249651328
 31
0.0
1001
ACAD
1000
RTMaterial
1005
0
  0
SPLINE
  5
536
330
21D
100
AcDbEntity
  8
7_ALL_FEATURES
  6
Continuous
 62
     9
100
AcDbSpline
210
0.0
220
0.0
230
1.0
 70
     8
 71
     3
 72
     9
 73
     5
 74
     0
 42
0.0000000001
 43
0.0000000001
 40
0.0
 40
0.0
 40
0.0
 40
0.0
 40
0.5023902050000001
 40
1.0
 40
1.0
 40
1.0
 40
1.0
 10
1207.158880718789
 20
1682.8958558397
 30
0.0
 10
1207.134257999888
 20
1683.3789749402
 30
0.0
 10
1206.713618639089
 20
1684.3593304725
 30
0.0
 10
1205.727637504289
 20
1684.7760822326
 30
0.0
 10
1205.248705655388
 20
1684.7903104719
 30
0.0
  0
SPLINE
  5
537
330
21D
100
AcDbEntity
  8
7_ALL_FEATURES
  6
Continuous
 62
     9
100
AcDbSpline
210
0.0
220
0.0
230
1.0
 70
     8
 71
     3
 72
    16
 73
    12
 74
     0
 42
0.0000000001
 43
0.0000000001
 40
0.0
 40
0.0
 40
0.0
 40
0.0
 40
0.3846858435
 40
0.5576352717000001
 40
0.7081385502
 40
0.8313937185
 40
0.9229062723
 40
0.9557755368999998
 40
0.9797261813
 40
0.9945250704000001
 40
1.0
 40
1.0
 40
1.0
 40
1.0
 10
1025.113284337189
 20
1687.4625961149
 30
0.0
 10
1025.119062479689
 20
1687.7055514747
 30
0.0
 10
1025.126663748288
 20
1688.0577819392
 30
0.0
 10
1025.134341275388
 20
1688.5050182545
 30
0.0
 10
1025.138348173989
 20
1688.787343677
 30
0.0
 10
1025.140024593989
 20
1689.0176937533
 30
0.0
 10
1025.141116058288
 20
1689.1750119805
 30
0.0
 10
1025.138975622789
 20
1689.2675081788
 30
0.0
 10
1025.139813303888
 20
1689.3148029467
 30
0.0
 10
1025.134915021889
 20
1689.338923211099
 30
0.0
 10
1025.137415913389
 20
1689.3558590625
 30
0.0
 10
1025.134268561289
 20
1689.3572933777
 30
0.0
  0
SPLINE
  5
538
330
21D
100
AcDbEntity
  8
7_ALL_FEATURES
  6
Continuous
 62
     9
100
AcDbSpline
210
0.0
220
0.0
230
1.0
 70
     8
 71
     3
 72
    16
 73
    12
 74
     0
 42
0.0000000001
 43
0.0000000001
 40
0.0
 40
0.0
 40
0.0
 40
0.0
 40
0.3846915789
 40
0.5576588996999999
 40
0.7081780482
 40
0.8314407973999999
 40
0.9229472045999999
 40
0.9558076773999999
 40
0.9797461609999999
 40
0.9945309957999999
 40
1.0
 40
1.0
 40
1.0
 40
1.0
 10
1022.468284953788
 20
1687.524584963
 30
0.0
 10
1022.473815760688
 20
1687.7677258394
 30
0.0
 10
1022.481121633989
 20
1688.1202339991
 30
0.0
 10
1022.488469033288
 20
1688.5678216746
 30
0.0
 10
1022.492263581789
 20
1688.8503885692
 30
0.0
 10
1022.493751722389
 20
1689.080896346
 30
0.0
 10
1022.494645528388
 20
1689.2383718463
 30
0.0
 10
1022.492362409788
 20
1689.3308507381
 30
0.0
 10
1022.493033740689
 20
1689.3782655293
 30
0.0
 10
1022.488109845888
 20
1689.4021760362
 30
0.0
 10
1022.490404599788
 20
1689.419323611
 30
0.0
 10
1022.487203450388
 20
1689.4206301913
 30
0.0
  0
SPLINE
  5
539
330
21D
100
AcDbEntity
  8
7_ALL_FEATURES
  6
Continuous
 62
     9
100
AcDbSpline
210
0.0
220
0.0
230
1.0
 70
     8
 71
     3
 72
    12
 73
     8
 74
     0
 42
0.0000000001
 43
0.0000000001
 40
0.0
 40
0.0
 40
0.0
 40
0.0
 40
0.1247844795
 40
0.2498373421
 40
0.4999761353000001
 40
0.7501125728
 40
1.0
 40
1.0
 40
1.0
 40
1.0
 10
936.2951930729886
 20
1659.8528252604
 30
0.0
 10
940.1571806738886
 20
1659.660937265
 30
0.0
 10
947.8895718055888
 20
1659.2787390119
 30
0.0
 10
963.3608046055888
 20
1658.4578439772
 30
0.0
 10
982.7123871726888
 20
1657.4594506047
 30
0.0
 10
1005.926723978789
 20
1656.2541323804
 30
0.0
 10
1021.400664052489
 20
1655.4562037445
 30
0.0
 10
1029.134969790988
 20
1655.0816033682
 30
0.0
  0
LINE
  5
53A
330
21D
100
AcDbEntity
  8
7_ALL_FEATURES
  6
Continuous
 62
     9
100
AcDbLine
 10
1029.134969790988
 20
1655.0816033682
 30
0.0
 11
1030.062694840788
 21
1655.0366981401
 31
0.0
1001
ACAD
1000
RTMaterial
1005
0
  0
SPLINE
  5
53B
330
21D
100
AcDbEntity
  8
7_ALL_FEATURES
  6
Continuous
 62
     9
100
AcDbSpline
210
0.0
220
0.0
230
1.0
 70
     8
 71
     3
 72
     9
 73
     5
 74
     0
 42
0.0000000001
 43
0.0000000001
 40
0.0
 40
0.0
 40
0.0
 40
0.0
 40
0.2513568759
 40
1.0
 40
1.0
 40
1.0
 40
1.0
 10
1030.062694840788
 20
1655.0366981401
 30
0.0
 10
1031.249827163088
 20
1654.9792700103
 30
0.0
 10
1035.972754580988
 20
1654.7514531736
 30
0.0
 10
1040.695622126889
 20
1654.5223924787
 30
0.0
 10
1044.231451362888
 20
1654.3527138281
 30
0.0
  0
SPLINE
  5
53C
330
21D
100
AcDbEntity
  8
7_ALL_FEATURES
  6
Continuous
 62
     9
100
AcDbSpline
210
0.0
220
0.0
230
1.0
 70
     8
 71
     3
 72
     9
 73
     5
 74
     0
 42
0.0000000001
 43
0.0000000001
 40
0.0
 40
0.0
 40
0.0
 40
0.0
 40
0.2305059025
 40
1.0
 40
1.0
 40
1.0
 40
1.0
 10
908.1181879237886
 20
1659.4660037841
 30
0.0
 10
908.0693184578889
 20
1659.4507727816
 30
0.0
 10
907.8557299700888
 20
1659.3898283275
 30
0.0
 10
907.6355115502886
 20
1659.3525255425
 30
0.0
 10
907.4654018064887
 20
1659.336319485
 30
0.0
  0
SPLINE
  5
53D
330
21D
100
AcDbEntity
  8
7_ALL_FEATURES
  6
Continuous
 62
     9
100
AcDbSpline
210
0.0
220
0.0
230
1.0
 70
     8
 71
     3
 72
     9
 73
     5
 74
     0
 42
0.0000000001
 43
0.0000000001
 40
0.0
 40
0.0
 40
0.0
 40
0.0
 40
0.2656347963
 40
1.0
 40
1.0
 40
1.0
 40
1.0
 10
888.7652246628887
 20
1659.319499915
 30
0.0
 10
888.6890974686886
 20
1659.3195363781
 30
0.0
 10
888.4026255022886
 20
1659.3274459205
 30
0.0
 10
888.1166381321886
 20
1659.368515834
 30
0.0
 10
887.9126049997887
 20
1659.420123672999
 30
0.0
  0
SPLINE
  5
53E
330
21D
100
AcDbEntity
  8
7_ALL_FEATURES
  6
Continuous
 62
     9
100
AcDbSpline
210
0.0
220
0.0
230
1.0
 70
     8
 71
     3
 72
     9
 73
     5
 74
     0
 42
0.0000000001
 43
0.0000000001
 40
0.0
 40
0.0
 40
0.0
 40
0.0
 40
0.3496976584
 40
1.0
 40
1.0
 40
1.0
 40
1.0
 10
1105.945297242389
 20
1659.1164153748
 30
0.0
 10
1105.943015830988
 20
1659.1036774273
 30
0.0
 10
1105.936197419389
 20
1659.0696261336
 30
0.0
 10
1105.910153089389
 20
1659.0264723436
 30
0.0
 10
1105.886088512588
 20
1659.0264885241
 30
0.0
  0
SPLINE
  5
53F
330
21D
100
AcDbEntity
  8
7_ALL_FEATURES
  6
Continuous
 62
     9
100
AcDbSpline
210
0.0
220
0.0
230
1.0
 70
     8
 71
     3
 72
     8
 73
     4
 74
     0
 42
0.0000000001
 43
0.0000000001
 40
0.0
 40
0.0
 40
0.0
 40
0.0
 40
1.0
 40
1.0
 40
1.0
 40
1.0
 10
887.7499757962887
 20
1659.4660037841
 30
0.0
 10
887.6783873104887
 20
1659.5268521884
 30
0.0
 10
887.6101160132886
 20
1659.591739171
 30
0.0
 10
887.5449190807884
 20
1659.659391219
 30
0.0
  0
SPLINE
  5
540
330
21D
100
AcDbEntity
  8
7_ALL_FEATURES
  6
Continuous
 62
     9
100
AcDbSpline
210
0.0
220
0.0
230
1.0
 70
     8
 71
     3
 72
     8
 73
     4
 74
     0
 42
0.0000000001
 43
0.0000000001
 40
0.0
 40
0.0
 40
0.0
 40
0.0
 40
1.0
 40
1.0
 40
1.0
 40
1.0
 10
887.5449190807884
 20
1659.659391219
 30
0.0
 10
887.4849131768884
 20
1659.7216567602
 30
0.0
 10
887.4273965597888
 20
1659.78638137
 30
0.0
 10
887.3720560830888
 20
1659.8528278729
 30
0.0
  0
SPLINE
  5
541
330
21D
100
AcDbEntity
  8
7_ALL_FEATURES
  6
Continuous
 62
     9
100
AcDbSpline
210
0.0
220
0.0
230
1.0
 70
     8
 71
     3
 72
     8
 73
     4
 74
     0
 42
0.0000000001
 43
0.0000000001
 40
0.0
 40
0.0
 40
0.0
 40
0.0
 40
1.0
 40
1.0
 40
1.0
 40
1.0
 10
908.4040205073886
 20
1659.7462586392
 30
0.0
 10
908.3305897870886
 20
1659.6645794898
 30
0.0
 10
908.2532997040887
 20
1659.5861008442
 30
0.0
 10
908.1715960820886
 20
1659.5126973545
 30
0.0
  0
SPLINE
  5
542
330
21D
100
AcDbEntity
  8
7_ALL_FEATURES
  6
Continuous
 62
     9
100
AcDbSpline
210
0.0
220
0.0
230
1.0
 70
     8
 71
     3
 72
     9
 73
     5
 74
     0
 42
0.0000000001
 43
0.0000000001
 40
0.0
 40
0.0
 40
0.0
 40
0.0
 40
0.2529919453
 40
1.0
 40
1.0
 40
1.0
 40
1.0
 10
1090.131341968588
 20
1659.0264796651
 30
0.0
 10
1090.010497573488
 20
1659.0265277369
 30
0.0
 10
1089.532825988789
 20
1659.053943795
 30
0.0
 10
1089.064208613889
 20
1659.1825413465
 30
0.0
 10
1088.733361461188
 20
1659.3161762899
 30
0.0
  0
SPLINE
  5
543
330
21D
100
AcDbEntity
  8
7_ALL_FEATURES
  6
Continuous
 62
     9
100
AcDbSpline
210
0.0
220
0.0
230
1.0
 70
     8
 71
     3
 72
     8
 73
     4
 74
     0
 42
0.0000000001
 43
0.0000000001
 40
0.0
 40
0.0
 40
0.0
 40
0.0
 40
1.0
 40
1.0
 40
1.0
 40
1.0
 10
1088.733361461188
 20
1659.3161762899
 30
0.0
 10
1088.380304480488
 20
1659.4587821708
 30
0.0
 10
1088.044105129488
 20
1659.6451472755
 30
0.0
 10
1087.724958746989
 20
1659.8528279328
 30
0.0
  0
SPLINE
  5
544
330
21D
100
AcDbEntity
  8
7_ALL_FEATURES
  6
Continuous
 62
     9
100
AcDbSpline
210
0.0
220
0.0
230
1.0
 70
     8
 71
     3
 72
     8
 73
     4
 74
     0
 42
0.0000000001
 43
0.0000000001
 40
0.0
 40
0.0
 40
0.0
 40
0.0
 40
1.0
 40
1.0
 40
1.0
 40
1.0
 10
908.1705307626886
 20
1659.7516302147
 30
0.0
 10
908.1370206591886
 20
1659.6608218689
 30
0.0
 10
908.1198589833887
 20
1659.5628011502
 30
0.0
 10
908.1180857882886
 20
1659.4660233713
 30
0.0
  0
SPLINE
  5
545
330
21D
100
AcDbEntity
  8
7_ALL_FEATURES
  6
Continuous
 62
     9
100
AcDbSpline
210
0.0
220
0.0
230
1.0
 70
     8
 71
     3
 72
     9
 73
     5
 74
     0
 42
0.0000000001
 43
0.0000000001
 40
0.0
 40
0.0
 40
0.0
 40
0.0
 40
0.4775322119000001
 40
1.0
 40
1.0
 40
1.0
 40
1.0
 10
888.0295451630885
 20
1659.8528278729
 30
0.0
 10
888.1805246283887
 20
1659.8528277739
 30
0.0
 10
888.5019576224886
 20
1659.739615344
 30
0.0
 10
888.6988386960886
 20
1659.4707596481
 30
0.0
 10
888.7652246576886
 20
1659.3194999165
 30
0.0
  0
SPLINE
  5
546
330
21D
100
AcDbEntity
  8
7_ALL_FEATURES
  6
Continuous
 62
     9
100
AcDbSpline
210
0.0
220
0.0
230
1.0
 70
     8
 71
     3
 72
     9
 73
     5
 74
     0
 42
0.0000000001
 43
0.0000000001
 40
0.0
 40
0.0
 40
0.0
 40
0.0
 40
0.4775278261000001
 40
1.0
 40
1.0
 40
1.0
 40
1.0
 10
907.8386656646888
 20
1659.8528278729
 30
0.0
 10
907.6876878581886
 20
1659.8528277746
 30
0.0
 10
907.3662575076888
 20
1659.7396124664
 30
0.0
 10
907.1693723979885
 20
1659.4707625206
 30
0.0
 10
907.1029827215886
 20
1659.3195032303
 30
0.0
  0
SPLINE
  5
547
330
21D
100
AcDbEntity
  8
7_ALL_FEATURES
  6
Continuous
 62
     9
100
AcDbSpline
210
0.0
220
0.0
230
1.0
 70
     8
 71
     3
 72
     8
 73
     4
 74
     0
 42
0.0000000001
 43
0.0000000001
 40
0.0
 40
0.0
 40
0.0
 40
0.0
 40
1.0
 40
1.0
 40
1.0
 40
1.0
 10
887.6975437892886
 20
1659.7515939338
 30
0.0
 10
887.7310432162888
 20
1659.660788314
 30
0.0
 10
887.7482002200887
 20
1659.5627752358
 30
0.0
 10
887.7499756275888
 20
1659.4660037517
 30
0.0
  0
SPLINE
  5
548
330
21D
100
AcDbEntity
  8
7_ALL_FEATURES
  6
Continuous
 62
     9
100
AcDbSpline
210
0.0
220
0.0
230
1.0
 70
     8
 71
     3
 72
    10
 73
     6
 74
     0
 42
0.0000000001
 43
0.0000000001
 40
0.0
 40
0.0
 40
0.0
 40
0.0
 40
0.1849343014
 40
0.5331045066
 40
1.0
 40
1.0
 40
1.0
 40
1.0
 10
1089.701183209689
 20
1659.8528278727
 30
0.0
 10
1089.735861307088
 20
1659.852829325
 30
0.0
 10
1089.836154873989
 20
1659.8220191839
 30
0.0
 10
1089.964708157489
 20
1659.6748149285
 30
0.0
 10
1090.024545082388
 20
1659.5332718187
 30
0.0
 10
1090.051541824788
 20
1659.449987816
 30
0.0
  0
SPLINE
  5
549
330
21D
100
AcDbEntity
  8
7_ALL_FEATURES
  6
Continuous
 62
     9
100
AcDbSpline
210
0.0
220
0.0
230
1.0
 70
     8
 71
     3
 72
     9
 73
     5
 74
     0
 42
0.0000000001
 43
0.0000000001
 40
0.0
 40
0.0
 40
0.0
 40
0.0
 40
0.2350408821
 40
1.0
 40
1.0
 40
1.0
 40
1.0
 10
1090.051541824788
 20
1659.449987816
 30
0.0
 10
1090.061966973488
 20
1659.4178265984
 30
0.0
 10
1090.101176016388
 20
1659.2793480432
 30
0.0
 10
1090.122889938589
 20
1659.136187627999
 30
0.0
 10
1090.131341968588
 20
1659.0264796652
 30
0.0
  0
SPLINE
  5
54A
330
21D
100
AcDbEntity
  8
7_ALL_FEATURES
  6
Continuous
 62
     9
100
AcDbSpline
210
0.0
220
0.0
230
1.0
 70
     8
 71
     3
 72
     8
 73
     4
 74
     0
 42
0.0000000001
 43
0.0000000001
 40
0.0
 40
0.0
 40
0.0
 40
0.0
 40
1.0
 40
1.0
 40
1.0
 40
1.0
 10
1106.569177664488
 20
1659.8067784634
 30
0.0
 10
1106.475328218588
 20
1659.7773503114
 30
0.0
 10
1106.384855654888
 20
1659.7334849413
 30
0.0
 10
1106.303824826189
 20
1659.677737839
 30
0.0
  0
SPLINE
  5
54B
330
21D
100
AcDbEntity
  8
7_ALL_FEATURES
  6
Continuous
 62
     9
100
AcDbSpline
210
0.0
220
0.0
230
1.0
 70
     8
 71
     3
 72
     8
 73
     4
 74
     0
 42
0.0000000001
 43
0.0000000001
 40
0.0
 40
0.0
 40
0.0
 40
0.0
 40
1.0
 40
1.0
 40
1.0
 40
1.0
 10
1106.177639003389
 20
1659.57475022
 30
0.0
 10
1106.101576630589
 20
1659.501536058
 30
0.0
 10
1106.036663734689
 20
1659.4148959334
 30
0.0
 10
1105.987433042489
 20
1659.3215035514
 30
0.0
  0
SPLINE
  5
54D
330
21D
100
AcDbEntity
  8
0
  6
Continuous
 62
     9
100
AcDbSpline
210
0.0
220
0.0
230
1.0
 70
     8
 71
     3
 72
     9
 73
     5
 74
     0
 42
0.0000000001
 43
0.0000000001
 40
0.0
 40
0.0
 40
0.0
 40
0.0
 40
0.5464988612
 40
1.0
 40
1.0
 40
1.0
 40
1.0
 10
1021.401088039188
 20
1647.3691653446
 30
0.0
 10
1046.570566435389
 20
1647.15588649
 30
0.0
 10
1092.627699254288
 20
1646.936450058
 30
0.0
 10
1138.683977720188
 20
1646.5978342059
 30
0.0
 10
1159.570759385388
 20
1646.475898090599
 30
0.0
  0
LINE
  5
54E
330
21D
100
AcDbEntity
  8
0
  6
Continuous
 62
     9
100
AcDbLine
 10
1159.570759385388
 20
1646.475898090599
 30
0.0
 11
1160.251109731889
 21
1646.4719272395
 31
0.0
1001
ACAD
1000
RTMaterial
1005
0
  0
LINE
  5
54F
330
21D
100
AcDbEntity
  8
0
  6
Continuous
 62
     9
100
AcDbLine
 10
1160.251109731889
 20
1646.4719272395
 30
0.0
 11
1207.789803668888
 21
1646.195230851
 31
0.0
1001
ACAD
1000
RTMaterial
1005
0
  0
SPLINE
  5
550
330
21D
100
AcDbEntity
  8
0
  6
Continuous
 62
     9
100
AcDbSpline
210
0.0
220
0.0
230
1.0
 70
     8
 71
     3
 72
    11
 73
     7
 74
     0
 42
0.0000000001
 43
0.0000000001
 40
0.0
 40
0.0
 40
0.0
 40
0.0
 40
0.2500000397
 40
0.500000051
 40
0.7500000405
 40
1.0
 40
1.0
 40
1.0
 40
1.0
 10
622.9340858088886
 20
1648.0605258265
 30
0.0
 10
656.1397071230888
 20
1648.0279482972
 30
0.0
 10
722.5508713125886
 20
1647.9014604452
 30
0.0
 10
822.1675835442885
 20
1647.7098228412
 30
0.0
 10
921.7843000938884
 20
1647.5240089922
 30
0.0
 10
988.1955375259886
 20
1647.4496410535
 30
0.0
 10
1021.401070241989
 20
1647.3706618138
 30
0.0
  0
ELLIPSE
  5
551
330
21D
100
AcDbEntity
  8
0
  6
Continuous
 62
     7
100
AcDbEllipse
 10
198.9008840781
 20
1012.2473528613
 30
0.0
 11
-14.3184649819
 21
18.4093708634
 31
0.0
210
0.0
220
0.0
230
1.0
 40
0.1277337849
 41
-4.676866536999999
 42
-4.5083793073
  0
ELLIPSE
  5
552
330
21D
100
AcDbEntity
  8
0
  6
Continuous
 62
     7
100
AcDbEllipse
 10
189.7707178675
 20
1012.2473528613
 30
0.0
 11
-11.7156086283
 21
18.4469229395
 31
0.0
210
0.0
220
0.0
230
0.9999999999999998
 40
0.1195302186
 41
-4.6527846176
 42
-4.5514775146
  0
ELLIPSE
  5
553
330
21D
100
AcDbEntity
  8
0
  6
Continuous
 62
     7
100
AcDbEllipse
 10
189.526359189
 20
1012.2473528613
 30
0.0
 11
11.5373711611
 21
18.4491916742
 31
0.0
210
0.0
220
0.0
230
0.9999999999999998
 40
0.1187580475
 41
-1.7327049708
 42
-1.632038454399999
  0
ELLIPSE
  5
554
330
21D
100
AcDbEntity
  8
0
  6
Continuous
 62
     7
100
AcDbEllipse
 10
185.7052030064
 20
1012.2473528613
 30
0.0
 11
-7.161509441699998
 21
18.4888872868
 31
0.0
210
0.0
220
0.0
230
1.0
 40
0.0895243378
 41
1.670680196999999
 42
1.934598968999999
  0
ELLIPSE
  5
555
330
21D
100
AcDbEntity
  8
0
  6
Continuous
 62
     7
100
AcDbEllipse
 10
183.445571292
 20
1012.2473528613
 30
0.0
 11
7.161859677499999
 21
18.488885407
 31
0.0
210
0.0
220
0.0
230
0.9999999999999998
 40
0.0895275288
 41
-1.9345960371
 42
-1.670677265099999
  0
ELLIPSE
  5
556
330
21D
100
AcDbEntity
  8
0
  6
Continuous
 62
     7
100
AcDbEllipse
 10
184.3543413097
 20
1012.2473528613
 30
0.0
 11
7.130430560599999
 21
18.3889063466
 31
0.0
210
0.0
220
0.0
230
1.0
 40
0.0895942173
 41
-1.843194203399999
 42
-1.7675737602
  0
ELLIPSE
  5
557
330
21D
100
AcDbEntity
  8
0
  6
Continuous
 62
     7
100
AcDbEllipse
 10
188.795527482
 20
1012.2473528613
 30
0.0
 11
-12.4625808424
 21
18.3363530453
 31
0.0
210
0.0
220
0.0
230
1.0
 40
0.1226955596
 41
-4.659936220899999
 42
-4.530428921
  0
ELLIPSE
  5
558
330
21D
100
AcDbEntity
  8
0
  6
Continuous
 62
     7
100
AcDbEllipse
 10
184.7988953865
 20
1012.2473528613
 30
0.0
 11
-7.107736870399999
 21
18.3890280042
 31
0.0
210
0.0
220
0.0
230
1.0
 40
0.0893862323
 41
-4.393883817299999
 42
-4.347712184899999
  0
ELLIPSE
  5
559
330
21D
100
AcDbEntity
  8
0
  6
Continuous
 62
     7
100
AcDbEllipse
 10
184.3504376379
 20
1012.2473528613
 30
0.0
 11
7.097690600299999
 21
18.3890815892
 31
0.0
210
0.0
220
0.0
230
1.0
 40
0.0892939684
 41
-1.935557566999999
 42
-1.8893859346
  0
ELLIPSE
  5
55A
330
21D
100
AcDbEntity
  8
0
  6
Continuous
 62
     7
100
AcDbEllipse
 10
190.5025594209
 20
1012.2473528613
 30
0.0
 11
11.9107402692
 21
18.4443885111
 31
0.0
210
0.0
220
0.0
230
1.0
 40
0.1203421451
 41
-1.7584513468
 42
-1.628611934199999
  0
ELLIPSE
  5
55B
330
21D
100
AcDbEntity
  8
0
  6
Continuous
 62
     7
100
AcDbEllipse
 10
188.7955274819
 20
1012.2473528613
 30
0.0
 11
-12.53031226
 21
18.436007138
 31
0.0
210
0.0
220
0.0
230
1.0
 40
0.1226955596
 41
-4.6602159027
 42
-4.5304470836
  0
ELLIPSE
  5
55C
330
21D
100
AcDbEntity
  8
0
  6
Continuous
 62
     7
100
AcDbEllipse
 10
197.7543539982
 20
1012.2473528613
 30
0.0
 11
-14.3122780801
 21
18.4094682954
 31
0.0
210
0.0
220
0.0
230
1.0
 40
0.127720461
 41
-4.5663861232
 42
-4.397883822099999
  0
ELLIPSE
  5
55D
330
21D
100
AcDbEntity
  8
0
  6
Continuous
 62
     7
100
AcDbEllipse
 10
184.7973916589
 20
1012.2473528613
 30
0.0
 11
-7.159376941799997
 21
18.48889872819999
 31
0.0
210
0.0
220
0.0
230
1.0
 40
0.0895049059
 41
-4.515365638
 42
-4.440154170199999
  0
ELLIPSE
  5
55E
330
21D
100
AcDbEntity
  8
0
  6
Continuous
 62
     7
100
AcDbEllipse
 10
190.5025594209
 20
1012.2473528613
 30
0.0
 11
11.8463578894
 21
18.3446891137
 31
0.0
210
0.0
220
0.0
230
1.0
 40
0.1203421451
 41
-1.758469893
 42
-1.628922273999999
  0
ELLIPSE
  5
55F
330
21D
100
AcDbEntity
  8
0
  6
Continuous
 62
     7
100
AcDbEllipse
 10
184.3543413097
 20
1012.2473528613
 30
0.0
 11
7.169182900599999
 21
18.488846055
 31
0.0
210
0.0
220
0.0
230
1.0
 40
0.0895942173
 41
-1.8429490351
 42
-1.7677375673
  0
ELLIPSE
  5
560
330
21D
100
AcDbEntity
  8
0
  6
Continuous
 62
     7
100
AcDbEllipse
 10
184.7988953865
 20
1012.2473528613
 30
0.0
 11
-7.146365875099999
 21
18.4889683738
 31
0.0
210
0.0
220
0.0
230
1.0
 40
0.0893862323
 41
-4.394378377499999
 42
-4.348459631599999
  0
ELLIPSE
  5
561
330
21D
100
AcDbEntity
  8
0
  6
Continuous
 62
     7
100
AcDbEllipse
 10
184.3504376379
 20
1012.2473528613
 30
0.0
 11
7.1362650057
 21
18.48902225
 31
0.0
210
0.0
220
0.0
230
1.0
 40
0.0892939684
 41
-1.934810120399999
 42
-1.888891374399999
  0
ELLIPSE
  5
562
330
21D
100
AcDbEntity
  8
0
  6
Continuous
 62
     7
100
AcDbEllipse
 10
197.7543539982
 20
1012.2473528613
 30
0.0
 11
-14.2349144148
 21
18.309957656
 31
0.0
210
0.0
220
0.0
230
1.0
 40
0.127720461
 41
1.7167077306
 42
1.8861322468
  0
ELLIPSE
  5
563
330
21D
100
AcDbEntity
  8
0
  6
Continuous
 62
     7
100
AcDbEllipse
 10
184.7973916589
 20
1012.2473528613
 30
0.0
 11
-7.120677607
 21
18.3889587351
 31
0.0
210
0.0
220
0.0
230
0.9999999999999998
 40
0.0895049059
 41
-4.5155294451
 42
-4.4399090019
  0
ELLIPSE
  5
564
330
21D
100
AcDbEntity
  8
0
  6
Continuous
 62
     7
100
AcDbEllipse
 10
272.5993127232
 20
1116.0782756216
 30
0.0
 11
0.0
 21
1.001372345999999
 31
0.0
210
0.0
220
0.0
230
1.0
 40
0.9986295348
 41
-1.4894728715
 42
0.0
  0
ELLIPSE
  5
565
330
21D
100
AcDbEntity
  8
0
  6
Continuous
 62
     7
100
AcDbEllipse
 10
89.5993127232
 20
1116.0782756216
 30
0.0
 11
0.0
 21
1.001372345999999
 31
0.0
210
0.0
220
0.0
230
1.0
 40
0.9986295348
 41
0.0
 42
1.489074088699999
  0
ELLIPSE
  5
566
330
21D
100
AcDbEntity
  8
0
  6
Continuous
 62
     7
100
AcDbEllipse
 10
47.59931272319999
 20
1116.0782756216
 30
0.0
 11
0.0
 21
1.001372345999999
 31
0.0
210
0.0
220
0.0
230
1.0
 40
0.9986295348
 41
-1.4894728715
 42
0.0
  0
ELLIPSE
  5
567
330
21D
100
AcDbEntity
  8
0
  6
Continuous
 62
     7
100
AcDbEllipse
 10
339.5993127232
 20
1116.0782756216
 30
0.0
 11
0.0
 21
1.001372345999999
 31
0.0
210
0.0
220
0.0
230
1.0
 40
0.9986295348
 41
0.0
 42
1.489074088699999
  0
ELLIPSE
  5
568
330
21D
100
AcDbEntity
  8
0
  6
Continuous
 62
     7
100
AcDbEllipse
 10
15.6020574152
 20
1115.2446081693
 30
0.0
 11
1.4180924869
 21
-1.4180924869
 31
0.0
210
0.0
220
0.0
230
0.9999999999999998
 40
0.9972646885999999
 41
2.7023032198
 42
3.9256212891
  0
ELLIPSE
  5
569
330
21D
100
AcDbEntity
  8
0
  6
Continuous
 62
     7
100
AcDbEllipse
 10
15.6020574152
 20
1115.2446081693
 30
0.0
 11
-1.4180924869
 21
1.4180924869
 31
0.0
210
0.0
220
0.0
230
0.9999999999999998
 40
0.9972646885999999
 41
-0.7840286355
 42
-0.4392894338000001
  0
ELLIPSE
  5
56A
330
21D
100
AcDbEntity
  8
0
  6
Continuous
 62
     7
100
AcDbEllipse
 10
371.5965680312
 20
1115.2446081693
 30
0.0
 11
1.4180924869
 21
1.4180924869
 31
0.0
210
0.0
220
0.0
230
0.9999999999999998
 40
0.9972646885999999
 41
-0.7840286355
 42
0.7840286355
  0
ELLIPSE
  5
56B
330
21D
100
AcDbEntity
  8
0
  6
Continuous
 62
     7
100
AcDbEllipse
 10
273.0886872526
 20
1012.2473528613
 30
0.0
 11
0.0
 21
10.15
 31
0.0
210
0.0
220
0.0
230
1.0
 40
0.0261859216
 41
3.1816208306
 42
6.243157129400001
  0
ELLIPSE
  5
56C
330
21D
100
AcDbEntity
  8
0
  6
Continuous
 62
     7
100
AcDbEllipse
 10
190.5025594209
 20
1678.3528278729
 30
0.0
 11
5.0088132743
 21
18.2505640413
 31
0.0
210
0.0
220
0.0
230
1.0
 40
0.6044727029
 41
6.5829562766
 42
6.670422315599999
  0
ELLIPSE
  5
56D
330
21D
100
AcDbEntity
  8
0
  6
Continuous
 62
     7
100
AcDbEllipse
 10
188.7955274819
 20
1678.3528278729
 30
0.0
 11
-5.569806397699999
 21
18.1637649149
 31
0.0
210
0.0
220
0.0
230
1.0
 40
0.6303763983000001
 41
-0.4137804425000001
 42
-0.3263184973
  0
ELLIPSE
  5
56E
330
21D
100
AcDbEntity
  8
0
  6
Continuous
 62
     7
100
AcDbEllipse
 10
198.9008840781
 20
1678.3528278729
 30
0.0
 11
-7.5790425835
 21
17.6258612702
 31
0.0
210
0.0
220
0.0
230
0.9999999999999998
 40
0.6967905254000001
 41
-0.4878250474000001
 42
-0.4249563186
  0
ELLIPSE
  5
56F
330
21D
100
AcDbEntity
  8
0
  6
Continuous
 62
     7
100
AcDbEllipse
 10
189.7707178675
 20
1678.3528278729
 30
0.0
 11
-4.845347627799999
 21
18.2731583967
 31
0.0
210
0.0
220
0.0
230
0.9999999999999998
 40
0.5960763341
 41
-0.379071497
 42
-0.2921324726
  0
ELLIPSE
  5
570
330
21D
100
AcDbEntity
  8
0
  6
Continuous
 62
     7
100
AcDbEllipse
 10
185.7052030064
 20
1678.3528278729
 30
0.0
 11
-2.2119506208
 21
18.3808838531
 31
0.0
210
0.0
220
0.0
230
1.0
 40
0.3790843297
 41
-0.2387546504
 42
-0.1794383734
  0
ELLIPSE
  5
571
330
21D
100
AcDbEntity
  8
0
  6
Continuous
 62
     7
100
AcDbEllipse
 10
189.526359189
 20
1678.3528278729
 30
0.0
 11
4.7011476808
 21
18.2920902306
 31
0.0
210
0.0
220
0.0
230
1.0
 40
0.5883161697000001
 41
6.568620962299999
 42
6.655574700999999
  0
ELLIPSE
  5
572
330
21D
100
AcDbEntity
  8
0
  6
Continuous
 62
     7
100
AcDbEllipse
 10
198.9008840781
 20
1678.3528278729
 30
0.0
 11
-7.620233032299997
 21
17.7216539945
 31
0.0
210
0.0
220
0.0
230
0.9999999999999998
 40
0.6967905254000001
 41
-0.5123030915
 42
-0.425651699
  0
ELLIPSE
  5
573
330
21D
100
AcDbEntity
  8
0
  6
Continuous
 62
     7
100
AcDbEllipse
 10
189.7707178675
 20
1678.3528278729
 30
0.0
 11
-4.819156559599999
 21
18.1743845676
 31
0.0
210
0.0
220
0.0
230
1.0
 40
0.5960763341
 41
-0.3539015732
 42
-0.291441655
  0
ELLIPSE
  5
574
330
21D
100
AcDbEntity
  8
0
  6
Continuous
 62
     7
100
AcDbEllipse
 10
185.7052030064
 20
1678.3528278729
 30
0.0
 11
-2.223972091599999
 21
18.480779961
 31
0.0
210
0.0
220
0.0
230
1.0
 40
0.3790843297
 41
-0.2684458178
 42
-0.1801337539
  0
ELLIPSE
  5
575
330
21D
100
AcDbEntity
  8
0
  6
Continuous
 62
     7
100
AcDbEllipse
 10
189.526359189
 20
1678.3528278729
 30
0.0
 11
4.6757360717
 21
18.1932140671
 31
0.0
210
0.0
220
0.0
230
1.0
 40
0.5883161697000001
 41
6.5679301448
 42
6.630419636699999
  0
ELLIPSE
  5
576
330
21D
100
AcDbEntity
  8
0
  6
Continuous
 62
     7
100
AcDbEllipse
 10
183.445571292
 20
1678.3528278729
 30
0.0
 11
2.212092595399999
 21
18.3808796054
 31
0.0
210
0.0
220
0.0
230
1.0
 40
0.37910209
 41
0.1794434389
 42
0.2387597167
  0
ELLIPSE
  5
577
330
21D
100
AcDbEntity
  8
0
  6
Continuous
 62
     7
100
AcDbEllipse
 10
183.445571292
 20
1678.3528278729
 30
0.0
 11
2.2241148377
 21
18.4807756902
 31
0.0
210
0.0
220
0.0
230
1.0
 40
0.37910209
 41
0.1801388193
 42
0.2684508831
  0
ENDSEC
  0
SECTION
  2
OBJECTS
  0
DICTIONARY
  5
C
330
0
100
AcDbDictionary
281
     1
  3
ACAD_COLOR
350
5A6
  3
ACAD_GROUP
350
D
  3
ACAD_LAYOUT
350
1A
  3
ACAD_MATERIAL
350
57C
  3
ACAD_MLEADERSTYLE
350
5CB
  3
ACAD_MLINESTYLE
350
17
  3
ACAD_PLOTSETTINGS
350
19
  3
ACAD_PLOTSTYLENAME
350
E
  3
ACAD_SCALELIST
350
5A9
  3
ACAD_TABLESTYLE
350
5A7
  3
ACAD_VISUALSTYLE
350
595
  3
ACDB_RECOMPOSE_DATA
350
5D0
  3
ACDBHEADERROUNDTRIPXREC
350
109F
  3
AcDbVariableDictionary
350
5D1
  0
DICTIONARY
  5
5A6
102
{ACAD_REACTORS
330
C
102
}
330
C
100
AcDbDictionary
281
     1
  0
DICTIONARY
  5
D
102
{ACAD_REACTORS
330
C
102
}
330
C
100
AcDbDictionary
281
     1
  0
DICTIONARY
  5
1A
102
{ACAD_REACTORS
330
C
102
}
330
C
100
AcDbDictionary
281
     1
  3
Layout1
350
579
  3
Model
350
578
  0
DICTIONARY
  5
57C
102
{ACAD_REACTORS
330
C
102
}
330
C
100
AcDbDictionary
281
     1
  3
ByBlock
350
585
  3
ByLayer
350
57D
  3
Global
350
58D
  0
DICTIONARY
  5
5CB
102
{ACAD_REACTORS
330
C
102
}
330
C
100
AcDbDictionary
281
     1
  3
Standard
350
5CC
  0
DICTIONARY
  5
17
102
{ACAD_REACTORS
330
C
102
}
330
C
100
AcDbDictionary
281
     1
  3
Standard
350
18
  0
DICTIONARY
  5
19
102
{ACAD_REACTORS
330
C
102
}
330
C
100
AcDbDictionary
281
     1
  0
ACDBDICTIONARYWDFLT
  5
E
102
{ACAD_REACTORS
330
C
102
}
330
C
100
AcDbDictionary
281
     1
  3
Normal
350
F
100
AcDbDictionaryWithDefault
340
F
  0
DICTIONARY
  5
5A9
102
{ACAD_REACTORS
330
C
102
}
330
C
100
AcDbDictionary
281
     1
  3
A0
350
5AA
  3
A1
350
5AB
  3
A2
350
5AC
  3
A3
350
5AD
  3
A4
350
5AE
  3
A5
350
5AF
  3
A6
350
5B0
  3
A7
350
5B1
  3
A8
350
5B2
  3
A9
350
5B3
  3
B0
350
5B4
  3
B1
350
5B5
  3
B2
350
5B6
  3
B3
350
5B7
  3
B4
350
5B8
  3
B5
350
5B9
  3
B6
350
5BA
  3
B7
350
5BB
  3
B8
350
5BC
  3
B9
350
5BD
  3
C0
350
5BE
  3
C1
350
5BF
  3
C2
350
5C0
  3
C3
350
5C1
  3
C4
350
5C2
  3
C5
350
5C3
  3
C6
350
5C4
  3
C7
350
5C5
  3
C8
350
5C6
  3
C9
350
5C7
  3
D0
350
5C8
  3
D1
350
5C9
  3
D2
350
5CA
  0
DICTIONARY
  5
5A7
102
{ACAD_REACTORS
330
C
102
}
330
C
100
AcDbDictionary
281
     1
  3
Standard
350
5A8
  0
DICTIONARY
  5
595
102
{ACAD_REACTORS
330
C
102
}
330
C
100
AcDbDictionary
281
     1
  3
2dWireframe
350
59B
  3
3D Hidden
350
59D
  3
3dWireframe
350
59C
  3
Basic
350
59A
  3
Brighten
350
5A1
  3
ColorChange
350
5A5
  3
Conceptual
350
59E
  3
Dim
350
5A0
  3
Facepattern
350
5A4
  3
Flat
350
596
  3
FlatWithEdges
350
597
  3
Gouraud
350
598
  3
GouraudWithEdges
350
599
  3
Linepattern
350
5A3
  3
Realistic
350
59F
  3
Thicken
350
5A2
  0
XRECORD
  5
5D0
102
{ACAD_REACTORS
330
C
102
}
330
C
100
AcDbXrecord
280
     1
 90
        1
330
5A8
  0
DICTIONARY
  5
109F
102
{ACAD_REACTORS
330
C
102
}
330
C
100
AcDbDictionary
281
     1
  0
DICTIONARY
  5
5D1
102
{ACAD_REACTORS
330
C
102
}
330
C
100
AcDbDictionary
281
     1
  3
CANNOSCALE
350
5D4
  3
CMLEADERSTYLE
350
5D3
  3
CTABLESTYLE
350
5D2
  3
DIMASSOC
350
102D
  3
HIDETEXT
350
102C
  3
PROJECTNAME
350
102E
  0
LAYOUT
  5
579
102
{ACAD_REACTORS
330
1A
102
}
330
1A
100
AcDbPlotSettings
  1

  2
none_device
  4
ANSI_C_(22.00_x_17.00_Inches)
  6

 40
0.0
 41
0.0
 42
0.0
 43
0.0
 44
558.8
 45
431.8
 46
0.0
 47
0.0
 48
0.0
 49
0.0
140
0.0
141
0.0
142
1.0
143
1.0
 70
     0
 72
     1
 73
     0
 74
     0
  7

 75
     0
147
1.0
 76
     0
 77
     2
 78
   300
148
0.0
149
0.0
100
AcDbLayout
  1
Layout1
 70
     1
 71
     1
 10
0.0
 20
0.0
 11
12.0
 21
9.0
 12
0.0
 22
0.0
 32
0.0
 14
1.000000000000000E+20
 24
1.000000000000000E+20
 34
1.000000000000000E+20
 15
-1.000000000000000E+20
 25
-1.000000000000000E+20
 35
-1.000000000000000E+20
146
0.0
 13
0.0
 23
0.0
 33
0.0
 16
1.0
 26
0.0
 36
0.0
 17
0.0
 27
1.0
 37
0.0
 76
     0
330
21E
  0
LAYOUT
  5
578
102
{ACAD_REACTORS
330
1A
102
}
330
1A
100
AcDbPlotSettings
  1

  2
none_device
  4
ANSI_C_(22.00_x_17.00_Inches)
  6

 40
0.0
 41
0.0
 42
0.0
 43
0.0
 44
558.8
 45
431.8
 46
0.0
 47
0.0
 48
0.0
 49
0.0
140
0.0
141
0.0
142
1.0
143
1.0
 70
  1024
 72
     1
 73
     0
 74
     0
  7

 75
     0
147
1.0
 76
     0
 77
     2
 78
   300
148
0.0
149
0.0
100
AcDbLayout
  1
Model
 70
     0
 71
     0
 10
0.0
 20
0.0
 11
558.8
 21
431.8
 12
0.0
 22
0.0
 32
0.0
 14
0.0
 24
0.0
 34
0.0
 15
0.0
 25
0.0
 35
0.0
146
0.0
 13
0.0
 23
0.0
 33
0.0
 16
1.0
 26
0.0
 36
0.0
 17
0.0
 27
1.0
 37
0.0
 76
     0
330
21D
  0
MATERIAL
  5
585
102
{ACAD_XDICTIONARY
360
586
102
}
102
{ACAD_REACTORS
330
57C
102
}
330
57C
100
AcDbMaterial
  1
ByBlock
  2

 72
     0
 73
     2
 43
0.0008202099737533
 43
0.0
 43
0.0
 43
0.0
 43
0.0
 43
0.0008202099737533
 43
0.0
 43
0.0
 43
0.0
 43
0.0
 43
1.0
 43
0.0
 43
0.0
 43
0.0
 43
0.0
 43
1.0
 77
     0
 78
     2
 47
0.0008202099737533
 47
0.0
 47
0.0
 47
0.0
 47
0.0
 47
0.0008202099737533
 47
0.0
 47
0.0
 47
0.0
 47
0.0
 47
1.0
 47
0.0
 47
0.0
 47
0.0
 47
0.0
 47
1.0
171
     0
172
     2
 49
0.0008202099737533
 49
0.0
 49
0.0
 49
0.0
 49
0.0
 49
0.0008202099737533
 49
0.0
 49
0.0
 49
0.0
 49
0.0
 49
1.0
 49
0.0
 49
0.0
 49
0.0
 49
0.0
 49
1.0
175
     0
176
     2
142
0.0008202099737533
142
0.0
142
0.0
142
0.0
142
0.0
142
0.0008202099737533
142
0.0
142
0.0
142
0.0
142
0.0
142
1.0
142
0.0
142
0.0
142
0.0
142
0.0
142
1.0
179
     0
270
     2
144
0.0008202099737533
144
0.0
144
0.0
144
0.0
144
0.0
144
0.0008202099737533
144
0.0
144
0.0
144
0.0
144
0.0
144
1.0
144
0.0
144
0.0
144
0.0
144
0.0
144
1.0
274
     2
147
0.0008202099737533
147
0.0
147
0.0
147
0.0
147
0.0
147
0.0008202099737533
147
0.0
147
0.0
147
0.0
147
0.0
147
1.0
147
0.0
147
0.0
147
0.0
147
0.0
147
1.0
  0
MATERIAL
  5
57D
102
{ACAD_XDICTIONARY
360
57E
102
}
102
{ACAD_REACTORS
330
57C
102
}
330
57C
100
AcDbMaterial
  1
ByLayer
  2

 72
     0
 73
     2
 43
0.0008202099737533
 43
0.0
 43
0.0
 43
0.0
 43
0.0
 43
0.0008202099737533
 43
0.0
 43
0.0
 43
0.0
 43
0.0
 43
1.0
 43
0.0
 43
0.0
 43
0.0
 43
0.0
 43
1.0
 77
     0
 78
     2
 47
0.0008202099737533
 47
0.0
 47
0.0
 47
0.0
 47
0.0
 47
0.0008202099737533
 47
0.0
 47
0.0
 47
0.0
 47
0.0
 47
1.0
 47
0.0
 47
0.0
 47
0.0
 47
0.0
 47
1.0
171
     0
172
     2
 49
0.0008202099737533
 49
0.0
 49
0.0
 49
0.0
 49
0.0
 49
0.0008202099737533
 49
0.0
 49
0.0
 49
0.0
 49
0.0
 49
1.0
 49
0.0
 49
0.0
 49
0.0
 49
0.0
 49
1.0
175
     0
176
     2
142
0.0008202099737533
142
0.0
142
0.0
142
0.0
142
0.0
142
0.0008202099737533
142
0.0
142
0.0
142
0.0
142
0.0
142
1.0
142
0.0
142
0.0
142
0.0
142
0.0
142
1.0
179
     0
270
     2
144
0.0008202099737533
144
0.0
144
0.0
144
0.0
144
0.0
144
0.0008202099737533
144
0.0
144
0.0
144
0.0
144
0.0
144
1.0
144
0.0
144
0.0
144
0.0
144
0.0
144
1.0
274
     2
147
0.0008202099737533
147
0.0
147
0.0
147
0.0
147
0.0
147
0.0008202099737533
147
0.0
147
0.0
147
0.0
147
0.0
147
1.0
147
0.0
147
0.0
147
0.0
147
0.0
147
1.0
  0
MATERIAL
  5
58D
102
{ACAD_XDICTIONARY
360
58E
102
}
102
{ACAD_REACTORS
330
57C
102
}
330
57C
100
AcDbMaterial
  1
Global
  2

 72
     0
 73
     2
 43
0.0008202099737533
 43
0.0
 43
0.0
 43
0.0
 43
0.0
 43
0.0008202099737533
 43
0.0
 43
0.0
 43
0.0
 43
0.0
 43
1.0
 43
0.0
 43
0.0
 43
0.0
 43
0.0
 43
1.0
 77
     0
 78
     2
 47
0.0008202099737533
 47
0.0
 47
0.0
 47
0.0
 47
0.0
 47
0.0008202099737533
 47
0.0
 47
0.0
 47
0.0
 47
0.0
 47
1.0
 47
0.0
 47
0.0
 47
0.0
 47
0.0
 47
1.0
171
     0
172
     2
 49
0.0008202099737533
 49
0.0
 49
0.0
 49
0.0
 49
0.0
 49
0.0008202099737533
 49
0.0
 49
0.0
 49
0.0
 49
0.0
 49
1.0
 49
0.0
 49
0.0
 49
0.0
 49
0.0
 49
1.0
175
     0
176
     2
142
0.0008202099737533
142
0.0
142
0.0
142
0.0
142
0.0
142
0.0008202099737533
142
0.0
142
0.0
142
0.0
142
0.0
142
1.0
142
0.0
142
0.0
142
0.0
142
0.0
142
1.0
179
     0
270
     2
144
0.0008202099737533
144
0.0
144
0.0
144
0.0
144
0.0
144
0.0008202099737533
144
0.0
144
0.0
144
0.0
144
0.0
144
1.0
144
0.0
144
0.0
144
0.0
144
0.0
144
1.0
274
     2
147
0.0008202099737533
147
0.0
147
0.0
147
0.0
147
0.0
147
0.0008202099737533
147
0.0
147
0.0
147
0.0
147
0.0
147
1.0
147
0.0
147
0.0
147
0.0
147
0.0
147
1.0
  0
MLEADERSTYLE
  5
5CC
102
{ACAD_REACTORS
330
5CB
102
}
330
5CB
100
AcDbMLeaderStyle
170
     2
171
     1
172
     0
 90
        2
 40
0.0
 41
0.0
173
     1
 91
-1056964608
340
14
 92
       -2
290
     1
 42
2.0
291
     1
 43
0.36
  3
Standard
341
0
 44
4.0
300

342
11
174
     1
178
     6
175
     1
176
     0
 93
-1056964608
 45
4.0
292
     0
297
     0
 46
4.0
343
0
 94
-1056964608
 47
1.0
 49
1.0
140
1.0
293
     1
141
0.0
294
     1
177
     0
142
1.0
295
     0
296
     0
143
0.125
1001
ACAD_MLEADERVER
1070
     2
  0
MLINESTYLE
  5
18
102
{ACAD_REACTORS
330
17
102
}
330
17
100
AcDbMlineStyle
  2
STANDARD
 70
     0
  3

 62
   256
 51
90.0
 52
90.0
 71
     2
 49
0.5
 62
   256
  6
BYLAYER
 49
-0.5
 62
   256
  6
BYLAYER
  0
ACDBPLACEHOLDER
  5
F
102
{ACAD_REACTORS
330
E
102
}
330
E
  0
SCALE
  5
5AA
102
{ACAD_REACTORS
330
5A9
102
}
330
5A9
100
AcDbScale
 70
     0
300
1:1
140
1.0
141
1.0
290
     1
  0
SCALE
  5
5AB
102
{ACAD_REACTORS
330
5A9
102
}
330
5A9
100
AcDbScale
 70
     0
300
1:2
140
1.0
141
2.0
290
     0
  0
SCALE
  5
5AC
102
{ACAD_REACTORS
330
5A9
102
}
330
5A9
100
AcDbScale
 70
     0
300
1:4
140
1.0
141
4.0
290
     0
  0
SCALE
  5
5AD
102
{ACAD_REACTORS
330
5A9
102
}
330
5A9
100
AcDbScale
 70
     0
300
1:5
140
1.0
141
5.0
290
     0
  0
SCALE
  5
5AE
102
{ACAD_REACTORS
330
5A9
102
}
330
5A9
100
AcDbScale
 70
     0
300
1:8
140
1.0
141
8.0
290
     0
  0
SCALE
  5
5AF
102
{ACAD_REACTORS
330
5A9
102
}
330
5A9
100
AcDbScale
 70
     0
300
1:10
140
1.0
141
10.0
290
     0
  0
SCALE
  5
5B0
102
{ACAD_REACTORS
330
5A9
102
}
330
5A9
100
AcDbScale
 70
     0
300
1:16
140
1.0
141
16.0
290
     0
  0
SCALE
  5
5B1
102
{ACAD_REACTORS
330
5A9
102
}
330
5A9
100
AcDbScale
 70
     0
300
1:20
140
1.0
141
20.0
290
     0
  0
SCALE
  5
5B2
102
{ACAD_REACTORS
330
5A9
102
}
330
5A9
100
AcDbScale
 70
     0
300
1:30
140
1.0
141
30.0
290
     0
  0
SCALE
  5
5B3
102
{ACAD_REACTORS
330
5A9
102
}
330
5A9
100
AcDbScale
 70
     0
300
1:40
140
1.0
141
40.0
290
     0
  0
SCALE
  5
5B4
102
{ACAD_REACTORS
330
5A9
102
}
330
5A9
100
AcDbScale
 70
     0
300
1:50
140
1.0
141
50.0
290
     0
  0
SCALE
  5
5B5
102
{ACAD_REACTORS
330
5A9
102
}
330
5A9
100
AcDbScale
 70
     0
300
1:100
140
1.0
141
100.0
290
     0
  0
SCALE
  5
5B6
102
{ACAD_REACTORS
330
5A9
102
}
330
5A9
100
AcDbScale
 70
     0
300
2:1
140
2.0
141
1.0
290
     0
  0
SCALE
  5
5B7
102
{ACAD_REACTORS
330
5A9
102
}
330
5A9
100
AcDbScale
 70
     0
300
4:1
140
4.0
141
1.0
290
     0
  0
SCALE
  5
5B8
102
{ACAD_REACTORS
330
5A9
102
}
330
5A9
100
AcDbScale
 70
     0
300
8:1
140
8.0
141
1.0
290
     0
  0
SCALE
  5
5B9
102
{ACAD_REACTORS
330
5A9
102
}
330
5A9
100
AcDbScale
 70
     0
300
10:1
140
10.0
141
1.0
290
     0
  0
SCALE
  5
5BA
102
{ACAD_REACTORS
330
5A9
102
}
330
5A9
100
AcDbScale
 70
     0
300
100:1
140
100.0
141
1.0
290
     0
  0
SCALE
  5
5BB
102
{ACAD_REACTORS
330
5A9
102
}
330
5A9
100
AcDbScale
 70
     0
300
1/128" = 1'-0"
140
0.0078125
141
12.0
290
     0
  0
SCALE
  5
5BC
102
{ACAD_REACTORS
330
5A9
102
}
330
5A9
100
AcDbScale
 70
     0
300
1/64" = 1'-0"
140
0.015625
141
12.0
290
     0
  0
SCALE
  5
5BD
102
{ACAD_REACTORS
330
5A9
102
}
330
5A9
100
AcDbScale
 70
     0
300
1/32" = 1'-0"
140
0.03125
141
12.0
290
     0
  0
SCALE
  5
5BE
102
{ACAD_REACTORS
330
5A9
102
}
330
5A9
100
AcDbScale
 70
     0
300
1/16" = 1'-0"
140
0.0625
141
12.0
290
     0
  0
SCALE
  5
5BF
102
{ACAD_REACTORS
330
5A9
102
}
330
5A9
100
AcDbScale
 70
     0
300
3/32" = 1'-0"
140
0.09375
141
12.0
290
     0
  0
SCALE
  5
5C0
102
{ACAD_REACTORS
330
5A9
102
}
330
5A9
100
AcDbScale
 70
     0
300
1/8" = 1'-0"
140
0.125
141
12.0
290
     0
  0
SCALE
  5
5C1
102
{ACAD_REACTORS
330
5A9
102
}
330
5A9
100
AcDbScale
 70
     0
300
3/16" = 1'-0"
140
0.1875
141
12.0
290
     0
  0
SCALE
  5
5C2
102
{ACAD_REACTORS
330
5A9
102
}
330
5A9
100
AcDbScale
 70
     0
300
1/4" = 1'-0"
140
0.25
141
12.0
290
     0
  0
SCALE
  5
5C3
102
{ACAD_REACTORS
330
5A9
102
}
330
5A9
100
AcDbScale
 70
     0
300
3/8" = 1'-0"
140
0.375
141
12.0
290
     0
  0
SCALE
  5
5C4
102
{ACAD_REACTORS
330
5A9
102
}
330
5A9
100
AcDbScale
 70
     0
300
1/2" = 1'-0"
140
0.5
141
12.0
290
     0
  0
SCALE
  5
5C5
102
{ACAD_REACTORS
330
5A9
102
}
330
5A9
100
AcDbScale
 70
     0
300
3/4" = 1'-0"
140
0.75
141
12.0
290
     0
  0
SCALE
  5
5C6
102
{ACAD_REACTORS
330
5A9
102
}
330
5A9
100
AcDbScale
 70
     0
300
1" = 1'-0"
140
1.0
141
12.0
290
     0
  0
SCALE
  5
5C7
102
{ACAD_REACTORS
330
5A9
102
}
330
5A9
100
AcDbScale
 70
     0
300
1-1/2" = 1'-0"
140
1.5
141
12.0
290
     0
  0
SCALE
  5
5C8
102
{ACAD_REACTORS
330
5A9
102
}
330
5A9
100
AcDbScale
 70
     0
300
3" = 1'-0"
140
3.0
141
12.0
290
     0
  0
SCALE
  5
5C9
102
{ACAD_REACTORS
330
5A9
102
}
330
5A9
100
AcDbScale
 70
     0
300
6" = 1'-0"
140
6.0
141
12.0
290
     0
  0
SCALE
  5
5CA
102
{ACAD_REACTORS
330
5A9
102
}
330
5A9
100
AcDbScale
 70
     0
300
1'-0" = 1'-0"
140
12.0
141
12.0
290
     0
  0
TABLESTYLE
  5
5A8
102
{ACAD_XDICTIONARY
360
5CE
102
}
102
{ACAD_REACTORS
330
5A7
102
}
330
5A7
100
AcDbTableStyle
  3
Standard
 70
     0
 71
     0
 40
1.5
 41
1.5
280
     0
281
     0
  7
STANDARD
140
4.5
170
     2
 62
     0
 63
   257
283
     1
274
    -2
284
     1
 64
     0
275
    -2
285
     1
 65
     0
276
    -2
286
     1
 66
     0
277
    -2
287
     1
 67
     0
278
    -2
288
     1
 68
     0
279
    -2
289
     1
 69
     0
  7
STANDARD
140
6.0
170
     5
 62
     0
 63
   257
283
     1
274
    -2
284
     1
 64
     0
275
    -2
285
     1
 65
     0
276
    -2
286
     1
 66
     0
277
    -2
287
     1
 67
     0
278
    -2
288
     1
 68
     0
279
    -2
289
     1
 69
     0
  7
STANDARD
140
4.5
170
     5
 62
     0
 63
   257
283
     1
274
    -2
284
     1
 64
     0
275
    -2
285
     1
 65
     0
276
    -2
286
     1
 66
     0
277
    -2
287
     1
 67
     0
278
    -2
288
     1
 68
     0
279
    -2
289
     1
 69
     0
  0
VISUALSTYLE
  5
59B
102
{ACAD_XDICTIONARY
360
10AA
102
}
102
{ACAD_REACTORS
330
595
102
}
330
595
100
AcDbVisualStyle
  2
2dWireframe
 70
     4
 71
     0
 72
     2
 73
     0
 90
        0
 40
-0.6
 41
-30.0
 62
     5
 63
     7
 74
     1
 91
        4
 64
     7
 65
   257
 75
     1
175
     1
 42
1.0
 92
        0
 66
   257
 43
1.0
 76
     1
 77
     6
 78
     2
 67
     7
 79
     5
170
     0
171
     0
290
     0
174
     0
 93
        1
 44
0.0
173
     0
291
     0
 45
0.0
1001
ACAD
1000
AcDbSavedByObjectVersion
1070
     0
  0
VISUALSTYLE
  5
59D
102
{ACAD_XDICTIONARY
360
10AE
102
}
102
{ACAD_REACTORS
330
595
102
}
330
595
100
AcDbVisualStyle
  2
3D Hidden
 70
     6
 71
     1
 72
     2
 73
     2
 90
        0
 40
-0.6
 41
-30.0
 62
     5
 63
     7
 74
     2
 91
        2
 64
     7
 65
   257
 75
     2
175
     1
 42
40.0
 92
        0
 66
   257
 43
1.0
 76
     1
 77
     6
 78
     2
 67
     7
 79
     3
170
     0
171
     0
290
     0
174
     0
 93
        1
 44
0.0
173
     0
291
     0
 45
0.0
1001
ACAD
1000
AcDbSavedByObjectVersion
1070
     0
  0
VISUALSTYLE
  5
59C
102
{ACAD_XDICTIONARY
360
10AC
102
}
102
{ACAD_REACTORS
330
595
102
}
330
595
100
AcDbVisualStyle
  2
3dWireframe
 70
     5
 71
     0
 72
     2
 73
     0
 90
        0
 40
-0.6
 41
-30.0
 62
     5
 63
     7
 74
     1
 91
        4
 64
     7
 65
   257
 75
     1
175
     1
 42
1.0
 92
        0
 66
   257
 43
1.0
 76
     1
 77
     6
 78
     2
 67
     7
 79
     5
170
     0
171
     0
290
     0
174
     0
 93
        1
 44
0.0
173
     0
291
     0
 45
0.0
1001
ACAD
1000
AcDbSavedByObjectVersion
1070
     0
  0
VISUALSTYLE
  5
59A
102
{ACAD_XDICTIONARY
360
10A8
102
}
102
{ACAD_REACTORS
330
595
102
}
330
595
100
AcDbVisualStyle
  2
Basic
 70
     7
 71
     1
 72
     0
 73
     1
 90
        0
 40
-0.6
 41
-30.0
 62
     5
 63
     7
 74
     0
 91
        4
 64
     7
 65
   257
 75
     1
175
     1
 42
1.0
 92
        8
 66
     7
 43
1.0
 76
     1
 77
     6
 78
     2
 67
     7
 79
     5
170
     0
171
     0
290
     0
174
     0
 93
        1
 44
0.0
173
     0
291
     1
 45
0.0
1001
ACAD
1000
AcDbSavedByObjectVersion
1070
     0
  0
VISUALSTYLE
  5
5A1
102
{ACAD_XDICTIONARY
360
10B6
102
}
102
{ACAD_REACTORS
330
595
102
}
330
595
100
AcDbVisualStyle
  2
Brighten
 70
    12
 71
     2
 72
     2
 73
     0
 90
        0
 40
-0.6
 41
-30.0
 62
     5
 63
     7
 74
     1
 91
        4
 64
     7
 65
   257
 75
     1
175
     1
 42
1.0
 92
        8
 66
     7
 43
1.0
 76
     1
 77
     6
 78
     2
 67
     7
 79
     5
170
     0
171
     0
290
     0
174
     0
 93
        1
 44
50.0
173
     0
291
     1
 45
0.0
1001
ACAD
1000
AcDbSavedByObjectVersion
1070
     0
  0
VISUALSTYLE
  5
5A5
102
{ACAD_XDICTIONARY
360
10BE
102
}
102
{ACAD_REACTORS
330
595
102
}
330
595
100
AcDbVisualStyle
  2
ColorChange
 70
    16
 71
     2
 72
     2
 73
     3
 90
        0
 40
-0.6
 41
-30.0
 62
     5
 63
     8
 74
     1
 91
        4
 64
     7
 65
   257
 75
     1
175
     1
 42
1.0
 92
        8
 66
     8
 43
1.0
 76
     1
 77
     6
 78
     2
 67
     7
 79
     5
170
     0
171
     0
290
     0
174
     0
 93
        1
 44
0.0
173
     0
291
     1
 45
0.0
1001
ACAD
1000
AcDbSavedByObjectVersion
1070
     0
  0
VISUALSTYLE
  5
59E
102
{ACAD_XDICTIONARY
360
10B0
102
}
102
{ACAD_REACTORS
330
595
102
}
330
595
100
AcDbVisualStyle
  2
Conceptual
 70
     9
 71
     3
 72
     2
 73
     0
 90
        0
 40
-0.6
 41
-30.0
 62
     5
 63
     7
 74
     2
 91
        2
 64
     7
 65
   257
 75
     1
175
     1
 42
40.0
 92
        8
 66
     7
 43
1.0
 76
     1
 77
     6
 78
     2
 67
     7
 79
     3
170
     0
171
     0
290
     0
174
     0
 93
        1
 44
0.0
173
     0
291
     0
 45
0.0
1001
ACAD
1000
AcDbSavedByObjectVersion
1070
     0
  0
VISUALSTYLE
  5
5A0
102
{ACAD_XDICTIONARY
360
10B4
102
}
102
{ACAD_REACTORS
330
595
102
}
330
595
100
AcDbVisualStyle
  2
Dim
 70
    11
 71
     2
 72
     2
 73
     0
 90
        0
 40
-0.6
 41
-30.0
 62
     5
 63
     7
 74
     1
 91
        4
 64
     7
 65
   257
 75
     1
175
     1
 42
1.0
 92
        8
 66
     7
 43
1.0
 76
     1
 77
     6
 78
     2
 67
     7
 79
     5
170
     0
171
     0
290
     0
174
     0
 93
        1
 44
-50.0
173
     0
291
     1
 45
0.0
1001
ACAD
1000
AcDbSavedByObjectVersion
1070
     0
  0
VISUALSTYLE
  5
5A4
102
{ACAD_XDICTIONARY
360
10BC
102
}
102
{ACAD_REACTORS
330
595
102
}
330
595
100
AcDbVisualStyle
  2
Facepattern
 70
    15
 71
     2
 72
     2
 73
     0
 90
        0
 40
-0.6
 41
-30.0
 62
     5
 63
     7
 74
     1
 91
        4
 64
     7
 65
   257
 75
     1
175
     1
 42
1.0
 92
        8
 66
     7
 43
1.0
 76
     1
 77
     6
 78
     2
 67
     7
 79
     5
170
     0
171
     0
290
     0
174
     0
 93
        1
 44
0.0
173
     0
291
     1
 45
0.0
1001
ACAD
1000
AcDbSavedByObjectVersion
1070
     0
  0
VISUALSTYLE
  5
596
102
{ACAD_XDICTIONARY
360
10A0
102
}
102
{ACAD_REACTORS
330
595
102
}
330
595
100
AcDbVisualStyle
  2
Flat
 70
     0
 71
     2
 72
     1
 73
     1
 90
        2
 40
-0.6
 41
30.0
 62
     5
 63
     7
 74
     0
 91
        4
 64
     7
 65
   257
 75
     1
175
     1
 42
1.0
 92
        8
 66
     7
 43
1.0
 76
     1
 77
     6
 78
     2
 67
     7
 79
     5
170
     0
171
     0
290
     0
174
     0
 93
       13
 44
0.0
173
     0
291
     1
 45
0.0
1001
ACAD
1000
AcDbSavedByObjectVersion
1070
     0
  0
VISUALSTYLE
  5
597
102
{ACAD_XDICTIONARY
360
10A2
102
}
102
{ACAD_REACTORS
330
595
102
}
330
595
100
AcDbVisualStyle
  2
FlatWithEdges
 70
     1
 71
     2
 72
     1
 73
     1
 90
        2
 40
-0.6
 41
30.0
 62
     5
 63
     7
 74
     1
 91
        4
 64
     7
 65
   257
 75
     1
175
     1
 42
1.0
 92
        0
 66
   257
 43
1.0
 76
     1
 77
     6
 78
     2
 67
     7
 79
     5
170
     0
171
     0
290
     0
174
     0
 93
       13
 44
0.0
173
     0
291
     1
 45
0.0
1001
ACAD
1000
AcDbSavedByObjectVersion
1070
     0
  0
VISUALSTYLE
  5
598
102
{ACAD_XDICTIONARY
360
10A4
102
}
102
{ACAD_REACTORS
330
595
102
}
330
595
100
AcDbVisualStyle
  2
Gouraud
 70
     2
 71
     2
 72
     2
 73
     1
 90
        2
 40
-0.6
 41
30.0
 62
     5
 63
     7
 74
     0
 91
        4
 64
     7
 65
   257
 75
     1
175
     1
 42
1.0
 92
        0
 66
     7
 43
1.0
 76
     1
 77
     6
 78
     2
 67
     7
 79
     5
170
     0
171
     0
290
     0
174
     0
 93
       13
 44
0.0
173
     0
291
     1
 45
0.0
1001
ACAD
1000
AcDbSavedByObjectVersion
1070
     0
  0
VISUALSTYLE
  5
599
102
{ACAD_XDICTIONARY
360
10A6
102
}
102
{ACAD_REACTORS
330
595
102
}
330
595
100
AcDbVisualStyle
  2
GouraudWithEdges
 70
     3
 71
     2
 72
     2
 73
     1
 90
        2
 40
-0.6
 41
30.0
 62
     5
 63
     7
 74
     1
 91
        4
 64
     7
 65
   257
 75
     1
175
     1
 42
1.0
 92
        0
 66
   257
 43
1.0
 76
     1
 77
     6
 78
     2
 67
     7
 79
     5
170
     0
171
     0
290
     0
174
     0
 93
       13
 44
0.0
173
     0
291
     1
 45
0.0
1001
ACAD
1000
AcDbSavedByObjectVersion
1070
     0
  0
VISUALSTYLE
  5
5A3
102
{ACAD_XDICTIONARY
360
10BA
102
}
102
{ACAD_REACTORS
330
595
102
}
330
595
100
AcDbVisualStyle
  2
Linepattern
 70
    14
 71
     2
 72
     2
 73
     0
 90
        0
 40
-0.6
 41
-30.0
 62
     5
 63
     7
 74
     1
 91
        4
 64
     7
 65
   257
 75
     7
175
     7
 42
1.0
 92
        8
 66
     7
 43
1.0
 76
     1
 77
     6
 78
     2
 67
     7
 79
     5
170
     0
171
     0
290
     0
174
     0
 93
        1
 44
0.0
173
     0
291
     1
 45
0.0
1001
ACAD
1000
AcDbSavedByObjectVersion
1070
     0
  0
VISUALSTYLE
  5
59F
102
{ACAD_XDICTIONARY
360
10B2
102
}
102
{ACAD_REACTORS
330
595
102
}
330
595
100
AcDbVisualStyle
  2
Realistic
 70
     8
 71
     2
 72
     2
 73
     0
 90
        0
 40
-0.6
 41
-30.0
 62
     5
 63
     7
 74
     1
 91
        0
 64
     7
 65
   257
 75
     1
175
     1
 42
1.0
 92
        8
 66
     8
 43
1.0
 76
     1
 77
     6
 78
     2
 67
     7
 79
     5
170
     0
171
     0
290
     0
174
     0
 93
       13
 44
0.0
173
     0
291
     0
 45
0.0
1001
ACAD
1000
AcDbSavedByObjectVersion
1070
     0
  0
VISUALSTYLE
  5
5A2
102
{ACAD_XDICTIONARY
360
10B8
102
}
102
{ACAD_REACTORS
330
595
102
}
330
595
100
AcDbVisualStyle
  2
Thicken
 70
    13
 71
     2
 72
     2
 73
     0
 90
        0
 40
-0.6
 41
-30.0
 62
     5
 63
     7
 74
     1
 91
        4
 64
     7
 65
   257
 75
     1
175
     1
 42
1.0
 92
       12
 66
     7
 43
1.0
 76
     1
 77
     6
 78
     2
 67
     7
 79
     5
170
     0
171
     0
290
     0
174
     0
 93
        1
 44
0.0
173
     0
291
     1
 45
0.0
1001
ACAD
1000
AcDbSavedByObjectVersion
1070
     0
  0
DICTIONARYVAR
  5
5D4
102
{ACAD_REACTORS
330
5D1
102
}
330
5D1
100
DictionaryVariables
280
     0
  1
1:1
  0
DICTIONARYVAR
  5
5D3
102
{ACAD_REACTORS
330
5D1
102
}
330
5D1
100
DictionaryVariables
280
     0
  1
STANDARD
  0
DICTIONARYVAR
  5
5D2
102
{ACAD_REACTORS
330
5D1
102
}
330
5D1
100
DictionaryVariables
280
     0
  1
STANDARD
  0
DICTIONARYVAR
  5
102D
102
{ACAD_REACTORS
330
5D1
102
}
330
5D1
100
DictionaryVariables
280
     0
  1
2
  0
DICTIONARYVAR
  5
102C
102
{ACAD_REACTORS
330
5D1
102
}
330
5D1
100
DictionaryVariables
280
     0
  1
1
  0
DICTIONARYVAR
  5
102E
102
{ACAD_REACTORS
330
5D1
102
}
330
5D1
100
DictionaryVariables
280
     0
  1

  0
DICTIONARY
  5
586
330
585
100
AcDbDictionary
280
     1
281
     1
  3
BUMPTILE
360
588
  3
DIFFUSETILE
360
587
  3
OPACITYTILE
360
58B
  3
REFLECTIONTILE
360
58A
  3
REFRACTIONTILE
360
58C
  3
SPECULARTILE
360
589
  0
DICTIONARY
  5
57E
330
57D
100
AcDbDictionary
280
     1
281
     1
  3
BUMPTILE
360
580
  3
DIFFUSETILE
360
57F
  3
OPACITYTILE
360
583
  3
REFLECTIONTILE
360
582
  3
REFRACTIONTILE
360
584
  3
SPECULARTILE
360
581
  0
DICTIONARY
  5
58E
330
58D
100
AcDbDictionary
280
     1
281
     1
  3
BUMPTILE
360
590
  3
DIFFUSETILE
360
58F
  3
OPACITYTILE
360
593
  3
REFLECTIONTILE
360
592
  3
REFRACTIONTILE
360
594
  3
SPECULARTILE
360
591
  0
DICTIONARY
  5
5CE
330
5A8
100
AcDbDictionary
280
     1
281
     1
  3
ACAD_ROUNDTRIP_2008_TABLESTYLE_CELLSTYLEMAP
360
10C1
  3
ACAD_XREC_ROUNDTRIP
360
10C0
  0
DICTIONARY
  5
10AA
330
59B
100
AcDbDictionary
280
     1
281
     1
  3
ACAD_XREC_ROUNDTRIP
360
10AB
  0
DICTIONARY
  5
10AE
330
59D
100
AcDbDictionary
280
     1
281
     1
  3
ACAD_XREC_ROUNDTRIP
360
10AF
  0
DICTIONARY
  5
10AC
330
59C
100
AcDbDictionary
280
     1
281
     1
  3
ACAD_XREC_ROUNDTRIP
360
10AD
  0
DICTIONARY
  5
10A8
330
59A
100
AcDbDictionary
280
     1
281
     1
  3
ACAD_XREC_ROUNDTRIP
360
10A9
  0
DICTIONARY
  5
10B6
330
5A1
100
AcDbDictionary
280
     1
281
     1
  3
ACAD_XREC_ROUNDTRIP
360
10B7
  0
DICTIONARY
  5
10BE
330
5A5
100
AcDbDictionary
280
     1
281
     1
  3
ACAD_XREC_ROUNDTRIP
360
10BF
  0
DICTIONARY
  5
10B0
330
59E
100
AcDbDictionary
280
     1
281
     1
  3
ACAD_XREC_ROUNDTRIP
360
10B1
  0
DICTIONARY
  5
10B4
330
5A0
100
AcDbDictionary
280
     1
281
     1
  3
ACAD_XREC_ROUNDTRIP
360
10B5
  0
DICTIONARY
  5
10BC
330
5A4
100
AcDbDictionary
280
     1
281
     1
  3
ACAD_XREC_ROUNDTRIP
360
10BD
  0
DICTIONARY
  5
10A0
330
596
100
AcDbDictionary
280
     1
281
     1
  3
ACAD_XREC_ROUNDTRIP
360
10A1
  0
DICTIONARY
  5
10A2
330
597
100
AcDbDictionary
280
     1
281
     1
  3
ACAD_XREC_ROUNDTRIP
360
10A3
  0
DICTIONARY
  5
10A4
330
598
100
AcDbDictionary
280
     1
281
     1
  3
ACAD_XREC_ROUNDTRIP
360
10A5
  0
DICTIONARY
  5
10A6
330
599
100
AcDbDictionary
280
     1
281
     1
  3
ACAD_XREC_ROUNDTRIP
360
10A7
  0
DICTIONARY
  5
10BA
330
5A3
100
AcDbDictionary
280
     1
281
     1
  3
ACAD_XREC_ROUNDTRIP
360
10BB
  0
DICTIONARY
  5
10B2
330
59F
100
AcDbDictionary
280
     1
281
     1
  3
ACAD_XREC_ROUNDTRIP
360
10B3
  0
DICTIONARY
  5
10B8
330
5A2
100
AcDbDictionary
280
     1
281
     1
  3
ACAD_XREC_ROUNDTRIP
360
10B9
  0
XRECORD
  5
588
102
{ACAD_REACTORS
330
586
102
}
330
586
100
AcDbXrecord
280
     1
270
     1
271
     1
  0
XRECORD
  5
587
102
{ACAD_REACTORS
330
586
102
}
330
586
100
AcDbXrecord
280
     1
270
     1
271
     1
  0
XRECORD
  5
58B
102
{ACAD_REACTORS
330
586
102
}
330
586
100
AcDbXrecord
280
     1
270
     1
271
     1
  0
XRECORD
  5
58A
102
{ACAD_REACTORS
330
586
102
}
330
586
100
AcDbXrecord
280
     1
270
     1
271
     1
  0
XRECORD
  5
58C
102
{ACAD_REACTORS
330
586
102
}
330
586
100
AcDbXrecord
280
     1
270
     1
271
     1
  0
XRECORD
  5
589
102
{ACAD_REACTORS
330
586
102
}
330
586
100
AcDbXrecord
280
     1
270
     1
271
     1
  0
XRECORD
  5
580
102
{ACAD_REACTORS
330
57E
102
}
330
57E
100
AcDbXrecord
280
     1
270
     1
271
     1
  0
XRECORD
  5
57F
102
{ACAD_REACTORS
330
57E
102
}
330
57E
100
AcDbXrecord
280
     1
270
     1
271
     1
  0
XRECORD
  5
583
102
{ACAD_REACTORS
330
57E
102
}
330
57E
100
AcDbXrecord
280
     1
270
     1
271
     1
  0
XRECORD
  5
582
102
{ACAD_REACTORS
330
57E
102
}
330
57E
100
AcDbXrecord
280
     1
270
     1
271
     1
  0
XRECORD
  5
584
102
{ACAD_REACTORS
330
57E
102
}
330
57E
100
AcDbXrecord
280
     1
270
     1
271
     1
  0
XRECORD
  5
581
102
{ACAD_REACTORS
330
57E
102
}
330
57E
100
AcDbXrecord
280
     1
270
     1
271
     1
  0
XRECORD
  5
590
102
{ACAD_REACTORS
330
58E
102
}
330
58E
100
AcDbXrecord
280
     1
270
     1
271
     1
  0
XRECORD
  5
58F
102
{ACAD_REACTORS
330
58E
102
}
330
58E
100
AcDbXrecord
280
     1
270
     1
271
     1
  0
XRECORD
  5
593
102
{ACAD_REACTORS
330
58E
102
}
330
58E
100
AcDbXrecord
280
     1
270
     1
271
     1
  0
XRECORD
  5
592
102
{ACAD_REACTORS
330
58E
102
}
330
58E
100
AcDbXrecord
280
     1
270
     1
271
     1
  0
XRECORD
  5
594
102
{ACAD_REACTORS
330
58E
102
}
330
58E
100
AcDbXrecord
280
     1
270
     1
271
     1
  0
XRECORD
  5
591
102
{ACAD_REACTORS
330
58E
102
}
330
58E
100
AcDbXrecord
280
     1
270
     1
271
     1
  0
CELLSTYLEMAP
  5
10C1
102
{ACAD_REACTORS
330
5CE
102
}
330
5CE
100
AcDbCellStyleMap
 90
        3
300
CELLSTYLE
  1
TABLEFORMAT_BEGIN
 90
        5
170
     1
 91
        0
 92
        0
 62
   257
 93
        1
300
CONTENTFORMAT
  1
CONTENTFORMAT_BEGIN
 90
        0
 91
        0
 92
        4
 93
        0
300

 40
0.0
140
1.0
 94
        5
 62
     0
340
11
144
6.0
309
CONTENTFORMAT_END
171
     1
301
MARGIN
  1
CELLMARGIN_BEGIN
 40
1.5
 40
1.5
 40
1.5
 40
1.5
 40
4.5
 40
4.5
309
CELLMARGIN_END
 94
        6
 95
        1
302
GRIDFORMAT
  1
GRIDFORMAT_BEGIN
 90
        0
 91
        1
 62
     0
 92
       -2
340
0
 93
        0
 40
0.045
309
GRIDFORMAT_END
 95
        2
302
GRIDFORMAT
  1
GRIDFORMAT_BEGIN
 90
        0
 91
        1
 62
     0
 92
       -2
340
0
 93
        0
 40
0.045
309
GRIDFORMAT_END
 95
        4
302
GRIDFORMAT
  1
GRIDFORMAT_BEGIN
 90
        0
 91
        1
 62
     0
 92
       -2
340
0
 93
        0
 40
0.045
309
GRIDFORMAT_END
 95
        8
302
GRIDFORMAT
  1
GRIDFORMAT_BEGIN
 90
        0
 91
        1
 62
     0
 92
       -2
340
0
 93
        0
 40
0.045
309
GRIDFORMAT_END
 95
       16
302
GRIDFORMAT
  1
GRIDFORMAT_BEGIN
 90
        0
 91
        1
 62
     0
 92
       -2
340
0
 93
        0
 40
0.045
309
GRIDFORMAT_END
 95
       32
302
GRIDFORMAT
  1
GRIDFORMAT_BEGIN
 90
        0
 91
        1
 62
     0
 92
       -2
340
0
 93
        0
 40
0.045
309
GRIDFORMAT_END
309
TABLEFORMAT_END
  1
CELLSTYLE_BEGIN
 90
        1
 91
        1
300
_TITLE
309
CELLSTYLE_END
300
CELLSTYLE
  1
TABLEFORMAT_BEGIN
 90
        5
170
     1
 91
        0
 92
        0
 62
   257
 93
        1
300
CONTENTFORMAT
  1
CONTENTFORMAT_BEGIN
 90
        0
 91
        0
 92
        4
 93
        0
300

 40
0.0
140
1.0
 94
        5
 62
     0
340
11
144
4.5
309
CONTENTFORMAT_END
171
     1
301
MARGIN
  1
CELLMARGIN_BEGIN
 40
1.5
 40
1.5
 40
1.5
 40
1.5
 40
4.5
 40
4.5
309
CELLMARGIN_END
 94
        6
 95
        1
302
GRIDFORMAT
  1
GRIDFORMAT_BEGIN
 90
        0
 91
        1
 62
     0
 92
       -2
340
0
 93
        0
 40
0.045
309
GRIDFORMAT_END
 95
        2
302
GRIDFORMAT
  1
GRIDFORMAT_BEGIN
 90
        0
 91
        1
 62
     0
 92
       -2
340
0
 93
        0
 40
0.045
309
GRIDFORMAT_END
 95
        4
302
GRIDFORMAT
  1
GRIDFORMAT_BEGIN
 90
        0
 91
        1
 62
     0
 92
       -2
340
0
 93
        0
 40
0.045
309
GRIDFORMAT_END
 95
        8
302
GRIDFORMAT
  1
GRIDFORMAT_BEGIN
 90
        0
 91
        1
 62
     0
 92
       -2
340
0
 93
        0
 40
0.045
309
GRIDFORMAT_END
 95
       16
302
GRIDFORMAT
  1
GRIDFORMAT_BEGIN
 90
        0
 91
        1
 62
     0
 92
       -2
340
0
 93
        0
 40
0.045
309
GRIDFORMAT_END
 95
       32
302
GRIDFORMAT
  1
GRIDFORMAT_BEGIN
 90
        0
 91
        1
 62
     0
 92
       -2
340
0
 93
        0
 40
0.045
309
GRIDFORMAT_END
309
TABLEFORMAT_END
  1
CELLSTYLE_BEGIN
 90
        2
 91
        1
300
_HEADER
309
CELLSTYLE_END
300
CELLSTYLE
  1
TABLEFORMAT_BEGIN
 90
        5
170
     1
 91
        0
 92
        0
 62
   257
 93
        1
300
CONTENTFORMAT
  1
CONTENTFORMAT_BEGIN
 90
        0
 91
        0
 92
        4
 93
        0
300

 40
0.0
140
1.0
 94
        2
 62
     0
340
11
144
4.5
309
CONTENTFORMAT_END
171
     1
301
MARGIN
  1
CELLMARGIN_BEGIN
 40
1.5
 40
1.5
 40
1.5
 40
1.5
 40
4.5
 40
4.5
309
CELLMARGIN_END
 94
        6
 95
        1
302
GRIDFORMAT
  1
GRIDFORMAT_BEGIN
 90
        0
 91
        1
 62
     0
 92
       -2
340
0
 93
        0
 40
0.045
309
GRIDFORMAT_END
 95
        2
302
GRIDFORMAT
  1
GRIDFORMAT_BEGIN
 90
        0
 91
        1
 62
     0
 92
       -2
340
0
 93
        0
 40
0.045
309
GRIDFORMAT_END
 95
        4
302
GRIDFORMAT
  1
GRIDFORMAT_BEGIN
 90
        0
 91
        1
 62
     0
 92
       -2
340
0
 93
        0
 40
0.045
309
GRIDFORMAT_END
 95
        8
302
GRIDFORMAT
  1
GRIDFORMAT_BEGIN
 90
        0
 91
        1
 62
     0
 92
       -2
340
0
 93
        0
 40
0.045
309
GRIDFORMAT_END
 95
       16
302
GRIDFORMAT
  1
GRIDFORMAT_BEGIN
 90
        0
 91
        1
 62
     0
 92
       -2
340
0
 93
        0
 40
0.045
309
GRIDFORMAT_END
 95
       32
302
GRIDFORMAT
  1
GRIDFORMAT_BEGIN
 90
        0
 91
        1
 62
     0
 92
       -2
340
0
 93
        0
 40
0.045
309
GRIDFORMAT_END
309
TABLEFORMAT_END
  1
CELLSTYLE_BEGIN
 90
        3
 91
        2
300
_DATA
309
CELLSTYLE_END
  0
XRECORD
  5
10C0
102
{ACAD_REACTORS
330
5CE
102
}
330
5CE
100
AcDbXrecord
280
     1
102
ACAD_ROUNDTRIP_PRE2007_TABLESTYLE
 90
        4
 91
        0
  1

 92
        4
 93
        0
  2

 94
        4
 95
        0
  3

  0
XRECORD
  5
10AB
102
{ACAD_REACTORS
330
10AA
102
}
330
10AA
100
AcDbXrecord
280
     1
102
RTVSPropertyOp0
 70
     1
102
RTVSPropertyOp1
 70
     1
102
RTVSPropertyOp2
 70
     1
102
RTVSPropertyOp3
 70
     1
102
RTVSPropertyOp4
 70
     1
102
RTVSPropertyOp5
 70
     1
102
RTVSPropertyOp6
 70
     1
102
RTVSPropertyOp7
 70
     1
102
RTVSPropertyOp8
 70
     1
102
RTVSPropertyOp9
 70
     1
102
RTVSPropertyOp10
 70
     1
102
RTVSPropertyOp11
 70
     1
102
RTVSPropertyOp12
 70
     1
102
RTVSPropertyOp13
 70
     1
102
RTVSPropertyOp14
 70
     1
102
RTVSPropertyOp15
 70
     1
102
RTVSPropertyOp16
 70
     1
102
RTVSPropertyOp17
 70
     1
102
RTVSPropertyOp18
 70
     1
102
RTVSPropertyOp19
 70
     1
102
RTVSPropertyOp20
 70
     1
102
RTVSPropertyOp21
 70
     1
102
RTVSPropertyOp22
 70
     1
102
RTVSPropertyOp23
 70
     1
102
RTVSPropertyOp24
 70
     1
102
RTVSPropertyOp25
 70
     1
102
RTVSPropertyOp26
 70
     1
102
RTVSPropertyOp27
 70
     1
  0
XRECORD
  5
10AF
102
{ACAD_REACTORS
330
10AE
102
}
330
10AE
100
AcDbXrecord
280
     1
102
RTVSPropertyOp0
 70
     1
102
RTVSPropertyOp1
 70
     1
102
RTVSPropertyOp2
 70
     1
102
RTVSPropertyOp3
 70
     1
102
RTVSPropertyOp4
 70
     1
102
RTVSPropertyOp5
 70
     1
102
RTVSPropertyOp6
 70
     1
102
RTVSPropertyOp7
 70
     1
102
RTVSPropertyOp8
 70
     1
102
RTVSPropertyOp9
 70
     1
102
RTVSPropertyOp10
 70
     1
102
RTVSPropertyOp11
 70
     1
102
RTVSPropertyOp12
 70
     1
102
RTVSPropertyOp13
 70
     1
102
RTVSPropertyOp14
 70
     1
102
RTVSPropertyOp15
 70
     1
102
RTVSPropertyOp16
 70
     1
102
RTVSPropertyOp17
 70
     1
102
RTVSPropertyOp18
 70
     1
102
RTVSPropertyOp19
 70
     1
102
RTVSPropertyOp20
 70
     1
102
RTVSPropertyOp21
 70
     1
102
RTVSPropertyOp22
 70
     1
102
RTVSPropertyOp23
 70
     1
102
RTVSPropertyOp24
 70
     1
102
RTVSPropertyOp25
 70
     1
102
RTVSPropertyOp26
 70
     1
102
RTVSPropertyOp27
 70
     1
  0
XRECORD
  5
10AD
102
{ACAD_REACTORS
330
10AC
102
}
330
10AC
100
AcDbXrecord
280
     1
102
RTVSPropertyOp0
 70
     1
102
RTVSPropertyOp1
 70
     1
102
RTVSPropertyOp2
 70
     1
102
RTVSPropertyOp3
 70
     1
102
RTVSPropertyOp4
 70
     1
102
RTVSPropertyOp5
 70
     1
102
RTVSPropertyOp6
 70
     1
102
RTVSPropertyOp7
 70
     1
102
RTVSPropertyOp8
 70
     1
102
RTVSPropertyOp9
 70
     1
102
RTVSPropertyOp10
 70
     1
102
RTVSPropertyOp11
 70
     1
102
RTVSPropertyOp12
 70
     1
102
RTVSPropertyOp13
 70
     1
102
RTVSPropertyOp14
 70
     1
102
RTVSPropertyOp15
 70
     1
102
RTVSPropertyOp16
 70
     1
102
RTVSPropertyOp17
 70
     1
102
RTVSPropertyOp18
 70
     1
102
RTVSPropertyOp19
 70
     1
102
RTVSPropertyOp20
 70
     1
102
RTVSPropertyOp21
 70
     1
102
RTVSPropertyOp22
 70
     1
102
RTVSPropertyOp23
 70
     1
102
RTVSPropertyOp24
 70
     1
102
RTVSPropertyOp25
 70
     1
102
RTVSPropertyOp26
 70
     1
102
RTVSPropertyOp27
 70
     1
  0
XRECORD
  5
10A9
102
{ACAD_REACTORS
330
10A8
102
}
330
10A8
100
AcDbXrecord
280
     1
102
RTVSPropertyOp0
 70
     1
102
RTVSPropertyOp1
 70
     1
102
RTVSPropertyOp2
 70
     1
102
RTVSPropertyOp3
 70
     1
102
RTVSPropertyOp4
 70
     1
102
RTVSPropertyOp5
 70
     1
102
RTVSPropertyOp6
 70
     1
102
RTVSPropertyOp7
 70
     1
102
RTVSPropertyOp8
 70
     1
102
RTVSPropertyOp9
 70
     1
102
RTVSPropertyOp10
 70
     1
102
RTVSPropertyOp11
 70
     1
102
RTVSPropertyOp12
 70
     1
102
RTVSPropertyOp13
 70
     1
102
RTVSPropertyOp14
 70
     1
102
RTVSPropertyOp15
 70
     1
102
RTVSPropertyOp16
 70
     1
102
RTVSPropertyOp17
 70
     1
102
RTVSPropertyOp18
 70
     1
102
RTVSPropertyOp19
 70
     1
102
RTVSPropertyOp20
 70
     1
102
RTVSPropertyOp21
 70
     1
102
RTVSPropertyOp22
 70
     1
102
RTVSPropertyOp23
 70
     1
102
RTVSPropertyOp24
 70
     1
102
RTVSPropertyOp25
 70
     1
102
RTVSPropertyOp26
 70
     1
102
RTVSPropertyOp27
 70
     1
  0
XRECORD
  5
10B7
102
{ACAD_REACTORS
330
10B6
102
}
330
10B6
100
AcDbXrecord
280
     1
102
RTVSPropertyOp0
 70
     1
102
RTVSPropertyOp1
 70
     1
102
RTVSPropertyOp2
 70
     1
102
RTVSPropertyOp3
 70
     1
102
RTVSPropertyOp4
 70
     1
102
RTVSPropertyOp5
 70
     1
102
RTVSPropertyOp6
 70
     1
102
RTVSPropertyOp7
 70
     1
102
RTVSPropertyOp8
 70
     1
102
RTVSPropertyOp9
 70
     1
102
RTVSPropertyOp10
 70
     1
102
RTVSPropertyOp11
 70
     1
102
RTVSPropertyOp12
 70
     1
102
RTVSPropertyOp13
 70
     1
102
RTVSPropertyOp14
 70
     1
102
RTVSPropertyOp15
 70
     1
102
RTVSPropertyOp16
 70
     1
102
RTVSPropertyOp17
 70
     1
102
RTVSPropertyOp18
 70
     1
102
RTVSPropertyOp19
 70
     1
102
RTVSPropertyOp20
 70
     1
102
RTVSPropertyOp21
 70
     1
102
RTVSPropertyOp22
 70
     1
102
RTVSPropertyOp23
 70
     1
102
RTVSPropertyOp24
 70
     1
102
RTVSPropertyOp25
 70
     1
102
RTVSPropertyOp26
 70
     1
102
RTVSPropertyOp27
 70
     1
  0
XRECORD
  5
10BF
102
{ACAD_REACTORS
330
10BE
102
}
330
10BE
100
AcDbXrecord
280
     1
102
RTVSPropertyOp0
 70
     1
102
RTVSPropertyOp1
 70
     1
102
RTVSPropertyOp2
 70
     1
102
RTVSPropertyOp3
 70
     1
102
RTVSPropertyOp4
 70
     1
102
RTVSPropertyOp5
 70
     1
102
RTVSPropertyOp6
 70
     1
102
RTVSPropertyOp7
 70
     1
102
RTVSPropertyOp8
 70
     1
102
RTVSPropertyOp9
 70
     1
102
RTVSPropertyOp10
 70
     1
102
RTVSPropertyOp11
 70
     1
102
RTVSPropertyOp12
 70
     1
102
RTVSPropertyOp13
 70
     1
102
RTVSPropertyOp14
 70
     1
102
RTVSPropertyOp15
 70
     1
102
RTVSPropertyOp16
 70
     1
102
RTVSPropertyOp17
 70
     1
102
RTVSPropertyOp18
 70
     1
102
RTVSPropertyOp19
 70
     1
102
RTVSPropertyOp20
 70
     1
102
RTVSPropertyOp21
 70
     1
102
RTVSPropertyOp22
 70
     1
102
RTVSPropertyOp23
 70
     1
102
RTVSPropertyOp24
 70
     1
102
RTVSPropertyOp25
 70
     1
102
RTVSPropertyOp26
 70
     1
102
RTVSPropertyOp27
 70
     1
  0
XRECORD
  5
10B1
102
{ACAD_REACTORS
330
10B0
102
}
330
10B0
100
AcDbXrecord
280
     1
102
RTVSPropertyOp0
 70
     1
102
RTVSPropertyOp1
 70
     1
102
RTVSPropertyOp2
 70
     1
102
RTVSPropertyOp3
 70
     1
102
RTVSPropertyOp4
 70
     1
102
RTVSPropertyOp5
 70
     1
102
RTVSPropertyOp6
 70
     1
102
RTVSPropertyOp7
 70
     1
102
RTVSPropertyOp8
 70
     1
102
RTVSPropertyOp9
 70
     1
102
RTVSPropertyOp10
 70
     1
102
RTVSPropertyOp11
 70
     1
102
RTVSPropertyOp12
 70
     1
102
RTVSPropertyOp13
 70
     1
102
RTVSPropertyOp14
 70
     1
102
RTVSPropertyOp15
 70
     1
102
RTVSPropertyOp16
 70
     1
102
RTVSPropertyOp17
 70
     1
102
RTVSPropertyOp18
 70
     1
102
RTVSPropertyOp19
 70
     1
102
RTVSPropertyOp20
 70
     1
102
RTVSPropertyOp21
 70
     1
102
RTVSPropertyOp22
 70
     1
102
RTVSPropertyOp23
 70
     1
102
RTVSPropertyOp24
 70
     1
102
RTVSPropertyOp25
 70
     1
102
RTVSPropertyOp26
 70
     1
102
RTVSPropertyOp27
 70
     1
  0
XRECORD
  5
10B5
102
{ACAD_REACTORS
330
10B4
102
}
330
10B4
100
AcDbXrecord
280
     1
102
RTVSPropertyOp0
 70
     1
102
RTVSPropertyOp1
 70
     1
102
RTVSPropertyOp2
 70
     1
102
RTVSPropertyOp3
 70
     1
102
RTVSPropertyOp4
 70
     1
102
RTVSPropertyOp5
 70
     1
102
RTVSPropertyOp6
 70
     1
102
RTVSPropertyOp7
 70
     1
102
RTVSPropertyOp8
 70
     1
102
RTVSPropertyOp9
 70
     1
102
RTVSPropertyOp10
 70
     1
102
RTVSPropertyOp11
 70
     1
102
RTVSPropertyOp12
 70
     1
102
RTVSPropertyOp13
 70
     1
102
RTVSPropertyOp14
 70
     1
102
RTVSPropertyOp15
 70
     1
102
RTVSPropertyOp16
 70
     1
102
RTVSPropertyOp17
 70
     1
102
RTVSPropertyOp18
 70
     1
102
RTVSPropertyOp19
 70
     1
102
RTVSPropertyOp20
 70
     1
102
RTVSPropertyOp21
 70
     1
102
RTVSPropertyOp22
 70
     1
102
RTVSPropertyOp23
 70
     1
102
RTVSPropertyOp24
 70
     1
102
RTVSPropertyOp25
 70
     1
102
RTVSPropertyOp26
 70
     1
102
RTVSPropertyOp27
 70
     1
  0
XRECORD
  5
10BD
102
{ACAD_REACTORS
330
10BC
102
}
330
10BC
100
AcDbXrecord
280
     1
102
RTVSPropertyOp0
 70
     1
102
RTVSPropertyOp1
 70
     1
102
RTVSPropertyOp2
 70
     1
102
RTVSPropertyOp3
 70
     1
102
RTVSPropertyOp4
 70
     1
102
RTVSPropertyOp5
 70
     1
102
RTVSPropertyOp6
 70
     1
102
RTVSPropertyOp7
 70
     1
102
RTVSPropertyOp8
 70
     1
102
RTVSPropertyOp9
 70
     1
102
RTVSPropertyOp10
 70
     1
102
RTVSPropertyOp11
 70
     1
102
RTVSPropertyOp12
 70
     1
102
RTVSPropertyOp13
 70
     1
102
RTVSPropertyOp14
 70
     1
102
RTVSPropertyOp15
 70
     1
102
RTVSPropertyOp16
 70
     1
102
RTVSPropertyOp17
 70
     1
102
RTVSPropertyOp18
 70
     1
102
RTVSPropertyOp19
 70
     1
102
RTVSPropertyOp20
 70
     1
102
RTVSPropertyOp21
 70
     1
102
RTVSPropertyOp22
 70
     1
102
RTVSPropertyOp23
 70
     1
102
RTVSPropertyOp24
 70
     1
102
RTVSPropertyOp25
 70
     1
102
RTVSPropertyOp26
 70
     1
102
RTVSPropertyOp27
 70
     1
  0
XRECORD
  5
10A1
102
{ACAD_REACTORS
330
10A0
102
}
330
10A0
100
AcDbXrecord
280
     1
102
RTVSPropertyOp0
 70
     1
102
RTVSPropertyOp1
 70
     1
102
RTVSPropertyOp2
 70
     1
102
RTVSPropertyOp3
 70
     1
102
RTVSPropertyOp4
 70
     1
102
RTVSPropertyOp5
 70
     1
102
RTVSPropertyOp6
 70
     1
102
RTVSPropertyOp7
 70
     1
102
RTVSPropertyOp8
 70
     1
102
RTVSPropertyOp9
 70
     1
102
RTVSPropertyOp10
 70
     1
102
RTVSPropertyOp11
 70
     1
102
RTVSPropertyOp12
 70
     1
102
RTVSPropertyOp13
 70
     1
102
RTVSPropertyOp14
 70
     1
102
RTVSPropertyOp15
 70
     1
102
RTVSPropertyOp16
 70
     1
102
RTVSPropertyOp17
 70
     1
102
RTVSPropertyOp18
 70
     1
102
RTVSPropertyOp19
 70
     1
102
RTVSPropertyOp20
 70
     1
102
RTVSPropertyOp21
 70
     1
102
RTVSPropertyOp22
 70
     1
102
RTVSPropertyOp23
 70
     1
102
RTVSPropertyOp24
 70
     1
102
RTVSPropertyOp25
 70
     1
102
RTVSPropertyOp26
 70
     1
102
RTVSPropertyOp27
 70
     1
  0
XRECORD
  5
10A3
102
{ACAD_REACTORS
330
10A2
102
}
330
10A2
100
AcDbXrecord
280
     1
102
RTVSPropertyOp0
 70
     1
102
RTVSPropertyOp1
 70
     1
102
RTVSPropertyOp2
 70
     1
102
RTVSPropertyOp3
 70
     1
102
RTVSPropertyOp4
 70
     1
102
RTVSPropertyOp5
 70
     1
102
RTVSPropertyOp6
 70
     1
102
RTVSPropertyOp7
 70
     1
102
RTVSPropertyOp8
 70
     1
102
RTVSPropertyOp9
 70
     1
102
RTVSPropertyOp10
 70
     1
102
RTVSPropertyOp11
 70
     1
102
RTVSPropertyOp12
 70
     1
102
RTVSPropertyOp13
 70
     1
102
RTVSPropertyOp14
 70
     1
102
RTVSPropertyOp15
 70
     1
102
RTVSPropertyOp16
 70
     1
102
RTVSPropertyOp17
 70
     1
102
RTVSPropertyOp18
 70
     1
102
RTVSPropertyOp19
 70
     1
102
RTVSPropertyOp20
 70
     1
102
RTVSPropertyOp21
 70
     1
102
RTVSPropertyOp22
 70
     1
102
RTVSPropertyOp23
 70
     1
102
RTVSPropertyOp24
 70
     1
102
RTVSPropertyOp25
 70
     1
102
RTVSPropertyOp26
 70
     1
102
RTVSPropertyOp27
 70
     1
  0
XRECORD
  5
10A5
102
{ACAD_REACTORS
330
10A4
102
}
330
10A4
100
AcDbXrecord
280
     1
102
RTVSPropertyOp0
 70
     1
102
RTVSPropertyOp1
 70
     1
102
RTVSPropertyOp2
 70
     1
102
RTVSPropertyOp3
 70
     1
102
RTVSPropertyOp4
 70
     1
102
RTVSPropertyOp5
 70
     1
102
RTVSPropertyOp6
 70
     1
102
RTVSPropertyOp7
 70
     1
102
RTVSPropertyOp8
 70
     1
102
RTVSPropertyOp9
 70
     1
102
RTVSPropertyOp10
 70
     1
102
RTVSPropertyOp11
 70
     1
102
RTVSPropertyOp12
 70
     1
102
RTVSPropertyOp13
 70
     1
102
RTVSPropertyOp14
 70
     1
102
RTVSPropertyOp15
 70
     1
102
RTVSPropertyOp16
 70
     1
102
RTVSPropertyOp17
 70
     1
102
RTVSPropertyOp18
 70
     1
102
RTVSPropertyOp19
 70
     1
102
RTVSPropertyOp20
 70
     1
102
RTVSPropertyOp21
 70
     1
102
RTVSPropertyOp22
 70
     1
102
RTVSPropertyOp23
 70
     1
102
RTVSPropertyOp24
 70
     1
102
RTVSPropertyOp25
 70
     1
102
RTVSPropertyOp26
 70
     1
102
RTVSPropertyOp27
 70
     1
  0
XRECORD
  5
10A7
102
{ACAD_REACTORS
330
10A6
102
}
330
10A6
100
AcDbXrecord
280
     1
102
RTVSPropertyOp0
 70
     1
102
RTVSPropertyOp1
 70
     1
102
RTVSPropertyOp2
 70
     1
102
RTVSPropertyOp3
 70
     1
102
RTVSPropertyOp4
 70
     1
102
RTVSPropertyOp5
 70
     1
102
RTVSPropertyOp6
 70
     1
102
RTVSPropertyOp7
 70
     1
102
RTVSPropertyOp8
 70
     1
102
RTVSPropertyOp9
 70
     1
102
RTVSPropertyOp10
 70
     1
102
RTVSPropertyOp11
 70
     1
102
RTVSPropertyOp12
 70
     1
102
RTVSPropertyOp13
 70
     1
102
RTVSPropertyOp14
 70
     1
102
RTVSPropertyOp15
 70
     1
102
RTVSPropertyOp16
 70
     1
102
RTVSPropertyOp17
 70
     1
102
RTVSPropertyOp18
 70
     1
102
RTVSPropertyOp19
 70
     1
102
RTVSPropertyOp20
 70
     1
102
RTVSPropertyOp21
 70
     1
102
RTVSPropertyOp22
 70
     1
102
RTVSPropertyOp23
 70
     1
102
RTVSPropertyOp24
 70
     1
102
RTVSPropertyOp25
 70
     1
102
RTVSPropertyOp26
 70
     1
102
RTVSPropertyOp27
 70
     1
  0
XRECORD
  5
10BB
102
{ACAD_REACTORS
330
10BA
102
}
330
10BA
100
AcDbXrecord
280
     1
102
RTVSPropertyOp0
 70
     1
102
RTVSPropertyOp1
 70
     1
102
RTVSPropertyOp2
 70
     1
102
RTVSPropertyOp3
 70
     1
102
RTVSPropertyOp4
 70
     1
102
RTVSPropertyOp5
 70
     1
102
RTVSPropertyOp6
 70
     1
102
RTVSPropertyOp7
 70
     1
102
RTVSPropertyOp8
 70
     1
102
RTVSPropertyOp9
 70
     1
102
RTVSPropertyOp10
 70
     1
102
RTVSPropertyOp11
 70
     1
102
RTVSPropertyOp12
 70
     1
102
RTVSPropertyOp13
 70
     1
102
RTVSPropertyOp14
 70
     1
102
RTVSPropertyOp15
 70
     1
102
RTVSPropertyOp16
 70
     1
102
RTVSPropertyOp17
 70
     1
102
RTVSPropertyOp18
 70
     1
102
RTVSPropertyOp19
 70
     1
102
RTVSPropertyOp20
 70
     1
102
RTVSPropertyOp21
 70
     1
102
RTVSPropertyOp22
 70
     1
102
RTVSPropertyOp23
 70
     1
102
RTVSPropertyOp24
 70
     1
102
RTVSPropertyOp25
 70
     1
102
RTVSPropertyOp26
 70
     1
102
RTVSPropertyOp27
 70
     1
  0
XRECORD
  5
10B3
102
{ACAD_REACTORS
330
10B2
102
}
330
10B2
100
AcDbXrecord
280
     1
102
RTVSPropertyOp0
 70
     1
102
RTVSPropertyOp1
 70
     1
102
RTVSPropertyOp2
 70
     1
102
RTVSPropertyOp3
 70
     1
102
RTVSPropertyOp4
 70
     1
102
RTVSPropertyOp5
 70
     1
102
RTVSPropertyOp6
 70
     1
102
RTVSPropertyOp7
 70
     1
102
RTVSPropertyOp8
 70
     1
102
RTVSPropertyOp9
 70
     1
102
RTVSPropertyOp10
 70
     1
102
RTVSPropertyOp11
 70
     1
102
RTVSPropertyOp12
 70
     1
102
RTVSPropertyOp13
 70
     1
102
RTVSPropertyOp14
 70
     1
102
RTVSPropertyOp15
 70
     1
102
RTVSPropertyOp16
 70
     1
102
RTVSPropertyOp17
 70
     1
102
RTVSPropertyOp18
 70
     1
102
RTVSPropertyOp19
 70
     1
102
RTVSPropertyOp20
 70
     1
102
RTVSPropertyOp21
 70
     1
102
RTVSPropertyOp22
 70
     1
102
RTVSPropertyOp23
 70
     1
102
RTVSPropertyOp24
 70
     1
102
RTVSPropertyOp25
 70
     1
102
RTVSPropertyOp26
 70
     1
102
RTVSPropertyOp27
 70
     1
  0
XRECORD
  5
10B9
102
{ACAD_REACTORS
330
10B8
102
}
330
10B8
100
AcDbXrecord
280
     1
102
RTVSPropertyOp0
 70
     1
102
RTVSPropertyOp1
 70
     1
102
RTVSPropertyOp2
 70
     1
102
RTVSPropertyOp3
 70
     1
102
RTVSPropertyOp4
 70
     1
102
RTVSPropertyOp5
 70
     1
102
RTVSPropertyOp6
 70
     1
102
RTVSPropertyOp7
 70
     1
102
RTVSPropertyOp8
 70
     1
102
RTVSPropertyOp9
 70
     1
102
RTVSPropertyOp10
 70
     1
102
RTVSPropertyOp11
 70
     1
102
RTVSPropertyOp12
 70
     1
102
RTVSPropertyOp13
 70
     1
102
RTVSPropertyOp14
 70
     1
102
RTVSPropertyOp15
 70
     1
102
RTVSPropertyOp16
 70
     1
102
RTVSPropertyOp17
 70
     1
102
RTVSPropertyOp18
 70
     1
102
RTVSPropertyOp19
 70
     1
102
RTVSPropertyOp20
 70
     1
102
RTVSPropertyOp21
 70
     1
102
RTVSPropertyOp22
 70
     1
102
RTVSPropertyOp23
 70
     1
102
RTVSPropertyOp24
 70
     1
102
RTVSPropertyOp25
 70
     1
102
RTVSPropertyOp26
 70
     1
102
RTVSPropertyOp27
 70
     1
  0
ENDSEC
  0
EOF
