  0
SECTION
  2
HEADER
  9
$ACADVER
  1
AC1018
  9
$ACADMAINTVER
 70
   104
  9
$DWGCODEPAGE
  3
ANSI_936
  9
$LASTSAVEDBY
  1
yuqin.cai
  9
$INSBASE
 10
0.0
 20
0.0
 30
0.0
  9
$EXTMIN
 10
-11.331408874
 20
472.8536581696999
 30
-0.00000001
  9
$EXTMAX
 10
1189.1112375161
 20
1518.1489856244
 30
0.00000001
  9
$LIMMIN
 10
0.0
 20
0.0
  9
$LIMMAX
 10
558.8
 20
431.8
  9
$ORTHOMODE
 70
     0
  9
$REGENMODE
 70
     1
  9
$FILLMODE
 70
     1
  9
$QTEXTMODE
 70
     0
  9
$MIRRTEXT
 70
     0
  9
$LTSCALE
 40
30.734
  9
$ATTMODE
 70
     1
  9
$TEXTSIZE
 40
0.2
  9
$TRACEWID
 40
0.05
  9
$TEXTSTYLE
  7
STANDARD
  9
$CLAYER
  8
0
  9
$CELTYPE
  6
BYLAYER
  9
$CECOLOR
 62
   256
  9
$CELTSCALE
 40
1.0
  9
$DISPSILH
 70
     0
  9
$DIMSCALE
 40
1.0
  9
$DIMASZ
 40
3.5
  9
$DIMEXO
 40
1.0
  9
$DIMDLI
 40
21.2344
  9
$DIMRND
 40
0.0
  9
$DIMDLE
 40
0.0
  9
$DIMEXE
 40
1.5
  9
$DIMTP
 40
0.01
  9
$DIMTM
 40
0.01
  9
$DIMTXT
 40
3.5
  9
$DIMCEN
 40
5.0292
  9
$DIMTSZ
 40
0.0
  9
$DIMTOL
 70
     1
  9
$DIMLIM
 70
     0
  9
$DIMTIH
 70
     1
  9
$DIMTOH
 70
     1
  9
$DIMSE1
 70
     0
  9
$DIMSE2
 70
     0
  9
$DIMTAD
 70
     0
  9
$DIMZIN
 70
     0
  9
$DIMBLK
  1

  9
$DIMASO
 70
     1
  9
$DIMSHO
 70
     1
  9
$DIMPOST
  1

  9
$DIMAPOST
  1

  9
$DIMALT
 70
     0
  9
$DIMALTD
 70
     2
  9
$DIMALTF
 40
25.4
  9
$DIMLFAC
 40
1.0
  9
$DIMTOFL
 70
     0
  9
$DIMTVP
 40
0.0
  9
$DIMTIX
 70
     0
  9
$DIMSOXD
 70
     0
  9
$DIMSAH
 70
     0
  9
$DIMBLK1
  1

  9
$DIMBLK2
  1

  9
$DIMSTYLE
  2
STANDARD
  9
$DIMCLRD
 70
     0
  9
$DIMCLRE
 70
     0
  9
$DIMCLRT
 70
     0
  9
$DIMTFAC
 40
1.0
  9
$DIMGAP
 40
0.625
  9
$DIMJUST
 70
     0
  9
$DIMSD1
 70
     0
  9
$DIMSD2
 70
     0
  9
$DIMTOLJ
 70
     1
  9
$DIMTZIN
 70
     0
  9
$DIMALTZ
 70
     0
  9
$DIMALTTZ
 70
     0
  9
$DIMUPT
 70
     0
  9
$DIMDEC
 70
     4
  9
$DIMTDEC
 70
     4
  9
$DIMALTU
 70
     2
  9
$DIMALTTD
 70
     2
  9
$DIMTXSTY
  7
STANDARD
  9
$DIMAUNIT
 70
     0
  9
$DIMADEC
 70
     0
  9
$DIMALTRND
 40
0.0
  9
$DIMAZIN
 70
     0
  9
$DIMDSEP
 70
    44
  9
$DIMATFIT
 70
     3
  9
$DIMFRAC
 70
     0
  9
$DIMLDRBLK
  1

  9
$DIMLUNIT
 70
     2
  9
$DIMLWD
 70
    -2
  9
$DIMLWE
 70
    -2
  9
$DIMTMOVE
 70
     0
  9
$LUNITS
 70
     2
  9
$LUPREC
 70
     4
  9
$SKETCHINC
 40
0.1
  9
$FILLETRAD
 40
0.0
  9
$AUNITS
 70
     0
  9
$AUPREC
 70
     0
  9
$MENU
  1
.
  9
$ELEVATION
 40
0.0
  9
$PELEVATION
 40
0.0
  9
$THICKNESS
 40
0.0
  9
$LIMCHECK
 70
     0
  9
$CHAMFERA
 40
0.0
  9
$CHAMFERB
 40
0.0
  9
$CHAMFERC
 40
0.0
  9
$CHAMFERD
 40
0.0
  9
$SKPOLY
 70
     0
  9
$TDCREATE
 40
2458310.454978692
  9
$TDUCREATE
 40
2458310.121645359
  9
$TDUPDATE
 40
2458507.620838044
  9
$TDUUPDATE
 40
2458507.287504711
  9
$TDINDWG
 40
0.0015337037
  9
$TDUSRTIMER
 40
0.0015337037
  9
$USRTIMER
 70
     1
  9
$ANGBASE
 50
0.0
  9
$ANGDIR
 70
     0
  9
$PDMODE
 70
     3
  9
$PDSIZE
 40
8.0
  9
$PLINEWID
 40
0.0
  9
$SPLFRAME
 70
     0
  9
$SPLINETYPE
 70
     6
  9
$SPLINESEGS
 70
     8
  9
$HANDSEED
  5
AF6
  9
$SURFTAB1
 70
     6
  9
$SURFTAB2
 70
     6
  9
$SURFTYPE
 70
     6
  9
$SURFU
 70
     6
  9
$SURFV
 70
     6
  9
$UCSBASE
  2

  9
$UCSNAME
  2

  9
$UCSORG
 10
0.0
 20
0.0
 30
0.0
  9
$UCSXDIR
 10
1.0
 20
0.0
 30
0.0
  9
$UCSYDIR
 10
0.0
 20
1.0
 30
0.0
  9
$UCSORTHOREF
  2

  9
$UCSORTHOVIEW
 70
     0
  9
$UCSORGTOP
 10
0.0
 20
0.0
 30
0.0
  9
$UCSORGBOTTOM
 10
0.0
 20
0.0
 30
0.0
  9
$UCSORGLEFT
 10
0.0
 20
0.0
 30
0.0
  9
$UCSORGRIGHT
 10
0.0
 20
0.0
 30
0.0
  9
$UCSORGFRONT
 10
0.0
 20
0.0
 30
0.0
  9
$UCSORGBACK
 10
0.0
 20
0.0
 30
0.0
  9
$PUCSBASE
  2

  9
$PUCSNAME
  2

  9
$PUCSORG
 10
0.0
 20
0.0
 30
0.0
  9
$PUCSXDIR
 10
1.0
 20
0.0
 30
0.0
  9
$PUCSYDIR
 10
0.0
 20
1.0
 30
0.0
  9
$PUCSORTHOREF
  2

  9
$PUCSORTHOVIEW
 70
     0
  9
$PUCSORGTOP
 10
0.0
 20
0.0
 30
0.0
  9
$PUCSORGBOTTOM
 10
0.0
 20
0.0
 30
0.0
  9
$PUCSORGLEFT
 10
0.0
 20
0.0
 30
0.0
  9
$PUCSORGRIGHT
 10
0.0
 20
0.0
 30
0.0
  9
$PUCSORGFRONT
 10
0.0
 20
0.0
 30
0.0
  9
$PUCSORGBACK
 10
0.0
 20
0.0
 30
0.0
  9
$USERI1
 70
     0
  9
$USERI2
 70
     0
  9
$USERI3
 70
     0
  9
$USERI4
 70
     0
  9
$USERI5
 70
     0
  9
$USERR1
 40
0.0
  9
$USERR2
 40
0.0
  9
$USERR3
 40
0.0
  9
$USERR4
 40
0.0
  9
$USERR5
 40
0.0
  9
$WORLDVIEW
 70
     1
  9
$SHADEDGE
 70
     3
  9
$SHADEDIF
 70
    70
  9
$TILEMODE
 70
     1
  9
$MAXACTVP
 70
    64
  9
$PINSBASE
 10
0.0
 20
0.0
 30
0.0
  9
$PLIMCHECK
 70
     0
  9
$PEXTMIN
 10
1.000000000000000E+20
 20
1.000000000000000E+20
 30
1.000000000000000E+20
  9
$PEXTMAX
 10
-1.000000000000000E+20
 20
-1.000000000000000E+20
 30
-1.000000000000000E+20
  9
$PLIMMIN
 10
0.0
 20
0.0
  9
$PLIMMAX
 10
12.0
 20
9.0
  9
$UNITMODE
 70
     0
  9
$VISRETAIN
 70
     1
  9
$PLINEGEN
 70
     0
  9
$PSLTSCALE
 70
     1
  9
$TREEDEPTH
 70
  3020
  9
$CMLSTYLE
  2
Standard
  9
$CMLJUST
 70
     0
  9
$CMLSCALE
 40
1.0
  9
$PROXYGRAPHICS
 70
     1
  9
$MEASUREMENT
 70
     1
  9
$CELWEIGHT
370
    -1
  9
$ENDCAPS
280
     0
  9
$JOINSTYLE
280
     0
  9
$LWDISPLAY
290
     0
  9
$INSUNITS
 70
     4
  9
$HYPERLINKBASE
  1

  9
$STYLESHEET
  1

  9
$XEDIT
290
     1
  9
$CEPSNTYPE
380
     0
  9
$PSTYLEMODE
290
     1
  9
$FINGERPRINTGUID
  2
{4F8045E0-F49F-473A-8C2B-3798C39E529D}
  9
$VERSIONGUID
  2
{D41523C0-38BE-4101-BA42-9285F8AE63B7}
  9
$EXTNAMES
290
     1
  9
$PSVPSCALE
 40
0.0
  9
$OLESTARTUP
290
     0
  9
$SORTENTS
280
   127
  9
$INDEXCTL
280
     0
  9
$HIDETEXT
280
     1
  9
$XCLIPFRAME
290
     0
  9
$HALOGAP
280
     0
  9
$OBSCOLOR
 70
   257
  9
$OBSLTYPE
280
     0
  9
$INTERSECTIONDISPLAY
280
     0
  9
$INTERSECTIONCOLOR
 70
   257
  9
$DIMASSOC
280
     2
  9
$PROJECTNAME
  1

  0
ENDSEC
  0
SECTION
  2
CLASSES
  0
CLASS
  1
ACDBDICTIONARYWDFLT
  2
AcDbDictionaryWithDefault
  3
ObjectDBX Classes
 90
        0
 91
        1
280
     0
281
     0
  0
CLASS
  1
MATERIAL
  2
AcDbMaterial
  3
ObjectDBX Classes
 90
        0
 91
        3
280
     0
281
     0
  0
CLASS
  1
VISUALSTYLE
  2
AcDbVisualStyle
  3
ObjectDBX Classes
 90
     4095
 91
       16
280
     0
281
     0
  0
CLASS
  1
TABLESTYLE
  2
AcDbTableStyle
  3
ObjectDBX Classes
 90
     4095
 91
        1
280
     0
281
     0
  0
CLASS
  1
SCALE
  2
AcDbScale
  3
ObjectDBX Classes
 90
     1153
 91
       33
280
     0
281
     0
  0
CLASS
  1
MLEADERSTYLE
  2
AcDbMLeaderStyle
  3
ACDB_MLEADERSTYLE_CLASS
 90
     4095
 91
        1
280
     0
281
     0
  0
CLASS
  1
CELLSTYLEMAP
  2
AcDbCellStyleMap
  3
ObjectDBX Classes
 90
     1152
 91
        1
280
     0
281
     0
  0
CLASS
  1
DICTIONARYVAR
  2
AcDbDictionaryVar
  3
ObjectDBX Classes
 90
        0
 91
        6
280
     0
281
     0
  0
ENDSEC
  0
SECTION
  2
TABLES
  0
TABLE
  2
VPORT
  5
8
330
0
100
AcDbSymbolTable
 70
     3
  0
VPORT
  5
AD2
330
8
100
AcDbSymbolTableRecord
100
AcDbViewportTableRecord
  2
*Active
 70
     0
 10
0.0
 20
0.0
 11
1.0
 21
1.0
 12
1818.997084842856
 22
1006.861663193499
 13
0.0
 23
0.0
 14
1.0
 24
1.0
 15
0.0
 25
0.0
 16
0.0
 26
0.0
 36
1.0
 17
0.0
 27
0.0
 37
0.0
 40
2135.093669712054
 41
3.584
 42
50.0
 43
0.0
 44
0.0
 50
0.0
 51
0.0
 71
     0
 72
   100
 73
     1
 74
     1
 75
     0
 76
     0
 77
     0
 78
     0
281
     0
 65
     1
110
0.0
120
0.0
130
0.0
111
1.0
121
0.0
131
0.0
112
0.0
122
1.0
132
0.0
 79
     0
146
0.0
  0
ENDTAB
  0
TABLE
  2
LTYPE
  5
5
330
0
100
AcDbSymbolTable
 70
     6
  0
LTYPE
  5
14
330
5
100
AcDbSymbolTableRecord
100
AcDbLinetypeTableRecord
  2
BYBLOCK
 70
     0
  3

 72
    65
 73
     0
 40
0.0
  0
LTYPE
  5
15
330
5
100
AcDbSymbolTableRecord
100
AcDbLinetypeTableRecord
  2
BYLAYER
 70
     0
  3

 72
    65
 73
     0
 40
0.0
  0
LTYPE
  5
16
330
5
100
AcDbSymbolTableRecord
100
AcDbLinetypeTableRecord
  2
CONTINUOUS
 70
     0
  3
Solid line
 72
    65
 73
     0
 40
0.0
  0
LTYPE
  5
1F5
330
5
100
AcDbSymbolTableRecord
100
AcDbLinetypeTableRecord
  2
CENTER
 70
     0
  3
____ _ ____ _ ____ _ ____ _ ____ _ ____ _ ____
 72
    65
 73
     4
 40
0.6
 49
0.375
 74
     0
 49
-0.075
 74
     0
 49
0.075
 74
     0
 49
-0.075
 74
     0
  0
LTYPE
  5
1F6
330
5
100
AcDbSymbolTableRecord
100
AcDbLinetypeTableRecord
  2
HIDDEN
 70
     0
  3
- - - - - - - - - - - - - - - - - - - -
 72
    65
 73
     2
 40
0.2
 49
0.1
 74
     0
 49
-0.1
 74
     0
  0
LTYPE
  5
1F7
330
5
100
AcDbSymbolTableRecord
100
AcDbLinetypeTableRecord
  2
PHANTOM
 70
     0
  3
_____ _ _ _____ _ _ _____ _ _ _____
 72
    65
 73
     6
 40
0.8
 49
0.45
 74
     0
 49
-0.05
 74
     0
 49
0.1
 74
     0
 49
-0.05
 74
     0
 49
0.1
 74
     0
 49
-0.05
 74
     0
  0
LTYPE
  5
1F8
330
5
100
AcDbSymbolTableRecord
100
AcDbLinetypeTableRecord
  2
DOT
 70
     0
  3
. . . . . . . . . . . . . . . . . . . .
 72
    65
 73
     2
 40
0.2
 49
0.1
 74
     0
 49
-0.1
 74
     0
  0
LTYPE
  5
1F9
330
5
100
AcDbSymbolTableRecord
100
AcDbLinetypeTableRecord
  2
DASHED
 70
     0
  3
- - - - - - - - - - - - - - - - - - - -
 72
    65
 73
     2
 40
0.2
 49
0.1
 74
     0
 49
-0.1
 74
     0
  0
ENDTAB
  0
TABLE
  2
LAYER
  5
2
330
0
100
AcDbSymbolTable
 70
    34
  0
LAYER
  5
10
330
2
100
AcDbSymbolTableRecord
100
AcDbLayerTableRecord
  2
0
 70
     0
 62
     7
  6
CONTINUOUS
370
    -3
390
F
  0
LAYER
  5
1FA
330
2
100
AcDbSymbolTableRecord
100
AcDbLayerTableRecord
  2
DEFAULT_1
 70
     0
 62
     7
  6
CENTER
370
    -3
390
F
  0
LAYER
  5
1FB
330
2
100
AcDbSymbolTableRecord
100
AcDbLayerTableRecord
  2
DEFAULT_2
 70
     0
 62
     8
  6
HIDDEN
370
    -3
390
F
  0
LAYER
  5
1FC
330
2
100
AcDbSymbolTableRecord
100
AcDbLayerTableRecord
  2
DEFAULT_3
 70
     0
 62
     7
  6
PHANTOM
370
    -3
390
F
  0
LAYER
  5
1FD
330
2
100
AcDbSymbolTableRecord
100
AcDbLayerTableRecord
  2
01_ALL_DTM_PLN
 70
     0
 62
     7
  6
CONTINUOUS
370
    -3
390
F
  0
LAYER
  5
1FE
330
2
100
AcDbSymbolTableRecord
100
AcDbLayerTableRecord
  2
01__ASM_ALL_DTM_PLN
 70
     0
 62
     7
  6
CONTINUOUS
370
    -3
390
F
  0
LAYER
  5
1FF
330
2
100
AcDbSymbolTableRecord
100
AcDbLayerTableRecord
  2
01__ASM_DEF_DTM_PLN
 70
     0
 62
     7
  6
CONTINUOUS
370
    -3
390
F
  0
LAYER
  5
200
330
2
100
AcDbSymbolTableRecord
100
AcDbLayerTableRecord
  2
01___PRT_ALL_DTM_PLN
 70
     0
 62
     7
  6
CONTINUOUS
370
    -3
390
F
  0
LAYER
  5
201
330
2
100
AcDbSymbolTableRecord
100
AcDbLayerTableRecord
  2
01___PRT_DEF_DTM_PLN
 70
     0
 62
     7
  6
CONTINUOUS
370
    -3
390
F
  0
LAYER
  5
202
330
2
100
AcDbSymbolTableRecord
100
AcDbLayerTableRecord
  2
02_ALL_AXES
 70
     0
 62
     7
  6
CONTINUOUS
370
    -3
390
F
  0
LAYER
  5
203
330
2
100
AcDbSymbolTableRecord
100
AcDbLayerTableRecord
  2
02__ASM_ALL_AXES
 70
     0
 62
     7
  6
CONTINUOUS
370
    -3
390
F
  0
LAYER
  5
204
330
2
100
AcDbSymbolTableRecord
100
AcDbLayerTableRecord
  2
02___PRT_ALL_AXES
 70
     0
 62
     7
  6
CONTINUOUS
370
    -3
390
F
  0
LAYER
  5
205
330
2
100
AcDbSymbolTableRecord
100
AcDbLayerTableRecord
  2
03_ALL_CURVES
 70
     0
 62
     7
  6
CONTINUOUS
370
    -3
390
F
  0
LAYER
  5
206
330
2
100
AcDbSymbolTableRecord
100
AcDbLayerTableRecord
  2
03__ASM_ALL_CURVES
 70
     0
 62
     7
  6
CONTINUOUS
370
    -3
390
F
  0
LAYER
  5
207
330
2
100
AcDbSymbolTableRecord
100
AcDbLayerTableRecord
  2
03___PRT_ALL_CURVES
 70
     0
 62
     7
  6
CONTINUOUS
370
    -3
390
F
  0
LAYER
  5
208
330
2
100
AcDbSymbolTableRecord
100
AcDbLayerTableRecord
  2
04_ALL_DTM_PNT
 70
     0
 62
     7
  6
CONTINUOUS
370
    -3
390
F
  0
LAYER
  5
209
330
2
100
AcDbSymbolTableRecord
100
AcDbLayerTableRecord
  2
04__ASM_ALL_DTM_PNT
 70
     0
 62
     7
  6
CONTINUOUS
370
    -3
390
F
  0
LAYER
  5
20A
330
2
100
AcDbSymbolTableRecord
100
AcDbLayerTableRecord
  2
04___PRT_ALL_DTM_PNT
 70
     0
 62
     7
  6
CONTINUOUS
370
    -3
390
F
  0
LAYER
  5
20B
330
2
100
AcDbSymbolTableRecord
100
AcDbLayerTableRecord
  2
05_ALL_DTM_CSYS
 70
     0
 62
     7
  6
CONTINUOUS
370
    -3
390
F
  0
LAYER
  5
20C
330
2
100
AcDbSymbolTableRecord
100
AcDbLayerTableRecord
  2
05__ASM_ALL_DTM_CSYS
 70
     0
 62
     7
  6
CONTINUOUS
370
    -3
390
F
  0
LAYER
  5
20D
330
2
100
AcDbSymbolTableRecord
100
AcDbLayerTableRecord
  2
05__ASM_DEF_DTM_CSYS
 70
     0
 62
     7
  6
CONTINUOUS
370
    -3
390
F
  0
LAYER
  5
20E
330
2
100
AcDbSymbolTableRecord
100
AcDbLayerTableRecord
  2
05___PRT_ALL_DTM_CSYS
 70
     0
 62
     7
  6
CONTINUOUS
370
    -3
390
F
  0
LAYER
  5
20F
330
2
100
AcDbSymbolTableRecord
100
AcDbLayerTableRecord
  2
05___PRT_DEF_DTM_CSYS
 70
     0
 62
     7
  6
CONTINUOUS
370
    -3
390
F
  0
LAYER
  5
210
330
2
100
AcDbSymbolTableRecord
100
AcDbLayerTableRecord
  2
06_ALL_SURFS
 70
     0
 62
     7
  6
CONTINUOUS
370
    -3
390
F
  0
LAYER
  5
211
330
2
100
AcDbSymbolTableRecord
100
AcDbLayerTableRecord
  2
06__ASM_ALL_SURFS
 70
     0
 62
     7
  6
CONTINUOUS
370
    -3
390
F
  0
LAYER
  5
212
330
2
100
AcDbSymbolTableRecord
100
AcDbLayerTableRecord
  2
06___PRT_ALL_SURFS
 70
     0
 62
     7
  6
CONTINUOUS
370
    -3
390
F
  0
LAYER
  5
213
330
2
100
AcDbSymbolTableRecord
100
AcDbLayerTableRecord
  2
07__ASM_ALL_SKELETONS
 70
     0
 62
     7
  6
CONTINUOUS
370
    -3
390
F
  0
LAYER
  5
214
330
2
100
AcDbSymbolTableRecord
100
AcDbLayerTableRecord
  2
1_ALL_PLANES
 70
     0
 62
     7
  6
CONTINUOUS
370
    -3
390
F
  0
LAYER
  5
215
330
2
100
AcDbSymbolTableRecord
100
AcDbLayerTableRecord
  2
3_ALL_AXES
 70
     0
 62
     7
  6
CONTINUOUS
370
    -3
390
F
  0
LAYER
  5
216
330
2
100
AcDbSymbolTableRecord
100
AcDbLayerTableRecord
  2
4_ALL_POINTS
 70
     0
 62
     7
  6
CONTINUOUS
370
    -3
390
F
  0
LAYER
  5
217
330
2
100
AcDbSymbolTableRecord
100
AcDbLayerTableRecord
  2
5_ALL_CURVES
 70
     0
 62
     7
  6
CONTINUOUS
370
    -3
390
F
  0
LAYER
  5
218
330
2
100
AcDbSymbolTableRecord
100
AcDbLayerTableRecord
  2
6_ALL_SURFS
 70
     0
 62
     7
  6
CONTINUOUS
370
    -3
390
F
  0
LAYER
  5
219
330
2
100
AcDbSymbolTableRecord
100
AcDbLayerTableRecord
  2
7_ALL_FEATURES
 70
     0
 62
     7
  6
CONTINUOUS
370
    -3
390
F
  0
LAYER
  5
21A
330
2
100
AcDbSymbolTableRecord
100
AcDbLayerTableRecord
  2
XSEC_DATUMS
 70
     0
 62
     7
  6
CONTINUOUS
370
    -3
390
F
  0
ENDTAB
  0
TABLE
  2
STYLE
  5
3
330
0
100
AcDbSymbolTable
 70
     2
  0
STYLE
  5
11
330
3
100
AcDbSymbolTableRecord
100
AcDbTextStyleTableRecord
  2
STANDARD
 70
     0
 40
0.0
 41
0.85
 50
0.0
 71
     0
 42
0.2
  3
txt
  4

  0
STYLE
  5
21B
330
3
100
AcDbSymbolTableRecord
100
AcDbTextStyleTableRecord
  2
TEXTSTYLE_1
 70
     0
 40
0.0
 41
0.8
 50
0.0
 71
     0
 42
0.2
  3
gdt
  4

  0
ENDTAB
  0
TABLE
  2
VIEW
  5
6
330
0
100
AcDbSymbolTable
 70
     0
  0
ENDTAB
  0
TABLE
  2
UCS
  5
7
330
0
100
AcDbSymbolTable
 70
     0
  0
ENDTAB
  0
TABLE
  2
APPID
  5
9
330
0
100
AcDbSymbolTable
 70
     2
  0
APPID
  5
21C
330
9
100
AcDbSymbolTableRecord
100
AcDbRegAppTableRecord
  2
ACAD
 70
     0
  0
APPID
  5
5D8
330
9
100
AcDbSymbolTableRecord
100
AcDbRegAppTableRecord
  2
ACAD_MLEADERVER
 70
     0
  0
ENDTAB
  0
TABLE
  2
DIMSTYLE
  5
A
330
0
100
AcDbSymbolTable
 70
     1
100
AcDbDimStyleTable
 71
     0
  0
DIMSTYLE
105
21F
330
A
100
AcDbSymbolTableRecord
100
AcDbDimStyleTableRecord
  2
STANDARD
 70
     0
 41
3.5
 42
1.0
 44
1.5
 47
0.01
 48
0.01
 71
     1
 73
     0
 74
     0
 77
     1
 78
     8
140
3.5
147
0.625
271
     2
272
     2
278
    44
284
     8
340
11
  0
ENDTAB
  0
TABLE
  2
BLOCK_RECORD
  5
1
330
0
100
AcDbSymbolTable
 70
     0
  0
BLOCK_RECORD
  5
21D
330
1
100
AcDbSymbolTableRecord
100
AcDbBlockTableRecord
  2
*Model_Space
340
583
  0
BLOCK_RECORD
  5
21E
330
1
100
AcDbSymbolTableRecord
100
AcDbBlockTableRecord
  2
*Paper_Space
340
584
  0
ENDTAB
  0
ENDSEC
  0
SECTION
  2
BLOCKS
  0
BLOCK
  5
20
330
21D
100
AcDbEntity
  8
0
100
AcDbBlockBegin
  2
*Model_Space
 70
     0
 10
0.0
 20
0.0
 30
0.0
  3
*Model_Space
  1

1001
ACAD
1000
RTMaterial
1005
0
  0
ENDBLK
  5
21
330
21D
100
AcDbEntity
  8
0
100
AcDbBlockEnd
1001
ACAD
1000
RTMaterial
1005
0
  0
BLOCK
  5
1C
330
21E
100
AcDbEntity
 67
     1
  8
0
100
AcDbBlockBegin
  2
*Paper_Space
 70
     0
 10
0.0
 20
0.0
 30
0.0
  3
*Paper_Space
  1

1001
ACAD
1000
RTMaterial
1005
0
  0
ENDBLK
  5
1D
330
21E
100
AcDbEntity
 67
     1
  8
0
100
AcDbBlockEnd
1001
ACAD
1000
RTMaterial
1005
0
  0
ENDSEC
  0
SECTION
  2
ENTITIES
  0
LWPOLYLINE
  5
224
330
21D
100
AcDbEntity
  8
0
  6
Continuous
 62
     7
100
AcDbPolyline
 90
        6
 70
     0
 43
0.0
 10
89.25492023950001
 20
1059.8118650633
 10
89.26308817979998
 20
1059.8145645521
 10
89.2407103192
 20
1059.8093295657
 10
89.14376370020001
 20
1059.790925861
 10
88.98434567889999
 20
1059.7672481615
 10
88.76830878520001
 20
1059.7413728098
  0
LINE
  5
225
330
21D
100
AcDbEntity
  8
0
  6
Continuous
 62
     9
100
AcDbLine
 10
14.817220532
 20
977.2040135280999
 30
0.0
 11
15.0922231195
 21
977.7555334941
 31
0.0
1001
ACAD
1000
RTMaterial
1005
0
  0
LINE
  5
226
330
21D
100
AcDbEntity
  8
0
  6
Continuous
 62
     9
100
AcDbLine
 10
16.8144796015
 20
975.2149697374001
 30
0.0
 11
17.089482189
 21
975.7664897034
 31
0.0
1001
ACAD
1000
RTMaterial
1005
0
  0
LWPOLYLINE
  5
227
330
21D
100
AcDbEntity
  8
0
  6
Continuous
 62
     7
100
AcDbPolyline
 90
        6
 70
     0
 43
0.0
 10
339.2549202395
 20
1059.8118650633
 10
339.2630881798
 20
1059.8145645521
 10
339.2407103192
 20
1059.8093295657
 10
339.1437637002
 20
1059.790925861
 10
338.9843456789
 20
1059.7672481615
 10
338.7683087852
 20
1059.7413728098
  0
LINE
  5
228
330
21D
100
AcDbEntity
  8
0
  6
Continuous
 62
     7
100
AcDbLine
 10
-11.331408864
 20
971.3215564382
 30
0.0
 11
-11.331408864
 21
940.3220291172001
 31
0.0
1001
ACAD
1000
RTMaterial
1005
0
  0
LINE
  5
229
330
21D
100
AcDbEntity
  8
0
  6
Continuous
 62
     9
100
AcDbLine
 10
-10.831408864
 20
939.8217927777
 30
0.0
 11
-10.831408864
 21
971.8215488144
 31
0.0
1001
ACAD
1000
RTMaterial
1005
0
  0
LINE
  5
22A
330
21D
100
AcDbEntity
  8
0
  6
Continuous
 62
     7
100
AcDbLine
 10
8.8262331103
 20
974.3222245541
 30
0.0
 11
8.5845047229
 21
1060.8216456874
 31
0.0
1001
ACAD
1000
RTMaterial
1005
0
  0
LINE
  5
22B
330
21D
100
AcDbEntity
  8
0
  6
Continuous
 62
     7
100
AcDbLine
 10
14.585065764
 20
1060.8217927777
 30
0.0
 11
14.5860724268
 21
1060.4573857249
 31
0.0
1001
ACAD
1000
RTMaterial
1005
0
  0
LINE
  5
22C
330
21D
100
AcDbEntity
  8
02___PRT_ALL_AXES
  6
Continuous
 62
     7
100
AcDbLine
 10
5.468591136
 20
971.8215488144
 30
0.0
 11
5.468591136
 21
939.8218173803998
 31
0.0
1001
ACAD
1000
RTMaterial
1005
0
  0
LINE
  5
22D
330
21D
100
AcDbEntity
  8
7_ALL_FEATURES
  6
Continuous
 62
     7
100
AcDbLine
 10
6.6717274563
 20
661.2697379628
 30
0.0
 11
6.6717274563
 21
974.3217927776999
 31
0.0
1001
ACAD
1000
RTMaterial
1005
0
  0
LINE
  5
22E
330
21D
100
AcDbEntity
  8
7_ALL_FEATURES
  6
Continuous
 62
     9
100
AcDbLine
 10
8.6717274521
 20
942.5515104188999
 30
0.0
 11
8.671727456299999
 21
974.3217927776999
 31
0.0
1001
ACAD
1000
RTMaterial
1005
0
  0
LINE
  5
22F
330
21D
100
AcDbEntity
  8
0
  6
Continuous
 62
     7
100
AcDbLine
 10
13.6717274563
 20
1058.8245337082
 30
0.0
 11
13.6717274563
 21
974.3217927776999
 31
0.0
1001
ACAD
1000
RTMaterial
1005
0
  0
LINE
  5
230
330
21D
100
AcDbEntity
  8
0
  6
Continuous
 62
     9
100
AcDbLine
 10
15.0922231195
 20
1057.4040380451
 30
0.0
 11
15.0922231195
 21
977.7555334941
 31
0.0
1001
ACAD
1000
RTMaterial
1005
0
  0
LINE
  5
232
330
21D
100
AcDbEntity
  8
7_ALL_FEATURES
  6
Continuous
 62
     9
100
AcDbLine
 10
8.6710735448
 20
935.303227436
 30
0.0
 11
8.671727448
 21
942.5515104188999
 31
0.0
1001
ACAD
1000
RTMaterial
1005
0
  0
LINE
  5
233
330
21D
100
AcDbEntity
  8
0
  6
Continuous
 62
     9
100
AcDbLine
 10
47.6717274563
 20
1059.9281177187
 30
0.0
 11
47.6717274563
 21
1060.654087884
 31
0.0
1001
ACAD
1000
RTMaterial
1005
0
  0
LINE
  5
234
330
21D
100
AcDbEntity
  8
0
  6
Continuous
 62
     9
100
AcDbLine
 10
55.6717274563
 20
1059.5088554844
 30
0.0
 11
55.67172745729999
 21
1059.5102259496
 31
0.0
1001
ACAD
1000
RTMaterial
1005
0
  0
LINE
  5
235
330
21D
100
AcDbEntity
  8
0
  6
Continuous
 62
     9
100
AcDbLine
 10
113.2687794216
 20
975.7664897034
 30
0.0
 11
113.1313724128
 21
975.2149697374001
 31
0.0
1001
ACAD
1000
RTMaterial
1005
0
  0
LINE
  5
236
330
21D
100
AcDbEntity
  8
0
  6
Continuous
 62
     9
100
AcDbLine
 10
81.67172745630001
 20
1059.5088554844
 30
0.0
 11
81.67172745630001
 21
1059.5102259496
 31
0.0
1001
ACAD
1000
RTMaterial
1005
0
  0
LINE
  5
237
330
21D
100
AcDbEntity
  8
0
  6
Continuous
 62
     9
100
AcDbLine
 10
89.6717274563
 20
1060.654087884
 30
0.0
 11
89.6717274563
 21
1059.9281177187
 31
0.0
1001
ACAD
1000
RTMaterial
1005
0
  0
LINE
  5
238
330
21D
100
AcDbEntity
  8
0
  6
Continuous
 62
     9
100
AcDbLine
 10
114.2684367466
 20
974.7719678080001
 30
0.0
 11
114.1310297378
 21
974.2204478419999
 31
0.0
1001
ACAD
1000
RTMaterial
1005
0
  0
LINE
  5
23E
330
21D
100
AcDbEntity
  8
0
  6
Continuous
 62
     7
100
AcDbLine
 10
114.1717274563
 20
969.1537390135
 30
0.0
 11
114.1717274563
 21
972.1895626571999
 31
0.0
1001
ACAD
1000
RTMaterial
1005
0
  0
LINE
  5
23F
330
21D
100
AcDbEntity
  8
0
  6
Continuous
 62
     9
100
AcDbLine
 10
114.2877820807
 20
972.9297643124999
 30
0.0
 11
114.2877825615
 21
974.9462037441
 31
0.0
1001
ACAD
1000
RTMaterial
1005
0
  0
LINE
  5
240
330
21D
100
AcDbEntity
  8
0
  6
Continuous
 62
     9
100
AcDbLine
 10
114.9717274563
 20
973.016979275
 30
0.0
 11
114.9717274563
 21
940.9402112210001
 31
0.0
1001
ACAD
1000
RTMaterial
1005
0
  0
LINE
  5
242
330
21D
100
AcDbEntity
  8
0
  6
Continuous
 62
     9
100
AcDbLine
 10
113.3860014567
 20
955.3536581797001
 30
0.0
 11
113.3755156514
 21
943.4910582458998
 31
0.0
1001
ACAD
1000
RTMaterial
1005
0
  0
LINE
  5
243
330
21D
100
AcDbEntity
  8
0
  6
Continuous
 62
     7
100
AcDbLine
 10
114.386001066
 20
955.3780788146999
 30
0.0
 11
114.3755152607
 21
943.5154788761
 31
0.0
1001
ACAD
1000
RTMaterial
1005
0
  0
LINE
  5
244
330
21D
100
AcDbEntity
  8
0
  6
Continuous
 62
     9
100
AcDbLine
 10
114.2873530623
 20
972.5975931516
 30
0.0
 11
114.2877820807
 21
972.9297643124999
 31
0.0
1001
ACAD
1000
RTMaterial
1005
0
  0
LINE
  5
245
330
21D
100
AcDbEntity
  8
0
  6
Continuous
 62
     7
100
AcDbLine
 10
369.1717274563
 20
1060.8217927777
 30
0.0
 11
369.0040225626
 21
1060.654087884
 31
0.0
1001
ACAD
1000
RTMaterial
1005
0
  0
LWPOLYLINE
  5
246
330
21D
100
AcDbEntity
  8
0
  6
Continuous
 62
     7
100
AcDbPolyline
 90
       10
 70
     0
 43
0.0
 10
113.9999868806
 20
972.1370165482001
 10
113.9687063175
 20
972.4713397851999
 10
113.9365891126
 20
972.7613907239
 10
113.9033031424
 20
973.0095350960999
 10
113.8676193945
 20
973.2220409002
 10
113.8256852589
 20
973.4121266812
 10
113.7638131003
 20
973.608729372
 10
113.625299275
 20
973.872762753
 10
113.2633227371
 20
974.1977720435
 10
112.7752450352
 20
974.3218239491
  0
LWPOLYLINE
  5
247
330
21D
100
AcDbEntity
  8
0
  6
Continuous
 62
     7
100
AcDbPolyline
 90
        3
 70
     0
 43
0.0
 10
114.0603613628
 20
971.3308627065
 10
114.030488807
 20
971.7577478039999
 10
113.9999868806
 20
972.1370165482001
  0
LWPOLYLINE
  5
248
330
21D
100
AcDbEntity
  8
0
  6
Continuous
 62
     7
100
AcDbPolyline
 90
        5
 70
     0
 43
0.0
 10
114.1728763926
 20
969.1270058910001
 10
114.1459470574
 20
969.7535900068
 10
114.1181543676
 20
970.3294578099001
 10
114.0895994439
 20
970.8550246160999
 10
114.0603613628
 20
971.3308627065
  0
LINE
  5
249
330
21D
100
AcDbEntity
  8
0
  6
Continuous
 62
     9
100
AcDbLine
 10
120.3658293956
 20
937.5145958117
 30
0.0
 11
120.3657203924
 21
936.4934726822999
 31
0.0
1001
ACAD
1000
RTMaterial
1005
0
  0
LINE
  5
24A
330
21D
100
AcDbEntity
  8
0
  6
Continuous
 62
     9
100
AcDbLine
 10
370.2539727237
 20
1059.4012971146
 30
0.0
 11
371.6744683868
 21
1060.8217927777
 31
0.0
1001
ACAD
1000
RTMaterial
1005
0
  0
LINE
  5
24B
330
21D
100
AcDbEntity
  8
0
  6
Continuous
 62
     9
100
AcDbLine
 10
372.2512317932
 20
1057.4040380451
 30
0.0
 11
373.6717274562999
 21
1058.8245337082
 31
0.0
1001
ACAD
1000
RTMaterial
1005
0
  0
LINE
  5
24C
330
21D
100
AcDbEntity
  8
0
  6
Continuous
 62
     7
100
AcDbLine
 10
183.4249227384
 20
948.6437139044999
 30
0.0
 11
183.4249227384
 21
948.6698407525
 31
0.0
1001
ACAD
1000
RTMaterial
1005
0
  0
LINE
  5
24D
330
21D
100
AcDbEntity
  8
0
  6
Continuous
 62
     7
100
AcDbLine
 10
183.7590646711
 20
949.4339502247999
 30
0.0
 11
183.7590646711
 21
949.4599396502
 31
0.0
1001
ACAD
1000
RTMaterial
1005
0
  0
LINE
  5
24E
330
21D
100
AcDbEntity
  8
0
  6
Continuous
 62
     7
100
AcDbLine
 10
184.0951655599
 20
950.233212128
 30
0.0
 11
184.0951655599
 21
950.259120497
 31
0.0
1001
ACAD
1000
RTMaterial
1005
0
  0
LINE
  5
24F
330
21D
100
AcDbEntity
  8
0
  6
Continuous
 62
     7
100
AcDbLine
 10
184.6484307199
 20
951.5741677136
 30
0.0
 11
184.6484307199
 21
951.6000614355
 31
0.0
1001
ACAD
1000
RTMaterial
1005
0
  0
LINE
  5
250
330
21D
100
AcDbEntity
  8
0
  6
Continuous
 62
     7
100
AcDbLine
 10
185.2009496109
 20
950.233212128
 30
0.0
 11
185.2009496109
 21
950.259120497
 31
0.0
1001
ACAD
1000
RTMaterial
1005
0
  0
LINE
  5
251
330
21D
100
AcDbEntity
  8
0
  6
Continuous
 62
     7
100
AcDbLine
 10
185.5360243798
 20
949.4339502247999
 30
0.0
 11
185.5360243798
 21
949.4599396502
 31
0.0
1001
ACAD
1000
RTMaterial
1005
0
  0
LINE
  5
252
330
21D
100
AcDbEntity
  8
0
  6
Continuous
 62
     7
100
AcDbLine
 10
185.8706327306
 20
948.6437139044999
 30
0.0
 11
185.8706327306
 21
948.6698407525
 31
0.0
1001
ACAD
1000
RTMaterial
1005
0
  0
LINE
  5
253
330
21D
100
AcDbEntity
  8
0
  6
Continuous
 62
     7
100
AcDbLine
 10
188.3504192299
 20
948.6437572969
 30
0.0
 11
188.3504192299
 21
948.6698841357
 31
0.0
1001
ACAD
1000
RTMaterial
1005
0
  0
LINE
  5
255
330
21D
100
AcDbEntity
  8
0
  6
Continuous
 62
     7
100
AcDbLine
 10
188.9104940941999
 20
950.9739487125001
 30
0.0
 11
188.9104940941999
 21
950.9998307623
 31
0.0
1001
ACAD
1000
RTMaterial
1005
0
  0
LINE
  5
256
330
21D
100
AcDbEntity
  8
0
  6
Continuous
 62
     9
100
AcDbLine
 10
189.5300839092
 20
950.4924523880999
 30
0.0
 11
189.5300839092
 21
950.5183463328
 31
0.0
1001
ACAD
1000
RTMaterial
1005
0
  0
LINE
  5
257
330
21D
100
AcDbEntity
  8
0
  6
Continuous
 62
     7
100
AcDbLine
 10
189.6076958824
 20
950.6035445971999
 30
0.0
 11
189.6076958824
 21
950.6294340913999
 31
0.0
1001
ACAD
1000
RTMaterial
1005
0
  0
LINE
  5
258
330
21D
100
AcDbEntity
  8
0
  6
Continuous
 62
     7
100
AcDbLine
 10
189.8327892614
 20
950.6035445971999
 30
0.0
 11
189.8327892614
 21
950.6294340913999
 31
0.0
1001
ACAD
1000
RTMaterial
1005
0
  0
LINE
  5
259
330
21D
100
AcDbEntity
  8
0
  6
Continuous
 62
     7
100
AcDbLine
 10
189.8446362814
 20
950.5866271339
 30
0.0
 11
189.8446362814
 21
950.6125172392998
 31
0.0
1001
ACAD
1000
RTMaterial
1005
0
  0
LINE
  5
25A
330
21D
100
AcDbEntity
  8
0
  6
Continuous
 62
     9
100
AcDbLine
 10
189.912266907
 20
950.4826223672001
 30
0.0
 11
189.912266907
 21
950.5085167555
 31
0.0
1001
ACAD
1000
RTMaterial
1005
0
  0
LINE
  5
25B
330
21D
100
AcDbEntity
  8
0
  6
Continuous
 62
     7
100
AcDbLine
 10
190.5336291108
 20
950.9726883832
 30
0.0
 11
190.5336291108
 21
950.9985704391999
 31
0.0
1001
ACAD
1000
RTMaterial
1005
0
  0
LINE
  5
25C
330
21D
100
AcDbEntity
  8
0
  6
Continuous
 62
     7
100
AcDbLine
 10
191.0795248647
 20
948.6437572969
 30
0.0
 11
191.0795248647
 21
948.6698841357
 31
0.0
1001
ACAD
1000
RTMaterial
1005
0
  0
LINE
  5
25D
330
21D
100
AcDbEntity
  8
0
  6
Continuous
 62
     7
100
AcDbLine
 10
192.8279770986
 20
953.3401865431001
 30
0.0
 11
192.8279770986
 21
948.6437139044999
 31
0.0
1001
ACAD
1000
RTMaterial
1005
0
  0
LINE
  5
25E
330
21D
100
AcDbEntity
  8
0
  6
Continuous
 62
     7
100
AcDbLine
 10
193.6717274563
 20
949.4339502247999
 30
0.0
 11
193.6717274563
 21
950.5702442571999
 31
0.0
1001
ACAD
1000
RTMaterial
1005
0
  0
LINE
  5
25F
330
21D
100
AcDbEntity
  8
0
  6
Continuous
 62
     7
100
AcDbLine
 10
193.6717274563
 20
951.3584214453
 30
0.0
 11
193.6717274563
 21
952.5281057002999
 31
0.0
1001
ACAD
1000
RTMaterial
1005
0
  0
LINE
  5
260
330
21D
100
AcDbEntity
  8
0
  6
Continuous
 62
     7
100
AcDbLine
 10
195.4972879319
 20
951.3584214453
 30
0.0
 11
195.4972879319
 21
950.54435252
 31
0.0
1001
ACAD
1000
RTMaterial
1005
0
  0
LINE
  5
261
330
21D
100
AcDbEntity
  8
0
  6
Continuous
 62
     7
100
AcDbLine
 10
196.0182769588
 20
953.3401865431001
 30
0.0
 11
196.0182769588
 21
952.5021373822999
 31
0.0
1001
ACAD
1000
RTMaterial
1005
0
  0
LINE
  5
262
330
21D
100
AcDbEntity
  8
0
  6
Continuous
 62
     7
100
AcDbLine
 10
196.0182769588
 20
949.4339502247999
 30
0.0
 11
196.0182769588
 21
948.6437139044999
 31
0.0
1001
ACAD
1000
RTMaterial
1005
0
  0
LINE
  5
263
330
21D
100
AcDbEntity
  8
0
  6
Continuous
 62
     7
100
AcDbLine
 10
196.7386130851
 20
953.3401865431001
 30
0.0
 11
196.7386130851
 21
948.6437139044999
 31
0.0
1001
ACAD
1000
RTMaterial
1005
0
  0
LINE
  5
264
330
21D
100
AcDbEntity
  8
0
  6
Continuous
 62
     7
100
AcDbLine
 10
197.5827365774
 20
948.6437139044999
 30
0.0
 11
197.5827365774
 21
951.3608605135999
 31
0.0
1001
ACAD
1000
RTMaterial
1005
0
  0
LINE
  5
265
330
21D
100
AcDbEntity
  8
0
  6
Continuous
 62
     7
100
AcDbLine
 10
199.5714501072
 20
953.3401865431001
 30
0.0
 11
199.5714501072
 21
950.3010777089
 31
0.0
1001
ACAD
1000
RTMaterial
1005
0
  0
LINE
  5
266
330
21D
100
AcDbEntity
  8
0
  6
Continuous
 62
     7
100
AcDbLine
 10
200.0182786548
 20
948.3885905025999
 30
0.0
 11
200.0182786548
 21
948.4147746667998
 31
0.0
1001
ACAD
1000
RTMaterial
1005
0
  0
LINE
  5
267
330
21D
100
AcDbEntity
  8
0
  6
Continuous
 62
     7
100
AcDbLine
 10
200.4159467339
 20
953.3401865431001
 30
0.0
 11
200.4159467339
 21
948.3885905025999
 31
0.0
1001
ACAD
1000
RTMaterial
1005
0
  0
LINE
  5
268
330
21D
100
AcDbEntity
  8
0
  6
Continuous
 62
     7
100
AcDbLine
 10
201.1408724144
 20
953.3401865431001
 30
0.0
 11
201.1408724144
 21
952.5021373822999
 31
0.0
1001
ACAD
1000
RTMaterial
1005
0
  0
LINE
  5
269
330
21D
100
AcDbEntity
  8
0
  6
Continuous
 62
     7
100
AcDbLine
 10
202.4068244437
 20
948.6437139044999
 30
0.0
 11
202.4068244437
 21
952.5281057002999
 31
0.0
1001
ACAD
1000
RTMaterial
1005
0
  0
LINE
  5
26A
330
21D
100
AcDbEntity
  8
0
  6
Continuous
 62
     7
100
AcDbLine
 10
203.250947936
 20
948.6437139044999
 30
0.0
 11
203.250947936
 21
952.5281057002999
 31
0.0
1001
ACAD
1000
RTMaterial
1005
0
  0
LINE
  5
26B
330
21D
100
AcDbEntity
  8
0
  6
Continuous
 62
     7
100
AcDbLine
 10
204.5165268308
 20
953.3401865431001
 30
0.0
 11
204.5165268308
 21
952.5021373822999
 31
0.0
1001
ACAD
1000
RTMaterial
1005
0
  0
LINE
  5
26D
330
21D
100
AcDbEntity
  8
0
  6
Continuous
 62
     9
100
AcDbLine
 10
273.0556728319
 20
972.9297643124999
 30
0.0
 11
273.0561018337
 21
972.5976060641
 31
0.0
1001
ACAD
1000
RTMaterial
1005
0
  0
LINE
  5
26E
330
21D
100
AcDbEntity
  8
0
  6
Continuous
 62
     7
100
AcDbLine
 10
273.9679396519
 20
943.5154788808999
 30
0.0
 11
273.9574538467
 21
955.3780788131
 31
0.0
1001
ACAD
1000
RTMaterial
1005
0
  0
LINE
  5
26F
330
21D
100
AcDbEntity
  8
0
  6
Continuous
 62
     9
100
AcDbLine
 10
274.9679392613
 20
943.4910582458998
 30
0.0
 11
274.957453456
 21
955.3536581797001
 31
0.0
1001
ACAD
1000
RTMaterial
1005
0
  0
LINE
  5
270
330
21D
100
AcDbEntity
  8
0
  6
Continuous
 62
     9
100
AcDbLine
 10
267.9776255657
 20
937.5148822694999
 30
0.0
 11
267.9777345143
 21
936.4934745867
 31
0.0
1001
ACAD
1000
RTMaterial
1005
0
  0
LINE
  5
272
330
21D
100
AcDbEntity
  8
0
  6
Continuous
 62
     9
100
AcDbLine
 10
272.3717274563
 20
939.4866061072001
 30
0.0
 11
272.3717274563
 21
973.016979275
 31
0.0
1001
ACAD
1000
RTMaterial
1005
0
  0
LINE
  5
273
330
21D
100
AcDbEntity
  8
0
  6
Continuous
 62
     9
100
AcDbLine
 10
272.6717274563
 20
1059.9281177187
 30
0.0
 11
272.6717274563
 21
1060.654087884
 31
0.0
1001
ACAD
1000
RTMaterial
1005
0
  0
LINE
  5
274
330
21D
100
AcDbEntity
  8
0
  6
Continuous
 62
     9
100
AcDbLine
 10
273.0556741771
 20
974.9461546022001
 30
0.0
 11
273.0556728319
 21
972.9297643124999
 31
0.0
1001
ACAD
1000
RTMaterial
1005
0
  0
LINE
  5
275
330
21D
100
AcDbEntity
  8
0
  6
Continuous
 62
     7
100
AcDbLine
 10
273.1717274563
 20
972.1895626571999
 30
0.0
 11
273.1717274563
 21
940.5720525585001
 31
0.0
1001
ACAD
1000
RTMaterial
1005
0
  0
LINE
  5
276
330
21D
100
AcDbEntity
  8
0
  6
Continuous
 62
     9
100
AcDbLine
 10
273.4891114729
 20
946.3217927777
 30
0.0
 11
273.4891114729
 21
944.2733706228999
 31
0.0
1001
ACAD
1000
RTMaterial
1005
0
  0
LINE
  5
278
330
21D
100
AcDbEntity
  8
7_ALL_FEATURES
  6
Continuous
 62
     7
100
AcDbLine
 10
274.1717274563
 20
968.8217927776999
 30
0.0
 11
274.1717274563
 21
965.4763682196001
 31
0.0
1001
ACAD
1000
RTMaterial
1005
0
  0
LINE
  5
279
330
21D
100
AcDbEntity
  8
0
  6
Continuous
 62
     9
100
AcDbLine
 10
280.6717274563
 20
1059.5088554844
 30
0.0
 11
280.6717274573
 21
1059.5102259496
 31
0.0
1001
ACAD
1000
RTMaterial
1005
0
  0
LINE
  5
27A
330
21D
100
AcDbEntity
  8
0
  6
Continuous
 62
     7
100
AcDbLine
 10
273.9580051977
 20
956.6817547619001
 30
0.0
 11
273.9574643688
 21
955.3780864607
 31
0.0
1001
ACAD
1000
RTMaterial
1005
0
  0
LWPOLYLINE
  5
27B
330
21D
100
AcDbEntity
  8
0
  6
Continuous
 62
     7
100
AcDbPolyline
 90
       12
 70
     0
 43
0.0
 10
274.1186305788001
 20
967.6859973516998
 10
274.0950170943
 20
966.9042922292
 10
274.0727746618
 20
966.0733366379
 10
274.052048675
 20
965.1941572669999
 10
274.0329775087
 20
964.2683790932
 10
274.0157017249
 20
963.2979892737999
 10
274.000369207
 20
962.2851106813
 10
273.9871331959
 20
961.2321477386
 10
273.9761337848
 20
960.1419335228998
 10
273.9675129769
 20
959.0176589998
 10
273.9614216069
 20
957.8628617122999
 10
273.9580051977
 20
956.6817547619001
  0
LWPOLYLINE
  5
27C
330
21D
100
AcDbEntity
  8
0
  6
Continuous
 62
     7
100
AcDbPolyline
 90
        3
 70
     0
 43
0.0
 10
274.1694334532
 20
969.0987181149999
 10
274.1434779422
 20
968.4176743967999
 10
274.1186305788001
 20
967.6859973516998
  0
LINE
  5
27D
330
21D
100
AcDbEntity
  8
0
  6
Continuous
 62
     9
100
AcDbLine
 10
15.0922231195
 20
1057.4040380451
 30
0.0
 11
13.6717274563
 21
1058.8245337082
 31
0.0
1001
ACAD
1000
RTMaterial
1005
0
  0
LINE
  5
27E
330
21D
100
AcDbEntity
  8
0
  6
Continuous
 62
     9
100
AcDbLine
 10
17.089482189
 20
1059.4012971146
 30
0.0
 11
15.6689865259
 21
1060.8217927777
 31
0.0
1001
ACAD
1000
RTMaterial
1005
0
  0
LINE
  5
27F
330
21D
100
AcDbEntity
  8
0
  6
Continuous
 62
     7
100
AcDbLine
 10
18.1717274563
 20
1060.8217927777
 30
0.0
 11
18.33943235
 21
1060.654087884
 31
0.0
1001
ACAD
1000
RTMaterial
1005
0
  0
LINE
  5
280
330
21D
100
AcDbEntity
  8
0
  6
Continuous
 62
     7
100
AcDbLine
 10
189.8327892614
 20
950.6035445971999
 30
0.0
 11
189.8446362814
 21
950.5866271339
 31
0.0
1001
ACAD
1000
RTMaterial
1005
0
  0
LINE
  5
281
330
21D
100
AcDbEntity
  8
0
  6
Continuous
 62
     7
100
AcDbLine
 10
189.8327892614
 20
950.6294340913999
 30
0.0
 11
189.8446362814
 21
950.6125172392998
 31
0.0
1001
ACAD
1000
RTMaterial
1005
0
  0
LINE
  5
282
330
21D
100
AcDbEntity
  8
0
  6
Continuous
 62
     9
100
AcDbLine
 10
331.6717274563
 20
1059.5088554844
 30
0.0
 11
331.6717274563
 21
1059.5102259496
 31
0.0
1001
ACAD
1000
RTMaterial
1005
0
  0
LINE
  5
283
330
21D
100
AcDbEntity
  8
0
  6
Continuous
 62
     9
100
AcDbLine
 10
273.0750181661
 20
974.7719678080001
 30
0.0
 11
273.2124251749
 21
974.2204478419999
 31
0.0
1001
ACAD
1000
RTMaterial
1005
0
  0
LINE
  5
284
330
21D
100
AcDbEntity
  8
0
  6
Continuous
 62
     9
100
AcDbLine
 10
274.0746754911
 20
975.7664897034
 30
0.0
 11
274.2120824998
 21
975.2149697374001
 31
0.0
1001
ACAD
1000
RTMaterial
1005
0
  0
LINE
  5
285
330
21D
100
AcDbEntity
  8
0
  6
Continuous
 62
     9
100
AcDbLine
 10
339.6717274563
 20
1060.654087884
 30
0.0
 11
339.6717274563
 21
1059.9281177187
 31
0.0
1001
ACAD
1000
RTMaterial
1005
0
  0
LWPOLYLINE
  5
286
330
21D
100
AcDbEntity
  8
0
  6
Continuous
 62
     7
100
AcDbPolyline
 90
       16
 70
     0
 43
0.0
 10
275.5681857379
 20
974.3218194609999
 10
275.0847639293
 20
974.2002694333999
 10
274.7186926097
 20
973.8735356161999
 10
274.5794018256
 20
973.6081079578999
 10
274.5175047379
 20
973.4110953088
 10
274.4755128649
 20
973.2203424849998
 10
274.4397163299
 20
973.0066201159999
 10
274.4062884923
 20
972.7566410118999
 10
274.3740275458
 20
972.4642292156
 10
274.342620705
 20
972.1272045927999
 10
274.3120325785
 20
971.7452548239
 10
274.2820924161
 20
971.3155529887
 10
274.2527994244
 20
970.8367041546999
 10
274.2242023531
 20
970.3079575911999
 10
274.1963800599001
 20
969.7287620410001
 10
274.1694334532
 20
969.0987181149999
  0
LINE
  5
287
330
21D
100
AcDbEntity
  8
02___PRT_ALL_AXES
  6
Continuous
 62
     7
100
AcDbLine
 10
-10.831408864
 20
939.8217927777
 30
0.0
 11
5.468591136
 21
939.8217927777
 31
0.0
1001
ACAD
1000
RTMaterial
1005
0
  0
LINE
  5
289
330
21D
100
AcDbEntity
  8
0
  6
Continuous
 62
     9
100
AcDbLine
 10
273.4891114729
 20
944.2733706228999
 30
0.0
 11
273.9672697225
 21
944.2733706228999
 31
0.0
1001
ACAD
1000
RTMaterial
1005
0
  0
LINE
  5
28A
330
21D
100
AcDbEntity
  8
0
  6
Continuous
 62
     9
100
AcDbLine
 10
273.4891114729
 20
946.3217927777
 30
0.0
 11
273.9654590439
 21
946.3217927777
 31
0.0
1001
ACAD
1000
RTMaterial
1005
0
  0
LINE
  5
28B
330
21D
100
AcDbEntity
  8
0
  6
Continuous
 62
     7
100
AcDbLine
 10
200.0182786548
 20
948.3885905025999
 30
0.0
 11
200.4159467339
 21
948.3885905025999
 31
0.0
1001
ACAD
1000
RTMaterial
1005
0
  0
LINE
  5
28C
330
21D
100
AcDbEntity
  8
0
  6
Continuous
 62
     7
100
AcDbLine
 10
200.0182786548
 20
948.4147746667998
 30
0.0
 11
200.4159467339
 21
948.4147746667998
 31
0.0
1001
ACAD
1000
RTMaterial
1005
0
  0
LINE
  5
28D
330
21D
100
AcDbEntity
  8
0
  6
Continuous
 62
     7
100
AcDbLine
 10
182.5165268308
 20
948.6437139044999
 30
0.0
 11
183.4249227384
 21
948.6437139044999
 31
0.0
1001
ACAD
1000
RTMaterial
1005
0
  0
LINE
  5
28E
330
21D
100
AcDbEntity
  8
0
  6
Continuous
 62
     7
100
AcDbLine
 10
185.8706327306
 20
948.6437139044999
 30
0.0
 11
186.7790286382
 21
948.6437139044999
 31
0.0
1001
ACAD
1000
RTMaterial
1005
0
  0
LINE
  5
28F
330
21D
100
AcDbEntity
  8
0
  6
Continuous
 62
     7
100
AcDbLine
 10
192.8279770986
 20
948.6437139044999
 30
0.0
 11
196.0182769588
 21
948.6437139044999
 31
0.0
1001
ACAD
1000
RTMaterial
1005
0
  0
LINE
  5
290
330
21D
100
AcDbEntity
  8
0
  6
Continuous
 62
     7
100
AcDbLine
 10
196.7386130851
 20
948.6437139044999
 30
0.0
 11
197.5827365774
 21
948.6437139044999
 31
0.0
1001
ACAD
1000
RTMaterial
1005
0
  0
LINE
  5
291
330
21D
100
AcDbEntity
  8
0
  6
Continuous
 62
     7
100
AcDbLine
 10
202.4068244437
 20
948.6437139044999
 30
0.0
 11
203.250947936
 21
948.6437139044999
 31
0.0
1001
ACAD
1000
RTMaterial
1005
0
  0
LINE
  5
292
330
21D
100
AcDbEntity
  8
0
  6
Continuous
 62
     7
100
AcDbLine
 10
187.2624523506
 20
948.6437572969
 30
0.0
 11
188.3504192299
 21
948.6437572969
 31
0.0
1001
ACAD
1000
RTMaterial
1005
0
  0
LINE
  5
293
330
21D
100
AcDbEntity
  8
0
  6
Continuous
 62
     7
100
AcDbLine
 10
191.0795248647
 20
948.6437572969
 30
0.0
 11
192.1026596269
 21
948.6437572969
 31
0.0
1001
ACAD
1000
RTMaterial
1005
0
  0
LINE
  5
294
330
21D
100
AcDbEntity
  8
0
  6
Continuous
 62
     7
100
AcDbLine
 10
182.5165268308
 20
948.6698407525
 30
0.0
 11
183.4249227384
 21
948.6698407525
 31
0.0
1001
ACAD
1000
RTMaterial
1005
0
  0
LINE
  5
295
330
21D
100
AcDbEntity
  8
0
  6
Continuous
 62
     7
100
AcDbLine
 10
185.8706327306
 20
948.6698407525
 30
0.0
 11
186.7790286382
 21
948.6698407525
 31
0.0
1001
ACAD
1000
RTMaterial
1005
0
  0
LINE
  5
296
330
21D
100
AcDbEntity
  8
0
  6
Continuous
 62
     7
100
AcDbLine
 10
192.8279770986
 20
948.6698407525
 30
0.0
 11
196.0182769588
 21
948.6698407525
 31
0.0
1001
ACAD
1000
RTMaterial
1005
0
  0
LINE
  5
297
330
21D
100
AcDbEntity
  8
0
  6
Continuous
 62
     7
100
AcDbLine
 10
196.7386130851
 20
948.6698407525
 30
0.0
 11
197.5827365774
 21
948.6698407525
 31
0.0
1001
ACAD
1000
RTMaterial
1005
0
  0
LINE
  5
298
330
21D
100
AcDbEntity
  8
0
  6
Continuous
 62
     7
100
AcDbLine
 10
202.4068244437
 20
948.6698407525
 30
0.0
 11
203.250947936
 21
948.6698407525
 31
0.0
1001
ACAD
1000
RTMaterial
1005
0
  0
LINE
  5
299
330
21D
100
AcDbEntity
  8
0
  6
Continuous
 62
     7
100
AcDbLine
 10
187.2624523506
 20
948.6698841357
 30
0.0
 11
188.3504192299
 21
948.6698841357
 31
0.0
1001
ACAD
1000
RTMaterial
1005
0
  0
LINE
  5
29A
330
21D
100
AcDbEntity
  8
0
  6
Continuous
 62
     7
100
AcDbLine
 10
191.0795248647
 20
948.6698841357
 30
0.0
 11
192.1026596269
 21
948.6698841357
 31
0.0
1001
ACAD
1000
RTMaterial
1005
0
  0
LINE
  5
29B
330
21D
100
AcDbEntity
  8
0
  6
Continuous
 62
     9
100
AcDbLine
 10
273.5968206552
 20
949.3217927776999
 30
0.0
 11
273.5676692376
 21
949.3217927776999
 31
0.0
1001
ACAD
1000
RTMaterial
1005
0
  0
LINE
  5
29C
330
21D
100
AcDbEntity
  8
0
  6
Continuous
 62
     7
100
AcDbLine
 10
183.7590646711
 20
949.4339502247999
 30
0.0
 11
185.5360243798
 21
949.4339502247999
 31
0.0
1001
ACAD
1000
RTMaterial
1005
0
  0
LINE
  5
29D
330
21D
100
AcDbEntity
  8
0
  6
Continuous
 62
     7
100
AcDbLine
 10
193.6717274563
 20
949.4339502247999
 30
0.0
 11
196.0182769588
 21
949.4339502247999
 31
0.0
1001
ACAD
1000
RTMaterial
1005
0
  0
LINE
  5
29E
330
21D
100
AcDbEntity
  8
0
  6
Continuous
 62
     7
100
AcDbLine
 10
183.7590646711
 20
949.4599396502
 30
0.0
 11
185.5360243798
 21
949.4599396502
 31
0.0
1001
ACAD
1000
RTMaterial
1005
0
  0
LINE
  5
29F
330
21D
100
AcDbEntity
  8
0
  6
Continuous
 62
     7
100
AcDbLine
 10
5.468591136
 20
940.6822648488999
 30
0.0
 11
6.6717274563
 21
940.6759651843
 31
0.0
1001
ACAD
1000
RTMaterial
1005
0
  0
LINE
  5
2A1
330
21D
100
AcDbEntity
  8
0
  6
Continuous
 62
     9
100
AcDbLine
 10
372.2512317932
 20
977.7555334941
 30
0.0
 11
372.2512317932
 21
1057.4040380451
 31
0.0
1001
ACAD
1000
RTMaterial
1005
0
  0
LINE
  5
2A2
330
21D
100
AcDbEntity
  8
0
  6
Continuous
 62
     7
100
AcDbLine
 10
373.6717274562999
 20
974.3217927776999
 30
0.0
 11
373.6717274562999
 21
1058.8245337082
 31
0.0
1001
ACAD
1000
RTMaterial
1005
0
  0
LINE
  5
2A3
330
21D
100
AcDbEntity
  8
7_ALL_FEATURES
  6
Continuous
 62
     9
100
AcDbLine
 10
379.6717274563
 20
974.3217927776999
 30
0.0
 11
379.671729586
 21
942.4587089707999
 31
0.0
1001
ACAD
1000
RTMaterial
1005
0
  0
LINE
  5
2A4
330
21D
100
AcDbEntity
  8
7_ALL_FEATURES
  6
Continuous
 62
     9
100
AcDbLine
 10
379.6717338408
 20
942.4587089523999
 30
0.0
 11
379.6723813678
 21
935.3032274412999
 31
0.0
1001
ACAD
1000
RTMaterial
1005
0
  0
LINE
  5
2A5
330
21D
100
AcDbEntity
  8
7_ALL_FEATURES
  6
Continuous
 62
     7
100
AcDbLine
 10
381.6717274563
 20
974.3217927776999
 30
0.0
 11
381.6717274563
 21
661.2697379628
 31
0.0
1001
ACAD
1000
RTMaterial
1005
0
  0
LINE
  5
2A6
330
21D
100
AcDbEntity
  8
0
  6
Continuous
 62
     7
100
AcDbLine
 10
377.760015255
 20
1060.8216425347
 30
0.0
 11
377.5180403821
 21
974.3217927776999
 31
0.0
1001
ACAD
1000
RTMaterial
1005
0
  0
LINE
  5
2A7
330
21D
100
AcDbEntity
  8
0
  6
Continuous
 62
     7
100
AcDbLine
 10
5.468591136
 20
970.9613207064998
 30
0.0
 11
6.6717274563
 21
970.9676203711
 31
0.0
1001
ACAD
1000
RTMaterial
1005
0
  0
LINE
  5
2A8
330
21D
100
AcDbEntity
  8
0
  6
Continuous
 62
     7
100
AcDbLine
 10
275.5679806165
 20
974.3217922274
 30
0.0
 11
275.5681353011
 21
974.3217927766
 31
0.0
1001
ACAD
1000
RTMaterial
1005
0
  0
LINE
  5
2A9
330
21D
100
AcDbEntity
  8
0
  6
Continuous
 62
     7
100
AcDbLine
 10
184.0951655599
 20
950.233212128
 30
0.0
 11
185.2009496109
 21
950.233212128
 31
0.0
1001
ACAD
1000
RTMaterial
1005
0
  0
LINE
  5
2AA
330
21D
100
AcDbEntity
  8
0
  6
Continuous
 62
     7
100
AcDbLine
 10
193.6717274563
 20
950.54435252
 30
0.0
 11
195.4972879319
 21
950.54435252
 31
0.0
1001
ACAD
1000
RTMaterial
1005
0
  0
LINE
  5
2AB
330
21D
100
AcDbEntity
  8
0
  6
Continuous
 62
     7
100
AcDbLine
 10
193.6717274563
 20
950.5702442571999
 30
0.0
 11
195.4972879319
 21
950.5702442571999
 31
0.0
1001
ACAD
1000
RTMaterial
1005
0
  0
LINE
  5
2AC
330
21D
100
AcDbEntity
  8
0
  6
Continuous
 62
     7
100
AcDbLine
 10
189.6076958824
 20
950.6035445971999
 30
0.0
 11
189.8327892614
 21
950.6035445971999
 31
0.0
1001
ACAD
1000
RTMaterial
1005
0
  0
LINE
  5
2AD
330
21D
100
AcDbEntity
  8
0
  6
Continuous
 62
     7
100
AcDbLine
 10
189.6076958824
 20
950.6294340913999
 30
0.0
 11
189.8327892614
 21
950.6294340913999
 31
0.0
1001
ACAD
1000
RTMaterial
1005
0
  0
LINE
  5
2AE
330
21D
100
AcDbEntity
  8
0
  6
Continuous
 62
     7
100
AcDbLine
 10
193.6717274563
 20
951.3584214453
 30
0.0
 11
195.4972879319
 21
951.3584214453
 31
0.0
1001
ACAD
1000
RTMaterial
1005
0
  0
LINE
  5
2AF
330
21D
100
AcDbEntity
  8
0
  6
Continuous
 62
     7
100
AcDbLine
 10
189.6062966281
 20
951.3936971358001
 30
0.0
 11
189.8341885157
 21
951.3936971358001
 31
0.0
1001
ACAD
1000
RTMaterial
1005
0
  0
LINE
  5
2B0
330
21D
100
AcDbEntity
  8
0
  6
Continuous
 62
     7
100
AcDbLine
 10
193.6717274563
 20
952.5021373822999
 30
0.0
 11
196.0182769588
 21
952.5021373822999
 31
0.0
1001
ACAD
1000
RTMaterial
1005
0
  0
LINE
  5
2B1
330
21D
100
AcDbEntity
  8
0
  6
Continuous
 62
     7
100
AcDbLine
 10
201.1408724144
 20
952.5021373822999
 30
0.0
 11
202.4068244437
 21
952.5021373822999
 31
0.0
1001
ACAD
1000
RTMaterial
1005
0
  0
LINE
  5
2B2
330
21D
100
AcDbEntity
  8
0
  6
Continuous
 62
     7
100
AcDbLine
 10
203.250947936
 20
952.5021373822999
 30
0.0
 11
204.5165268308
 21
952.5021373822999
 31
0.0
1001
ACAD
1000
RTMaterial
1005
0
  0
LINE
  5
2B3
330
21D
100
AcDbEntity
  8
0
  6
Continuous
 62
     7
100
AcDbLine
 10
193.6717274563
 20
952.5281057002999
 30
0.0
 11
196.0182769588
 21
952.5281057002999
 31
0.0
1001
ACAD
1000
RTMaterial
1005
0
  0
LINE
  5
2B4
330
21D
100
AcDbEntity
  8
0
  6
Continuous
 62
     7
100
AcDbLine
 10
201.1408724144
 20
952.5281057002999
 30
0.0
 11
202.4068244437
 21
952.5281057002999
 31
0.0
1001
ACAD
1000
RTMaterial
1005
0
  0
LINE
  5
2B5
330
21D
100
AcDbEntity
  8
0
  6
Continuous
 62
     7
100
AcDbLine
 10
203.250947936
 20
952.5281057002999
 30
0.0
 11
204.5165268308
 21
952.5281057002999
 31
0.0
1001
ACAD
1000
RTMaterial
1005
0
  0
LINE
  5
2B6
330
21D
100
AcDbEntity
  8
0
  6
Continuous
 62
     7
100
AcDbLine
 10
187.2624523506
 20
953.3250441498999
 30
0.0
 11
188.3399714641999
 21
953.3250441498999
 31
0.0
1001
ACAD
1000
RTMaterial
1005
0
  0
LINE
  5
2B7
330
21D
100
AcDbEntity
  8
0
  6
Continuous
 62
     7
100
AcDbLine
 10
191.0795248647
 20
953.3250441498999
 30
0.0
 11
192.1026596269
 21
953.3250441498999
 31
0.0
1001
ACAD
1000
RTMaterial
1005
0
  0
LINE
  5
2B8
330
21D
100
AcDbEntity
  8
0
  6
Continuous
 62
     7
100
AcDbLine
 10
184.4508560092
 20
953.3401865431001
 30
0.0
 11
184.8447927434
 21
953.3401865431001
 31
0.0
1001
ACAD
1000
RTMaterial
1005
0
  0
LINE
  5
2B9
330
21D
100
AcDbEntity
  8
0
  6
Continuous
 62
     7
100
AcDbLine
 10
192.8279770986
 20
953.3401865431001
 30
0.0
 11
196.0182769588
 21
953.3401865431001
 31
0.0
1001
ACAD
1000
RTMaterial
1005
0
  0
LINE
  5
2BA
330
21D
100
AcDbEntity
  8
0
  6
Continuous
 62
     7
100
AcDbLine
 10
196.7386130851
 20
953.3401865431001
 30
0.0
 11
197.1318035503
 21
953.3401865431001
 31
0.0
1001
ACAD
1000
RTMaterial
1005
0
  0
LINE
  5
2BB
330
21D
100
AcDbEntity
  8
0
  6
Continuous
 62
     7
100
AcDbLine
 10
199.5714501072
 20
953.3401865431001
 30
0.0
 11
200.4159467339
 21
953.3401865431001
 31
0.0
1001
ACAD
1000
RTMaterial
1005
0
  0
LINE
  5
2BC
330
21D
100
AcDbEntity
  8
0
  6
Continuous
 62
     7
100
AcDbLine
 10
201.1408724144
 20
953.3401865431001
 30
0.0
 11
204.5165268308
 21
953.3401865431001
 31
0.0
1001
ACAD
1000
RTMaterial
1005
0
  0
LINE
  5
2BF
330
21D
100
AcDbEntity
  8
02___PRT_ALL_AXES
  6
Continuous
 62
     7
100
AcDbLine
 10
-10.831408864
 20
971.8217927777001
 30
0.0
 11
5.468591136
 21
971.8217927777001
 31
0.0
1001
ACAD
1000
RTMaterial
1005
0
  0
LINE
  5
2C0
330
21D
100
AcDbEntity
  8
0
  6
Continuous
 62
     7
100
AcDbLine
 10
114.9717274563
 20
973.016979275
 30
0.0
 11
272.3717274563
 21
973.016979275
 31
0.0
1001
ACAD
1000
RTMaterial
1005
0
  0
LINE
  5
2C1
330
21D
100
AcDbEntity
  8
7_ALL_FEATURES
  6
Continuous
 62
     7
100
AcDbLine
 10
382.1717274562999
 20
970.2217927776999
 30
0.0
 11
382.1717274562999
 21
941.4217927777
 31
0.0
1001
ACAD
1000
RTMaterial
1005
0
  0
LINE
  5
2C2
330
21D
100
AcDbEntity
  8
7_ALL_FEATURES
  6
Continuous
 62
     7
100
AcDbLine
 10
6.6717274563
 20
974.3217927776999
 30
0.0
 11
8.671727456299999
 21
974.3217927776999
 31
0.0
1001
ACAD
1000
RTMaterial
1005
0
  0
LINE
  5
2C3
330
21D
100
AcDbEntity
  8
02___PRT_ALL_AXES
  6
Continuous
 62
     7
100
AcDbLine
 10
8.671727456299999
 20
974.3217927776999
 30
0.0
 11
112.7751874782
 21
974.3217927776999
 31
0.0
1001
ACAD
1000
RTMaterial
1005
0
  0
LINE
  5
2C4
330
21D
100
AcDbEntity
  8
02___PRT_ALL_AXES
  6
Continuous
 62
     7
100
AcDbLine
 10
275.5682674545
 20
974.3217927776999
 30
0.0
 11
379.6717274563
 21
974.3217927776999
 31
0.0
1001
ACAD
1000
RTMaterial
1005
0
  0
LINE
  5
2C5
330
21D
100
AcDbEntity
  8
7_ALL_FEATURES
  6
Continuous
 62
     7
100
AcDbLine
 10
379.6717274563
 20
974.3217927776999
 30
0.0
 11
381.6717274563
 21
974.3217927776999
 31
0.0
1001
ACAD
1000
RTMaterial
1005
0
  0
LINE
  5
2C8
330
21D
100
AcDbEntity
  8
0
  6
Continuous
 62
     9
100
AcDbLine
 10
370.5289753111
 20
975.2149697374001
 30
0.0
 11
274.2120824998
 21
975.2149697374001
 31
0.0
1001
ACAD
1000
RTMaterial
1005
0
  0
LINE
  5
2C9
330
21D
100
AcDbEntity
  8
0
  6
Continuous
 62
     9
100
AcDbLine
 10
16.8144796015
 20
975.2149697374001
 30
0.0
 11
113.1313724128
 21
975.2149697374001
 31
0.0
1001
ACAD
1000
RTMaterial
1005
0
  0
LINE
  5
2CA
330
21D
100
AcDbEntity
  8
0
  6
Continuous
 62
     9
100
AcDbLine
 10
17.089482189
 20
975.7664897034
 30
0.0
 11
113.2687794216
 21
975.7664897034
 31
0.0
1001
ACAD
1000
RTMaterial
1005
0
  0
LINE
  5
2CB
330
21D
100
AcDbEntity
  8
0
  6
Continuous
 62
     9
100
AcDbLine
 10
274.0746754911
 20
975.7664897034
 30
0.0
 11
370.2539727237
 21
975.7664897034
 31
0.0
1001
ACAD
1000
RTMaterial
1005
0
  0
LINE
  5
2CE
330
21D
100
AcDbEntity
  8
0
  6
Continuous
 62
     7
100
AcDbLine
 10
112.7753177874
 20
974.3217927757999
 30
0.0
 11
112.7754633865
 21
974.3217923071
 31
0.0
1001
ACAD
1000
RTMaterial
1005
0
  0
LWPOLYLINE
  5
2CF
330
21D
100
AcDbEntity
  8
0
  6
Continuous
 62
     7
100
AcDbPolyline
 90
       13
 70
     0
 43
0.0
 10
338.7683087852
 20
1059.7413728098
 10
338.5006481503
 20
1059.7149416336
 10
338.1837037889
 20
1059.6887353338
 10
337.8181760161
 20
1059.6631503472
 10
337.4048881788
 20
1059.6385437845
 10
336.9445815645
 20
1059.6152486557
 10
336.4379721228
 20
1059.5935189191
 10
335.8862516095
 20
1059.5736340494
 10
335.291141317
 20
1059.5559339294
 10
334.6550762434
 20
1059.5406937168
 10
333.9808663096
 20
1059.5281911304
 10
333.2718059944
 20
1059.5187576129
 10
332.5318369032
 20
1059.5126522757
  0
LWPOLYLINE
  5
2D0
330
21D
100
AcDbEntity
  8
0
  6
Continuous
 62
     7
100
AcDbPolyline
 90
        5
 70
     0
 43
0.0
 10
48.6394319464
 20
1059.7345614705
 10
48.400619998
 20
1059.761843236
 10
48.2229898789
 20
1059.7870912551
 10
48.1116629033
 20
1059.807392076
 10
48.0946151718
 20
1059.8111705663
  0
LINE
  5
2D1
330
21D
100
AcDbEntity
  8
0
  6
Continuous
 62
     9
100
AcDbLine
 10
370.2539727237
 20
975.7664897034
 30
0.0
 11
370.5289753111
 21
975.2149697374001
 31
0.0
1001
ACAD
1000
RTMaterial
1005
0
  0
LINE
  5
2D2
330
21D
100
AcDbEntity
  8
0
  6
Continuous
 62
     9
100
AcDbLine
 10
372.2512317932
 20
977.7555334941
 30
0.0
 11
372.5262343806
 21
977.2040135280999
 31
0.0
1001
ACAD
1000
RTMaterial
1005
0
  0
LWPOLYLINE
  5
2D3
330
21D
100
AcDbEntity
  8
0
  6
Continuous
 62
     7
100
AcDbPolyline
 90
       13
 70
     0
 43
0.0
 10
88.76830878520001
 20
1059.7413728098
 10
88.5006481503
 20
1059.7149416336
 10
88.1837037889
 20
1059.6887353338
 10
87.81817601610001
 20
1059.6631503472
 10
87.40488817879999
 20
1059.6385437845
 10
86.94458156450002
 20
1059.6152486557
 10
86.4379721228
 20
1059.5935189191
 10
85.8862516095
 20
1059.5736340494
 10
85.291141317
 20
1059.5559339294
 10
84.6550762434
 20
1059.5406937168
 10
83.98086630959999
 20
1059.5281911304
 10
83.2718059944
 20
1059.5187576129
 10
82.5318369032
 20
1059.5126522757
  0
LINE
  5
2D4
330
21D
100
AcDbEntity
  8
0
  6
Continuous
 62
     7
100
AcDbLine
 10
332.5318369032
 20
1059.5126522757
 30
0.0
 11
331.6717274551
 21
1059.5101958332
 31
0.0
1001
ACAD
1000
RTMaterial
1005
0
  0
LINE
  5
2D5
330
21D
100
AcDbEntity
  8
0
  6
Continuous
 62
     7
100
AcDbLine
 10
82.5318369032
 20
1059.5126522757
 30
0.0
 11
81.67172745509999
 21
1059.5101958332
 31
0.0
1001
ACAD
1000
RTMaterial
1005
0
  0
LINE
  5
2D7
330
21D
100
AcDbEntity
  8
0
  6
Continuous
 62
     9
100
AcDbLine
 10
370.2539727237
 20
1059.4012971146
 30
0.0
 11
17.089482189
 21
1059.4012971146
 31
0.0
1001
ACAD
1000
RTMaterial
1005
0
  0
LINE
  5
2D8
330
21D
100
AcDbEntity
  8
0
  6
Continuous
 62
     9
100
AcDbLine
 10
331.6717274563
 20
1059.5088554844
 30
0.0
 11
280.6717274563
 21
1059.5088554844
 31
0.0
1001
ACAD
1000
RTMaterial
1005
0
  0
LINE
  5
2D9
330
21D
100
AcDbEntity
  8
0
  6
Continuous
 62
     9
100
AcDbLine
 10
81.67172745630001
 20
1059.5088554844
 30
0.0
 11
55.6717274563
 21
1059.5088554844
 31
0.0
1001
ACAD
1000
RTMaterial
1005
0
  0
LINE
  5
2DA
330
21D
100
AcDbEntity
  8
0
  6
Continuous
 62
     7
100
AcDbLine
 10
331.6717274563
 20
1059.5102259496
 30
0.0
 11
280.6717274576
 21
1059.5102259496
 31
0.0
1001
ACAD
1000
RTMaterial
1005
0
  0
LINE
  5
2DB
330
21D
100
AcDbEntity
  8
0
  6
Continuous
 62
     7
100
AcDbLine
 10
81.67172745630001
 20
1059.5102259496
 30
0.0
 11
55.6717274576
 21
1059.5102259496
 31
0.0
1001
ACAD
1000
RTMaterial
1005
0
  0
LINE
  5
2DC
330
21D
100
AcDbEntity
  8
0
  6
Continuous
 62
     7
100
AcDbLine
 10
369.0040225626
 20
1060.654087884
 30
0.0
 11
339.6717274563
 21
1060.654087884
 31
0.0
1001
ACAD
1000
RTMaterial
1005
0
  0
LINE
  5
2DD
330
21D
100
AcDbEntity
  8
0
  6
Continuous
 62
     7
100
AcDbLine
 10
272.6717274563
 20
1060.654087884
 30
0.0
 11
89.6717274563
 21
1060.654087884
 31
0.0
1001
ACAD
1000
RTMaterial
1005
0
  0
LINE
  5
2DE
330
21D
100
AcDbEntity
  8
0
  6
Continuous
 62
     7
100
AcDbLine
 10
47.6717274563
 20
1060.654087884
 30
0.0
 11
18.33943235
 21
1060.654087884
 31
0.0
1001
ACAD
1000
RTMaterial
1005
0
  0
LINE
  5
2DF
330
21D
100
AcDbEntity
  8
0
  6
Continuous
 62
     7
100
AcDbLine
 10
377.7559322491001
 20
1060.8217927777
 30
0.0
 11
8.587515989199999
 21
1060.8217927777
 31
0.0
1001
ACAD
1000
RTMaterial
1005
0
  0
LWPOLYLINE
  5
2E0
330
21D
100
AcDbEntity
  8
0
  6
Continuous
 62
     7
100
AcDbPolyline
 90
       13
 70
     0
 43
0.0
 10
55.67172745869999
 20
1059.5101958314
 10
54.781696496
 20
1059.5128275567
 10
53.997275826
 20
1059.5195776078
 10
53.2468122717
 20
1059.5300849137
 10
52.5355017184
 20
1059.5440388611
 10
51.8677427993
 20
1059.5610426178
 10
51.2474372226
 20
1059.5807704457
 10
50.6776035831
 20
1059.6028443547
 10
50.1604367855
 20
1059.626838712
 10
49.69720851229999
 20
1059.6524269335
 10
49.28878717199999
 20
1059.6792208674
 10
48.9360174877
 20
1059.7067555132
 10
48.6394319464
 20
1059.7345614705
  0
LWPOLYLINE
  5
2E1
330
21D
100
AcDbEntity
  8
0
  6
Continuous
 62
     7
100
AcDbPolyline
 90
       13
 70
     0
 43
0.0
 10
280.6717274587
 20
1059.5101958314
 10
279.781696496
 20
1059.5128275567
 10
278.997275826
 20
1059.5195776078
 10
278.2468122717
 20
1059.5300849137
 10
277.5355017184
 20
1059.5440388611
 10
276.8677427993
 20
1059.5610426178
 10
276.2474372225999
 20
1059.5807704457
 10
275.6776035831
 20
1059.6028443547
 10
275.1604367855
 20
1059.626838712
 10
274.6972085123
 20
1059.6524269335
 10
274.288787172
 20
1059.6792208674
 10
273.9360174877
 20
1059.7067555132
 10
273.6394319464
 20
1059.7345614705
  0
LWPOLYLINE
  5
2E2
330
21D
100
AcDbEntity
  8
0
  6
Continuous
 62
     7
100
AcDbPolyline
 90
        5
 70
     0
 43
0.0
 10
273.6394319464
 20
1059.7345614705
 10
273.400619998
 20
1059.761843236
 10
273.2229898789
 20
1059.7870912551
 10
273.1116629033
 20
1059.807392076
 10
273.0946151718
 20
1059.8111705663
  0
LINE
  5
2E3
330
21D
100
AcDbEntity
  8
0
  6
Continuous
 62
     7
100
AcDbLine
 10
-11.331408864
 20
1484.1491102446
 30
0.0
 11
-11.331408864
 21
1515.1488609843
 31
0.0
1001
ACAD
1000
RTMaterial
1005
0
  0
LINE
  5
2E4
330
21D
100
AcDbEntity
  8
0
  6
Continuous
 62
     9
100
AcDbLine
 10
-10.831408864
 20
1483.6489856144
 30
0.0
 11
-10.831408864
 21
1515.6489856144
 31
0.0
1001
ACAD
1000
RTMaterial
1005
0
  0
LINE
  5
2E5
330
21D
100
AcDbEntity
  8
7_ALL_FEATURES
  6
Continuous
 62
     9
100
AcDbLine
 10
8.104626918599999
 20
1508.820742705
 30
0.0
 11
6.6717274563
 21
1481.1489856144
 31
0.0
1001
ACAD
1000
RTMaterial
1005
0
  0
LINE
  5
2E6
330
21D
100
AcDbEntity
  8
7_ALL_FEATURES
  6
Continuous
 62
     9
100
AcDbLine
 10
8.137143983699999
 20
1508.7587538712
 30
0.0
 11
6.6902886176
 21
1481.1489856144
 31
0.0
1001
ACAD
1000
RTMaterial
1005
0
  0
LINE
  5
2E7
330
21D
100
AcDbEntity
  8
0
  6
Continuous
 62
     7
100
AcDbLine
 10
8.5983351294
 20
1469.2498731303
 30
0.0
 11
28.1717274563
 21
1175.6489856144
 31
0.0
1001
ACAD
1000
RTMaterial
1005
0
  0
LINE
  5
2E8
330
21D
100
AcDbEntity
  8
02___PRT_ALL_AXES
  6
Continuous
 62
     7
100
AcDbLine
 10
5.468591136
 20
1483.6490361429
 30
0.0
 11
5.468591136
 21
1515.648935086
 31
0.0
1001
ACAD
1000
RTMaterial
1005
0
  0
LINE
  5
2E9
330
21D
100
AcDbEntity
  8
7_ALL_FEATURES
  6
Continuous
 62
     7
100
AcDbLine
 10
6.6717274563
 20
1481.1489856144
 30
0.0
 11
6.6717274563
 21
1516.1484875376
 31
0.0
1001
ACAD
1000
RTMaterial
1005
0
  0
LINE
  5
2EA
330
21D
100
AcDbEntity
  8
7_ALL_FEATURES
  6
Continuous
 62
     9
100
AcDbLine
 10
8.6717274521
 20
1517.8190050453
 30
0.0
 11
8.671727456299999
 21
1518.148985609
 31
0.0
1001
ACAD
1000
RTMaterial
1005
0
  0
LINE
  5
2EB
330
21D
100
AcDbEntity
  8
0
  6
Continuous
 62
     9
100
AcDbLine
 10
18.8226216194
 20
1478.6589679391
 30
0.0
 11
18.8226216201
 21
1480.5165927329
 31
0.0
1001
ACAD
1000
RTMaterial
1005
0
  0
LINE
  5
2EC
330
21D
100
AcDbEntity
  8
06___PRT_ALL_SURFS
  6
Continuous
 62
     7
100
AcDbLine
 10
6.6717274563
 20
1481.1594748828
 30
0.0
 11
6.6717274563
 21
1481.1489856144
 31
0.0
1001
ACAD
1000
RTMaterial
1005
0
  0
LINE
  5
2ED
330
21D
100
AcDbEntity
  8
7_ALL_FEATURES
  6
Continuous
 62
     9
100
AcDbLine
 10
8.6710735448
 20
1517.6361890204
 30
0.0
 11
8.671727448
 21
1517.8190050453
 31
0.0
1001
ACAD
1000
RTMaterial
1005
0
  0
LINE
  5
2EE
330
21D
100
AcDbEntity
  8
0
  6
Continuous
 62
     7
100
AcDbLine
 10
13.9589011573
 20
1481.1285862556
 30
0.0
 11
13.6717274563
 21
1475.6489856144
 31
0.0
1001
ACAD
1000
RTMaterial
1005
0
  0
LINE
  5
2EF
330
21D
100
AcDbEntity
  8
0
  6
Continuous
 62
     9
100
AcDbLine
 10
18.8226216194
 20
1478.6589679391
 30
0.0
 11
18.6648751301
 21
1475.6489856144
 31
0.0
1001
ACAD
1000
RTMaterial
1005
0
  0
LINE
  5
2F0
330
21D
100
AcDbEntity
  8
0
  6
Continuous
 62
     9
100
AcDbLine
 10
22.6799502478
 20
1475.6489856144
 30
0.0
 11
22.8376967371
 21
1478.6589679391
 31
0.0
1001
ACAD
1000
RTMaterial
1005
0
  0
LINE
  5
2F1
330
21D
100
AcDbEntity
  8
0
  6
Continuous
 62
     9
100
AcDbLine
 10
22.8376967371
 20
1478.6589679391
 30
0.0
 11
22.8376967371
 21
1480.5165927325
 31
0.0
1001
ACAD
1000
RTMaterial
1005
0
  0
LINE
  5
2F2
330
21D
100
AcDbEntity
  8
0
  6
Continuous
 62
     7
100
AcDbLine
 10
28.7678588746
 20
1477.483282346
 30
0.0
 11
28.6717274563
 21
1475.6489856144
 31
0.0
1001
ACAD
1000
RTMaterial
1005
0
  0
LINE
  5
2F3
330
21D
100
AcDbEntity
  8
0
  6
Continuous
 62
     9
100
AcDbLine
 10
38.6999490273
 20
1476.4489856144
 30
0.0
 11
38.65802280389999
 21
1475.6489856144
 31
0.0
1001
ACAD
1000
RTMaterial
1005
0
  0
LINE
  5
2F4
330
21D
100
AcDbEntity
  8
7_ALL_FEATURES
  6
Continuous
 62
     9
100
AcDbLine
 10
61.1430484674
 20
1481.1489856144
 30
0.0
 11
61.0831573322
 21
1480.5152619421
 31
0.0
1001
ACAD
1000
RTMaterial
1005
0
  0
LINE
  5
2F5
330
21D
100
AcDbEntity
  8
7_ALL_FEATURES
  6
Continuous
 62
     7
100
AcDbLine
 10
66.3127890409
 20
1481.1489856144
 30
0.0
 11
66.10351993270001
 21
1479.9621615256
 31
0.0
1001
ACAD
1000
RTMaterial
1005
0
  0
LINE
  5
2F6
330
21D
100
AcDbEntity
  8
0
  6
Continuous
 62
     7
100
AcDbLine
 10
28.1717274563
 20
1175.6489856144
 30
0.0
 11
358.1717274563
 21
1175.6489856144
 31
0.0
1001
ACAD
1000
RTMaterial
1005
0
  0
LINE
  5
2F7
330
21D
100
AcDbEntity
  8
0
  6
Continuous
 62
     9
100
AcDbLine
 10
76.17172745640001
 20
1175.6489856144
 30
0.0
 11
9.833207695599998
 21
1468.3189257351
 31
0.0
1001
ACAD
1000
RTMaterial
1005
0
  0
LINE
  5
2F8
330
21D
100
AcDbEntity
  8
7_ALL_FEATURES
  6
Continuous
 62
     7
100
AcDbLine
 10
44.17637399359999
 20
1480.3226337921
 30
0.0
 11
44.23993498
 21
1479.9621615256
 31
0.0
1001
ACAD
1000
RTMaterial
1005
0
  0
LINE
  5
2F9
330
21D
100
AcDbEntity
  8
7_ALL_FEATURES
  6
Continuous
 62
     7
100
AcDbLine
 10
309.429487011
 20
1475.6489856144
 30
0.0
 11
309.8253597874
 21
1475.7881456614
 31
0.0
1001
ACAD
1000
RTMaterial
1005
0
  0
LINE
  5
2FA
330
21D
100
AcDbEntity
  8
0
  6
Continuous
 62
     9
100
AcDbLine
 10
113.3861707944
 20
1518.1489855773
 30
0.0
 11
113.3860014567
 21
1518.143061693
 31
0.0
1001
ACAD
1000
RTMaterial
1005
0
  0
LINE
  5
2FB
330
21D
100
AcDbEntity
  8
0
  6
Continuous
 62
     9
100
AcDbLine
 10
113.3860014567
 20
1518.143061693
 30
0.0
 11
113.3755156514
 21
1517.8427875172
 31
0.0
1001
ACAD
1000
RTMaterial
1005
0
  0
LINE
  5
2FC
330
21D
100
AcDbEntity
  8
0
  6
Continuous
 62
     9
100
AcDbLine
 10
120.3657202822
 20
1517.6878405817
 30
0.0
 11
120.3657203924
 21
1517.6876044961
 31
0.0
1001
ACAD
1000
RTMaterial
1005
0
  0
LINE
  5
2FD
330
21D
100
AcDbEntity
  8
0
  6
Continuous
 62
     9
100
AcDbLine
 10
114.9717274563
 20
1518.1489856144
 30
0.0
 11
114.9717274563
 21
1517.7432474426
 31
0.0
1001
ACAD
1000
RTMaterial
1005
0
  0
LINE
  5
2FE
330
21D
100
AcDbEntity
  8
7_ALL_FEATURES
  6
Continuous
 62
     7
100
AcDbLine
 10
309.8281606198
 20
1475.7898655873
 30
0.0
 11
309.8253530967
 21
1475.788161656
 31
0.0
1001
ACAD
1000
RTMaterial
1005
0
  0
LWPOLYLINE
  5
2FF
330
21D
100
AcDbEntity
  8
0
  6
Continuous
 62
     7
100
AcDbPolyline
 90
       16
 70
     0
 43
0.0
 10
144.5810867551
 20
1162.3638506212
 10
146.182940731
 20
1152.7904456376
 10
149.6630894231
 20
1143.6915406494
 10
154.9036526908
 20
1135.4510087171
 10
161.6890654947
 20
1128.411370594
 10
169.7481271425
 20
1122.870899665
 10
178.7401951095
 20
1119.0535826185
 10
188.2978561219
 20
1117.1109698828
 10
198.0428958466
 20
1117.110700336
 10
207.6011550329
 20
1119.0529268105
 10
216.5941559446
 20
1122.8702593373
 10
224.6540645094
 20
1128.4110914018
 10
231.4399784924
 20
1135.4512357444
 10
236.6806338072
 20
1143.6920697118
 10
240.1605807968
 20
1152.7906930781
 10
241.7623619302
 20
1162.3637558621
  0
LINE
  5
300
330
21D
100
AcDbEntity
  8
0
  6
Continuous
 62
     7
100
AcDbLine
 10
143.7070647093
 20
1175.6489856144
 30
0.0
 11
144.5810224564
 21
1162.364827858
 31
0.0
1001
ACAD
1000
RTMaterial
1005
0
  0
LINE
  5
301
330
21D
100
AcDbEntity
  8
7_ALL_FEATURES
  6
Continuous
 62
     7
100
AcDbLine
 10
309.8281606198
 20
1475.7898655873
 30
0.0
 11
311.1337520472
 21
1476.8511469598
 31
0.0
1001
ACAD
1000
RTMaterial
1005
0
  0
LINE
  5
303
330
21D
100
AcDbEntity
  8
0
  6
Continuous
 62
     7
100
AcDbLine
 10
184.4508560092
 20
1517.9817876506
 30
0.0
 11
184.4508560092
 21
1517.8844033472
 31
0.0
1001
ACAD
1000
RTMaterial
1005
0
  0
LINE
  5
304
330
21D
100
AcDbEntity
  8
0
  6
Continuous
 62
     7
100
AcDbLine
 10
184.8447927434
 20
1517.9817876506
 30
0.0
 11
184.8447927434
 21
1517.8844033472
 31
0.0
1001
ACAD
1000
RTMaterial
1005
0
  0
LINE
  5
305
330
21D
100
AcDbEntity
  8
7_ALL_FEATURES
  6
Continuous
 62
     7
100
AcDbLine
 10
311.2234281874
 20
1476.9572546673
 30
0.0
 11
311.2421068953
 21
1476.9805488669
 31
0.0
1001
ACAD
1000
RTMaterial
1005
0
  0
LWPOLYLINE
  5
306
330
21D
100
AcDbEntity
  8
7_ALL_FEATURES
  6
Continuous
 62
     7
100
AcDbPolyline
 90
        3
 70
     0
 43
0.0
 10
311.2234136308
 20
1476.9572367868
 10
314.2674009136
 20
1480.3321026129
 10
315.1935481487
 20
1481.1489856144
  0
LINE
  5
307
330
21D
100
AcDbEntity
  8
0
  6
Continuous
 62
     7
100
AcDbLine
 10
188.3399714641999
 20
1517.9797315428
 30
0.0
 11
188.3399714641999
 21
1517.8823575538
 31
0.0
1001
ACAD
1000
RTMaterial
1005
0
  0
LINE
  5
308
330
21D
100
AcDbEntity
  8
0
  6
Continuous
 62
     7
100
AcDbLine
 10
191.0795248647
 20
1517.9797315428
 30
0.0
 11
191.0795248647
 21
1517.8823575538
 31
0.0
1001
ACAD
1000
RTMaterial
1005
0
  0
LINE
  5
309
330
21D
100
AcDbEntity
  8
0
  6
Continuous
 62
     7
100
AcDbLine
 10
192.8279770986
 20
1517.9817876506
 30
0.0
 11
192.8279770986
 21
1517.6911958705
 31
0.0
1001
ACAD
1000
RTMaterial
1005
0
  0
LINE
  5
30A
330
21D
100
AcDbEntity
  8
0
  6
Continuous
 62
     7
100
AcDbLine
 10
193.6717274563
 20
1517.8487078116
 30
0.0
 11
193.6717274563
 21
1517.6911958705
 31
0.0
1001
ACAD
1000
RTMaterial
1005
0
  0
LINE
  5
30B
330
21D
100
AcDbEntity
  8
0
  6
Continuous
 62
     7
100
AcDbLine
 10
196.0182769588
 20
1517.9817876506
 30
0.0
 11
196.0182769588
 21
1517.8487078116
 31
0.0
1001
ACAD
1000
RTMaterial
1005
0
  0
LINE
  5
30C
330
21D
100
AcDbEntity
  8
0
  6
Continuous
 62
     7
100
AcDbLine
 10
196.7386130851
 20
1517.9817876506
 30
0.0
 11
196.7386130851
 21
1517.6911958705
 31
0.0
1001
ACAD
1000
RTMaterial
1005
0
  0
LINE
  5
30D
330
21D
100
AcDbEntity
  8
0
  6
Continuous
 62
     7
100
AcDbLine
 10
197.1318035503
 20
1517.9817876506
 30
0.0
 11
197.1318035503
 21
1517.8844033472
 31
0.0
1001
ACAD
1000
RTMaterial
1005
0
  0
LINE
  5
30E
330
21D
100
AcDbEntity
  8
0
  6
Continuous
 62
     7
100
AcDbLine
 10
199.5714501072
 20
1517.9817876506
 30
0.0
 11
199.5714501072
 21
1517.6911958705
 31
0.0
1001
ACAD
1000
RTMaterial
1005
0
  0
LINE
  5
30F
330
21D
100
AcDbEntity
  8
0
  6
Continuous
 62
     7
100
AcDbLine
 10
200.4159467339
 20
1517.9817876506
 30
0.0
 11
200.4159467339
 21
1517.6911958705
 31
0.0
1001
ACAD
1000
RTMaterial
1005
0
  0
LINE
  5
310
330
21D
100
AcDbEntity
  8
0
  6
Continuous
 62
     7
100
AcDbLine
 10
201.1408724144
 20
1517.9817876506
 30
0.0
 11
201.1408724144
 21
1517.8487078116
 31
0.0
1001
ACAD
1000
RTMaterial
1005
0
  0
LINE
  5
311
330
21D
100
AcDbEntity
  8
0
  6
Continuous
 62
     7
100
AcDbLine
 10
202.4068244437
 20
1517.8487078116
 30
0.0
 11
202.4068244437
 21
1517.6911958704
 31
0.0
1001
ACAD
1000
RTMaterial
1005
0
  0
LINE
  5
312
330
21D
100
AcDbEntity
  8
0
  6
Continuous
 62
     7
100
AcDbLine
 10
203.250947936
 20
1517.8487078116
 30
0.0
 11
203.250947936
 21
1517.6911958704
 31
0.0
1001
ACAD
1000
RTMaterial
1005
0
  0
LINE
  5
313
330
21D
100
AcDbEntity
  8
0
  6
Continuous
 62
     7
100
AcDbLine
 10
204.5165268308
 20
1517.9817876506
 30
0.0
 11
204.5165268308
 21
1517.8487078116
 31
0.0
1001
ACAD
1000
RTMaterial
1005
0
  0
LINE
  5
314
330
21D
100
AcDbEntity
  8
7_ALL_FEATURES
  6
Continuous
 62
     7
100
AcDbLine
 10
77.1252596135
 20
1476.9549131432
 30
0.0
 11
77.15124859460001
 21
1476.9236986986
 31
0.0
1001
ACAD
1000
RTMaterial
1005
0
  0
LWPOLYLINE
  5
316
330
21D
100
AcDbEntity
  8
7_ALL_FEATURES
  6
Continuous
 62
     7
100
AcDbPolyline
 90
        3
 70
     0
 43
0.0
 10
77.15057116529999
 20
1476.9244780768
 10
78.6258327822
 20
1475.7271625616
 10
78.89212037189999
 20
1475.6489856144
  0
LWPOLYLINE
  5
317
330
21D
100
AcDbEntity
  8
7_ALL_FEATURES
  6
Continuous
 62
     7
100
AcDbPolyline
 90
        4
 70
     0
 43
0.0
 10
73.2318219965
 20
1481.1489856144
 10
73.3281609582
 20
1481.0652288914
 10
76.0139353608
 20
1478.2683254973
 10
77.12517587989999
 20
1476.9550160123
  0
LINE
  5
318
330
21D
100
AcDbEntity
  8
0
  6
Continuous
 62
     7
100
AcDbLine
 10
241.7623633782
 20
1162.3637778713
 30
0.0
 11
242.6363902034
 21
1175.6489856144
 31
0.0
1001
ACAD
1000
RTMaterial
1005
0
  0
LINE
  5
319
330
21D
100
AcDbEntity
  8
0
  6
Continuous
 62
     9
100
AcDbLine
 10
274.957453456
 20
1518.143061693
 30
0.0
 11
274.9572731167
 21
1518.1489855817
 31
0.0
1001
ACAD
1000
RTMaterial
1005
0
  0
LINE
  5
31A
330
21D
100
AcDbEntity
  8
0
  6
Continuous
 62
     9
100
AcDbLine
 10
272.3717274563
 20
1517.7223603314
 30
0.0
 11
272.3717274563
 21
1518.1489856144
 31
0.0
1001
ACAD
1000
RTMaterial
1005
0
  0
LINE
  5
31C
330
21D
100
AcDbEntity
  8
0
  6
Continuous
 62
     9
100
AcDbLine
 10
274.9679392613
 20
1517.8427875172
 30
0.0
 11
274.957453456
 21
1518.143061693
 31
0.0
1001
ACAD
1000
RTMaterial
1005
0
  0
LINE
  5
31D
330
21D
100
AcDbEntity
  8
7_ALL_FEATURES
  6
Continuous
 62
     7
100
AcDbLine
 10
344.1670809191001
 20
1480.3226337921
 30
0.0
 11
344.1035199327
 21
1479.9621615256
 31
0.0
1001
ACAD
1000
RTMaterial
1005
0
  0
LINE
  5
31E
330
21D
100
AcDbEntity
  8
7_ALL_FEATURES
  6
Continuous
 62
     9
100
AcDbLine
 10
327.2602974438
 20
1480.5152633887
 30
0.0
 11
327.2004064452
 21
1481.1489856144
 31
0.0
1001
ACAD
1000
RTMaterial
1005
0
  0
LINE
  5
31F
330
21D
100
AcDbEntity
  8
0
  6
Continuous
 62
     9
100
AcDbLine
 10
310.1717274563
 20
1175.6489856144
 30
0.0
 11
376.510247217
 21
1468.3189257351
 31
0.0
1001
ACAD
1000
RTMaterial
1005
0
  0
LINE
  5
320
330
21D
100
AcDbEntity
  8
0
  6
Continuous
 62
     7
100
AcDbLine
 10
373.6717274562999
 20
1475.6489856144
 30
0.0
 11
371.6148224589
 21
1475.6489856144
 31
0.0
1001
ACAD
1000
RTMaterial
1005
0
  0
LINE
  5
321
330
21D
100
AcDbEntity
  8
0
  6
Continuous
 62
     7
100
AcDbLine
 10
371.4763004409
 20
1475.6489856144
 30
0.0
 11
15.68391464
 21
1475.6489856144
 31
0.0
1001
ACAD
1000
RTMaterial
1005
0
  0
LINE
  5
322
330
21D
100
AcDbEntity
  8
0
  6
Continuous
 62
     7
100
AcDbLine
 10
14.6249810915
 20
1475.6489856144
 30
0.0
 11
13.6717274563
 21
1475.6489856144
 31
0.0
1001
ACAD
1000
RTMaterial
1005
0
  0
LINE
  5
323
330
21D
100
AcDbEntity
  8
02___PRT_ALL_AXES
  6
Continuous
 62
     7
100
AcDbLine
 10
355.1717274562999
 20
1476.4489856144
 30
0.0
 11
347.1717274562999
 21
1476.4489856144
 31
0.0
1001
ACAD
1000
RTMaterial
1005
0
  0
LINE
  5
324
330
21D
100
AcDbEntity
  8
02___PRT_ALL_AXES
  6
Continuous
 62
     7
100
AcDbLine
 10
41.1717274563
 20
1476.4489856144
 30
0.0
 11
33.17172745630001
 21
1476.4489856144
 31
0.0
1001
ACAD
1000
RTMaterial
1005
0
  0
LINE
  5
325
330
21D
100
AcDbEntity
  8
02___PRT_ALL_AXES
  6
Continuous
 62
     9
100
AcDbLine
 10
341.8935184407
 20
1476.8339592446
 30
0.0
 11
324.449936472
 21
1476.8339592446
 31
0.0
1001
ACAD
1000
RTMaterial
1005
0
  0
LINE
  5
326
330
21D
100
AcDbEntity
  8
02___PRT_ALL_AXES
  6
Continuous
 62
     9
100
AcDbLine
 10
63.8935184407
 20
1476.8339592446
 30
0.0
 11
46.44993647199999
 21
1476.8339592446
 31
0.0
1001
ACAD
1000
RTMaterial
1005
0
  0
LINE
  5
327
330
21D
100
AcDbEntity
  8
02___PRT_ALL_AXES
  6
Continuous
 62
     9
100
AcDbLine
 10
359.8935184407
 20
1477.6339592446
 30
0.0
 11
342.9227352227
 21
1477.6339592446
 31
0.0
1001
ACAD
1000
RTMaterial
1005
0
  0
LINE
  5
328
330
21D
100
AcDbEntity
  8
02___PRT_ALL_AXES
  6
Continuous
 62
     9
100
AcDbLine
 10
45.42071969
 20
1477.6339592446
 30
0.0
 11
28.449936472
 21
1477.6339592446
 31
0.0
1001
ACAD
1000
RTMaterial
1005
0
  0
LINE
  5
329
330
21D
100
AcDbEntity
  8
0
  6
Continuous
 62
     9
100
AcDbLine
 10
322.9100454889
 20
1478.3166149837
 30
0.0
 11
312.4495156915001
 21
1478.3166149837
 31
0.0
1001
ACAD
1000
RTMaterial
1005
0
  0
LINE
  5
32A
330
21D
100
AcDbEntity
  8
0
  6
Continuous
 62
     9
100
AcDbLine
 10
75.96756455419999
 20
1478.3166149837
 30
0.0
 11
65.4334094238
 21
1478.3166149837
 31
0.0
1001
ACAD
1000
RTMaterial
1005
0
  0
LINE
  5
32B
330
21D
100
AcDbEntity
  8
0
  6
Continuous
 62
     9
100
AcDbLine
 10
368.5208332933
 20
1478.6589679391
 30
0.0
 11
364.5057581756
 21
1478.6589679391
 31
0.0
1001
ACAD
1000
RTMaterial
1005
0
  0
LINE
  5
32C
330
21D
100
AcDbEntity
  8
0
  6
Continuous
 62
     9
100
AcDbLine
 10
22.8376967371
 20
1478.6589679391
 30
0.0
 11
18.8226216194
 21
1478.6589679391
 31
0.0
1001
ACAD
1000
RTMaterial
1005
0
  0
LINE
  5
32D
330
21D
100
AcDbEntity
  8
02___PRT_ALL_AXES
  6
Continuous
 62
     7
100
AcDbLine
 10
343.9217274563
 20
1479.5489856144
 30
0.0
 11
322.4217274563
 21
1479.5489856144
 31
0.0
1001
ACAD
1000
RTMaterial
1005
0
  0
LINE
  5
32E
330
21D
100
AcDbEntity
  8
02___PRT_ALL_AXES
  6
Continuous
 62
     7
100
AcDbLine
 10
65.9217274563
 20
1479.5489856144
 30
0.0
 11
44.4217274563
 21
1479.5489856144
 31
0.0
1001
ACAD
1000
RTMaterial
1005
0
  0
LINE
  5
32F
330
21D
100
AcDbEntity
  8
7_ALL_FEATURES
  6
Continuous
 62
     9
100
AcDbLine
 10
344.1035199327
 20
1479.9621615256
 30
0.0
 11
322.23993498
 21
1479.9621615256
 31
0.0
1001
ACAD
1000
RTMaterial
1005
0
  0
LINE
  5
330
330
21D
100
AcDbEntity
  8
7_ALL_FEATURES
  6
Continuous
 62
     9
100
AcDbLine
 10
66.10351993270001
 20
1479.9621615256
 30
0.0
 11
44.23993498
 21
1479.9621615256
 31
0.0
1001
ACAD
1000
RTMaterial
1005
0
  0
LINE
  5
331
330
21D
100
AcDbEntity
  8
0
  6
Continuous
 62
     9
100
AcDbLine
 10
322.2399349852
 20
1480.210766015
 30
0.0
 11
314.1579603965
 21
1480.210766015
 31
0.0
1001
ACAD
1000
RTMaterial
1005
0
  0
LINE
  5
332
330
21D
100
AcDbEntity
  8
0
  6
Continuous
 62
     9
100
AcDbLine
 10
74.14867357449999
 20
1480.210766015
 30
0.0
 11
66.10351993270001
 21
1480.210766015
 31
0.0
1001
ACAD
1000
RTMaterial
1005
0
  0
LINE
  5
333
330
21D
100
AcDbEntity
  8
7_ALL_FEATURES
  6
Continuous
 62
     9
100
AcDbLine
 10
54.19627275779999
 20
1480.3226462656
 30
0.0
 11
44.17637399359999
 21
1480.3226337921
 31
0.0
1001
ACAD
1000
RTMaterial
1005
0
  0
LINE
  5
334
330
21D
100
AcDbEntity
  8
7_ALL_FEATURES
  6
Continuous
 62
     9
100
AcDbLine
 10
344.1670809191001
 20
1480.3226337921
 30
0.0
 11
334.1470910326
 21
1480.3226625327
 31
0.0
1001
ACAD
1000
RTMaterial
1005
0
  0
LINE
  5
335
330
21D
100
AcDbEntity
  8
7_ALL_FEATURES
  6
Continuous
 62
     7
100
AcDbLine
 10
355.5782113232
 20
1480.3489856144
 30
0.0
 11
346.7657619788
 21
1480.3489856144
 31
0.0
1001
ACAD
1000
RTMaterial
1005
0
  0
LINE
  5
336
330
21D
100
AcDbEntity
  8
02___PRT_ALL_AXES
  6
Continuous
 62
     7
100
AcDbLine
 10
361.9217274562999
 20
1480.3489856144
 30
0.0
 11
344.1784481142
 21
1480.3489856144
 31
0.0
1001
ACAD
1000
RTMaterial
1005
0
  0
LINE
  5
337
330
21D
100
AcDbEntity
  8
7_ALL_FEATURES
  6
Continuous
 62
     7
100
AcDbLine
 10
41.5775800565
 20
1480.3489856144
 30
0.0
 11
32.82521298010001
 21
1480.3489856144
 31
0.0
1001
ACAD
1000
RTMaterial
1005
0
  0
LINE
  5
338
330
21D
100
AcDbEntity
  8
02___PRT_ALL_AXES
  6
Continuous
 62
     7
100
AcDbLine
 10
44.1650068489
 20
1480.3489856144
 30
0.0
 11
26.4217274563
 21
1480.3489856144
 31
0.0
1001
ACAD
1000
RTMaterial
1005
0
  0
LINE
  5
339
330
21D
100
AcDbEntity
  8
0
  6
Continuous
 62
     9
100
AcDbLine
 10
368.5208332933
 20
1480.5165927325
 30
0.0
 11
364.5057581756
 21
1480.5165927325
 31
0.0
1001
ACAD
1000
RTMaterial
1005
0
  0
LINE
  5
33A
330
21D
100
AcDbEntity
  8
0
  6
Continuous
 62
     9
100
AcDbLine
 10
22.8376967371
 20
1480.5165927325
 30
0.0
 11
18.8226216194
 21
1480.5165927325
 31
0.0
1001
ACAD
1000
RTMaterial
1005
0
  0
LINE
  5
33B
330
21D
100
AcDbEntity
  8
7_ALL_FEATURES
  6
Continuous
 62
     9
100
AcDbLine
 10
362.1943942795
 20
1480.6156522811
 30
0.0
 11
357.2898323479
 21
1480.6156576565
 31
0.0
1001
ACAD
1000
RTMaterial
1005
0
  0
LINE
  5
33C
330
21D
100
AcDbEntity
  8
7_ALL_FEATURES
  6
Continuous
 62
     9
100
AcDbLine
 10
31.0536690529
 20
1480.6156609719
 30
0.0
 11
26.1490606332
 21
1480.6156522811
 31
0.0
1001
ACAD
1000
RTMaterial
1005
0
  0
LINE
  5
33D
330
21D
100
AcDbEntity
  8
7_ALL_FEATURES
  6
Continuous
 62
     9
100
AcDbLine
 10
355.5182172334
 20
1480.7621615256
 30
0.0
 11
344.3688516534
 21
1480.7621615256
 31
0.0
1001
ACAD
1000
RTMaterial
1005
0
  0
LINE
  5
33E
330
21D
100
AcDbEntity
  8
7_ALL_FEATURES
  6
Continuous
 62
     9
100
AcDbLine
 10
43.9746023003
 20
1480.7621615256
 30
0.0
 11
32.82521298010001
 21
1480.7621615256
 31
0.0
1001
ACAD
1000
RTMaterial
1005
0
  0
LINE
  5
33F
330
21D
100
AcDbEntity
  8
7_ALL_FEATURES
  6
Continuous
 62
     7
100
AcDbLine
 10
6.6717274563
 20
1481.1489856144
 30
0.0
 11
381.6717274563
 21
1481.1489856144
 31
0.0
1001
ACAD
1000
RTMaterial
1005
0
  0
LINE
  5
340
330
21D
100
AcDbEntity
  8
02___PRT_ALL_AXES
  6
Continuous
 62
     7
100
AcDbLine
 10
-10.831408864
 20
1483.6489856144
 30
0.0
 11
5.468591136
 21
1483.6489856144
 31
0.0
1001
ACAD
1000
RTMaterial
1005
0
  0
LINE
  5
341
330
21D
100
AcDbEntity
  8
0
  6
Continuous
 62
     7
100
AcDbLine
 10
5.468591136
 20
1484.5094576857
 30
0.0
 11
6.6717274563
 21
1484.503158021
 31
0.0
1001
ACAD
1000
RTMaterial
1005
0
  0
LINE
  5
342
330
21D
100
AcDbEntity
  8
7_ALL_FEATURES
  6
Continuous
 62
     7
100
AcDbLine
 10
322.0306658718
 20
1481.1489856144
 30
0.0
 11
322.23993498
 21
1479.9621615256
 31
0.0
1001
ACAD
1000
RTMaterial
1005
0
  0
LINE
  5
343
330
21D
100
AcDbEntity
  8
0
  6
Continuous
 62
     9
100
AcDbLine
 10
348.6435058854
 20
1476.4489856144
 30
0.0
 11
348.6854321088
 21
1475.6489856144
 31
0.0
1001
ACAD
1000
RTMaterial
1005
0
  0
LINE
  5
344
330
21D
100
AcDbEntity
  8
0
  6
Continuous
 62
     7
100
AcDbLine
 10
358.5974256579
 20
1477.0667483861
 30
0.0
 11
358.6717274563
 21
1475.6489856144
 31
0.0
1001
ACAD
1000
RTMaterial
1005
0
  0
LINE
  5
345
330
21D
100
AcDbEntity
  8
0
  6
Continuous
 62
     9
100
AcDbLine
 10
364.6635046649
 20
1475.6489856144
 30
0.0
 11
364.5057581756
 21
1478.6589679391
 31
0.0
1001
ACAD
1000
RTMaterial
1005
0
  0
LINE
  5
346
330
21D
100
AcDbEntity
  8
0
  6
Continuous
 62
     9
100
AcDbLine
 10
364.5057581756
 20
1478.6589679391
 30
0.0
 11
364.5057582168
 21
1480.5165927243
 31
0.0
1001
ACAD
1000
RTMaterial
1005
0
  0
LINE
  5
347
330
21D
100
AcDbEntity
  8
0
  6
Continuous
 62
     9
100
AcDbLine
 10
368.5208332933
 20
1478.6589679391
 30
0.0
 11
368.5208332933
 21
1480.5165927325
 31
0.0
1001
ACAD
1000
RTMaterial
1005
0
  0
LINE
  5
348
330
21D
100
AcDbEntity
  8
0
  6
Continuous
 62
     7
100
AcDbLine
 10
358.1717274563
 20
1175.6489856144
 30
0.0
 11
377.7451199299
 21
1469.2498728826
 31
0.0
1001
ACAD
1000
RTMaterial
1005
0
  0
LWPOLYLINE
  5
349
330
21D
100
AcDbEntity
  8
0
  6
Continuous
 62
     7
100
AcDbPolyline
 90
        6
 70
     0
 43
0.0
 10
274.7227409799001
 20
1517.8024646867
 10
274.7232203285
 20
1517.8025602026
 10
274.6810936454
 20
1517.7972615542
 10
274.5849847371
 20
1517.7881258201
 10
274.4408297504
 20
1517.7774638587
 10
274.2515769027999
 20
1517.7662020094
  0
LINE
  5
34A
330
21D
100
AcDbEntity
  8
0
  6
Continuous
 62
     9
100
AcDbLine
 10
368.5208332933
 20
1478.6589679391
 30
0.0
 11
368.6785797826
 21
1475.6489856144
 31
0.0
1001
ACAD
1000
RTMaterial
1005
0
  0
LINE
  5
34B
330
21D
100
AcDbEntity
  8
0
  6
Continuous
 62
     7
100
AcDbLine
 10
373.3834846703
 20
1481.1489856144
 30
0.0
 11
373.6717274562999
 21
1475.6489856144
 31
0.0
1001
ACAD
1000
RTMaterial
1005
0
  0
LINE
  5
34C
330
21D
100
AcDbEntity
  8
7_ALL_FEATURES
  6
Continuous
 62
     9
100
AcDbLine
 10
380.2063109290001
 20
1508.7587538712
 30
0.0
 11
381.653166295
 21
1481.1489856144
 31
0.0
1001
ACAD
1000
RTMaterial
1005
0
  0
LINE
  5
34D
330
21D
100
AcDbEntity
  8
7_ALL_FEATURES
  6
Continuous
 62
     9
100
AcDbLine
 10
380.2388274705
 20
1508.8207528124
 30
0.0
 11
381.6717274563
 21
1481.1489856144
 31
0.0
1001
ACAD
1000
RTMaterial
1005
0
  0
LINE
  5
34E
330
21D
100
AcDbEntity
  8
7_ALL_FEATURES
  6
Continuous
 62
     9
100
AcDbLine
 10
379.6717338408
 20
1517.8166645414
 30
0.0
 11
379.6723813678
 21
1517.6361890205
 31
0.0
1001
ACAD
1000
RTMaterial
1005
0
  0
LINE
  5
34F
330
21D
100
AcDbEntity
  8
7_ALL_FEATURES
  6
Continuous
 62
     9
100
AcDbLine
 10
379.6717274563
 20
1518.1489856099
 30
0.0
 11
379.6717274563
 21
1518.143061693
 31
0.0
1001
ACAD
1000
RTMaterial
1005
0
  0
LINE
  5
350
330
21D
100
AcDbEntity
  8
7_ALL_FEATURES
  6
Continuous
 62
     9
100
AcDbLine
 10
379.6717274563
 20
1518.143061693
 30
0.0
 11
379.671729586
 21
1517.8166559921
 31
0.0
1001
ACAD
1000
RTMaterial
1005
0
  0
LINE
  5
351
330
21D
100
AcDbEntity
  8
7_ALL_FEATURES
  6
Continuous
 62
     7
100
AcDbLine
 10
381.6717274563
 20
1516.1484741723
 30
0.0
 11
381.6717274563
 21
1481.1489856144
 31
0.0
1001
ACAD
1000
RTMaterial
1005
0
  0
LINE
  5
352
330
21D
100
AcDbEntity
  8
06___PRT_ALL_SURFS
  6
Continuous
 62
     7
100
AcDbLine
 10
381.6717274563
 20
1481.1489856144
 30
0.0
 11
381.6717274563
 21
1481.1492265062
 31
0.0
1001
ACAD
1000
RTMaterial
1005
0
  0
LINE
  5
353
330
21D
100
AcDbEntity
  8
7_ALL_FEATURES
  6
Continuous
 62
     7
100
AcDbLine
 10
382.1717274562999
 20
1514.048868288
 30
0.0
 11
382.1717274562999
 21
1485.2491029409
 31
0.0
1001
ACAD
1000
RTMaterial
1005
0
  0
LINE
  5
354
330
21D
100
AcDbEntity
  8
0
  6
Continuous
 62
     7
100
AcDbLine
 10
274.2515769027999
 20
1517.7662020094
 30
0.0
 11
274.0205692465
 21
1517.7548318636
 31
0.0
1001
ACAD
1000
RTMaterial
1005
0
  0
LINE
  5
355
330
21D
100
AcDbEntity
  8
0
  6
Continuous
 62
     7
100
AcDbLine
 10
5.468591136
 20
1514.7885135432
 30
0.0
 11
6.6717274563
 21
1514.7948132078
 31
0.0
1001
ACAD
1000
RTMaterial
1005
0
  0
LINE
  5
356
330
21D
100
AcDbEntity
  8
02___PRT_ALL_AXES
  6
Continuous
 62
     7
100
AcDbLine
 10
-10.831408864
 20
1515.6489856144
 30
0.0
 11
5.468591136
 21
1515.6489856144
 31
0.0
1001
ACAD
1000
RTMaterial
1005
0
  0
LINE
  5
357
330
21D
100
AcDbEntity
  8
0
  6
Continuous
 62
     9
100
AcDbLine
 10
113.4380335582
 20
1517.8190050453
 30
0.0
 11
8.6717274521
 21
1517.8190050453
 31
0.0
1001
ACAD
1000
RTMaterial
1005
0
  0
LINE
  5
358
330
21D
100
AcDbEntity
  8
0
  6
Continuous
 62
     7
100
AcDbLine
 10
193.6717274563
 20
1517.8487078116
 30
0.0
 11
196.0182769588
 21
1517.8487078116
 31
0.0
1001
ACAD
1000
RTMaterial
1005
0
  0
LINE
  5
359
330
21D
100
AcDbEntity
  8
0
  6
Continuous
 62
     7
100
AcDbLine
 10
201.1408724144
 20
1517.8487078116
 30
0.0
 11
202.4068244437
 21
1517.8487078116
 31
0.0
1001
ACAD
1000
RTMaterial
1005
0
  0
LINE
  5
35A
330
21D
100
AcDbEntity
  8
0
  6
Continuous
 62
     7
100
AcDbLine
 10
203.250947936
 20
1517.8487078116
 30
0.0
 11
204.5165268308
 21
1517.8487078116
 31
0.0
1001
ACAD
1000
RTMaterial
1005
0
  0
LINE
  5
35B
330
21D
100
AcDbEntity
  8
0
  6
Continuous
 62
     7
100
AcDbLine
 10
187.688797574
 20
1517.8823575538
 30
0.0
 11
188.3399714641999
 21
1517.8823575538
 31
0.0
1001
ACAD
1000
RTMaterial
1005
0
  0
LINE
  5
35C
330
21D
100
AcDbEntity
  8
0
  6
Continuous
 62
     7
100
AcDbLine
 10
191.0795248647
 20
1517.8823575538
 30
0.0
 11
191.6970096437
 21
1517.8823575538
 31
0.0
1001
ACAD
1000
RTMaterial
1005
0
  0
LINE
  5
35D
330
21D
100
AcDbEntity
  8
0
  6
Continuous
 62
     7
100
AcDbLine
 10
184.4508560092
 20
1517.8844033472
 30
0.0
 11
184.8447927434
 21
1517.8844033472
 31
0.0
1001
ACAD
1000
RTMaterial
1005
0
  0
LINE
  5
35E
330
21D
100
AcDbEntity
  8
0
  6
Continuous
 62
     7
100
AcDbLine
 10
192.8279770986
 20
1517.8844033472
 30
0.0
 11
196.0182769588
 21
1517.8844033472
 31
0.0
1001
ACAD
1000
RTMaterial
1005
0
  0
LINE
  5
35F
330
21D
100
AcDbEntity
  8
0
  6
Continuous
 62
     7
100
AcDbLine
 10
196.7386130851
 20
1517.8844033472
 30
0.0
 11
197.1318035503
 21
1517.8844033472
 31
0.0
1001
ACAD
1000
RTMaterial
1005
0
  0
LINE
  5
360
330
21D
100
AcDbEntity
  8
0
  6
Continuous
 62
     7
100
AcDbLine
 10
199.5714501072
 20
1517.8844033472
 30
0.0
 11
200.4159467339
 21
1517.8844033472
 31
0.0
1001
ACAD
1000
RTMaterial
1005
0
  0
LINE
  5
361
330
21D
100
AcDbEntity
  8
0
  6
Continuous
 62
     7
100
AcDbLine
 10
201.1408724144
 20
1517.8844033472
 30
0.0
 11
204.5165268308
 21
1517.8844033472
 31
0.0
1001
ACAD
1000
RTMaterial
1005
0
  0
LINE
  5
362
330
21D
100
AcDbEntity
  8
0
  6
Continuous
 62
     7
100
AcDbLine
 10
187.2624523506
 20
1517.9797315428
 30
0.0
 11
188.3399714641999
 21
1517.9797315428
 31
0.0
1001
ACAD
1000
RTMaterial
1005
0
  0
LINE
  5
363
330
21D
100
AcDbEntity
  8
0
  6
Continuous
 62
     7
100
AcDbLine
 10
191.0795248647
 20
1517.9797315428
 30
0.0
 11
192.1026596269
 21
1517.9797315428
 31
0.0
1001
ACAD
1000
RTMaterial
1005
0
  0
LINE
  5
364
330
21D
100
AcDbEntity
  8
0
  6
Continuous
 62
     7
100
AcDbLine
 10
184.4508560092
 20
1517.9817876506
 30
0.0
 11
184.8447927434
 21
1517.9817876506
 31
0.0
1001
ACAD
1000
RTMaterial
1005
0
  0
LINE
  5
365
330
21D
100
AcDbEntity
  8
0
  6
Continuous
 62
     7
100
AcDbLine
 10
192.8279770986
 20
1517.9817876506
 30
0.0
 11
196.0182769588
 21
1517.9817876506
 31
0.0
1001
ACAD
1000
RTMaterial
1005
0
  0
LINE
  5
366
330
21D
100
AcDbEntity
  8
0
  6
Continuous
 62
     7
100
AcDbLine
 10
196.7386130851
 20
1517.9817876506
 30
0.0
 11
197.1318035503
 21
1517.9817876506
 31
0.0
1001
ACAD
1000
RTMaterial
1005
0
  0
LINE
  5
367
330
21D
100
AcDbEntity
  8
0
  6
Continuous
 62
     7
100
AcDbLine
 10
199.5714501072
 20
1517.9817876506
 30
0.0
 11
200.4159467339
 21
1517.9817876506
 31
0.0
1001
ACAD
1000
RTMaterial
1005
0
  0
LINE
  5
368
330
21D
100
AcDbEntity
  8
0
  6
Continuous
 62
     7
100
AcDbLine
 10
201.1408724144
 20
1517.9817876506
 30
0.0
 11
204.5165268308
 21
1517.9817876506
 31
0.0
1001
ACAD
1000
RTMaterial
1005
0
  0
LINE
  5
369
330
21D
100
AcDbEntity
  8
0
  6
Continuous
 62
     9
100
AcDbLine
 10
379.6717274563
 20
1518.143061693
 30
0.0
 11
274.957453456
 21
1518.143061693
 31
0.0
1001
ACAD
1000
RTMaterial
1005
0
  0
LINE
  5
36A
330
21D
100
AcDbEntity
  8
0
  6
Continuous
 62
     9
100
AcDbLine
 10
113.3860014567
 20
1518.143061693
 30
0.0
 11
8.671727456299999
 21
1518.143061693
 31
0.0
1001
ACAD
1000
RTMaterial
1005
0
  0
LINE
  5
36B
330
21D
100
AcDbEntity
  8
02___PRT_ALL_AXES
  6
Continuous
 62
     7
100
AcDbLine
 10
8.671727456299999
 20
1518.1489856144
 30
0.0
 11
113.3846935158
 21
1518.1489856144
 31
0.0
1001
ACAD
1000
RTMaterial
1005
0
  0
LINE
  5
36C
330
21D
100
AcDbEntity
  8
0
  6
Continuous
 62
     7
100
AcDbLine
 10
114.9717274563
 20
1518.1489856144
 30
0.0
 11
272.3717274563
 21
1518.1489856144
 31
0.0
1001
ACAD
1000
RTMaterial
1005
0
  0
LINE
  5
36D
330
21D
100
AcDbEntity
  8
02___PRT_ALL_AXES
  6
Continuous
 62
     7
100
AcDbLine
 10
274.9587595317
 20
1518.1489856144
 30
0.0
 11
379.6717274563
 21
1518.1489856144
 31
0.0
1001
ACAD
1000
RTMaterial
1005
0
  0
LWPOLYLINE
  5
36E
330
21D
100
AcDbEntity
  8
0
  6
Continuous
 62
     7
100
AcDbPolyline
 90
       10
 70
     0
 43
0.0
 10
120.3657202899
 20
1517.6877427318
 10
120.0196214086
 20
1517.6879164449
 10
119.270490866
 20
1517.6896080632
 10
118.5446335766
 20
1517.6928915249
 10
117.8504650007
 20
1517.6977744652
 10
117.1953932703
 20
1517.7041031328
 10
116.585857139
 20
1517.7116510822
 10
116.0269381286
 20
1517.7203644636
 10
115.5227314509
 20
1517.7300325273
 10
115.0763362689
 20
1517.7403287723
  0
LWPOLYLINE
  5
36F
330
21D
100
AcDbEntity
  8
0
  6
Continuous
 62
     7
100
AcDbPolyline
 90
        6
 70
     0
 43
0.0
 10
115.0763362689
 20
1517.7403287723
 10
114.6890637191
 20
1517.751133989
 10
114.3608678334
 20
1517.7622894596
 10
114.0910784608
 20
1517.7734931355
 10
113.8793282236
 20
1517.7843848624
 10
113.724907845
 20
1517.7945278608
  0
LINE
  5
370
330
21D
100
AcDbEntity
  8
0
  6
Continuous
 62
     9
100
AcDbLine
 10
113.598087623
 20
1517.8063986909
 30
0.0
 11
113.4381220519
 21
1517.8190119384
 31
0.0
1001
ACAD
1000
RTMaterial
1005
0
  0
LINE
  5
371
330
21D
100
AcDbEntity
  8
0
  6
Continuous
 62
     7
100
AcDbLine
 10
602.5635985812
 20
1502.7536575269
 30
0.0
 11
601.1431029180999
 21
1475.6489856144
 31
0.0
1001
ACAD
1000
RTMaterial
1005
0
  0
LINE
  5
372
330
21D
100
AcDbEntity
  8
0
  6
Continuous
 62
     9
100
AcDbLine
 10
604.5608576507
 20
1502.7536575269
 30
0.0
 11
603.1403619876
 21
1475.6489856144
 31
0.0
1001
ACAD
1000
RTMaterial
1005
0
  0
LINE
  5
373
330
21D
100
AcDbEntity
  8
0
  6
Continuous
 62
     7
100
AcDbLine
 10
601.1431029180999
 20
1475.648985599
 30
0.0
 11
601.1431029180999
 21
1175.6489856144
 31
0.0
1001
ACAD
1000
RTMaterial
1005
0
  0
LINE
  5
374
330
21D
100
AcDbEntity
  8
0
  6
Continuous
 62
     9
100
AcDbLine
 10
604.5608576507
 20
1502.7536575269
 30
0.0
 11
604.5608576507
 21
1504.6489856144
 31
0.0
1001
ACAD
1000
RTMaterial
1005
0
  0
LINE
  5
375
330
21D
100
AcDbEntity
  8
0
  6
Continuous
 62
     9
100
AcDbLine
 10
684.2093622016999
 20
1502.7536575269
 30
0.0
 11
684.2093622016999
 21
1504.6489856144
 31
0.0
1001
ACAD
1000
RTMaterial
1005
0
  0
LINE
  5
376
330
21D
100
AcDbEntity
  8
0
  6
Continuous
 62
     9
100
AcDbLine
 10
687.0186914513999
 20
1503.6751809217
 30
0.0
 11
687.0186983088999
 21
1504.6489856144
 31
0.0
1001
ACAD
1000
RTMaterial
1005
0
  0
LWPOLYLINE
  5
377
330
21D
100
AcDbEntity
  8
0
  6
Continuous
 62
     7
100
AcDbPolyline
 90
        8
 70
     0
 43
0.0
 10
855.1822111413999
 20
1116.8677513602
 10
868.7535715685999
 20
1117.9969543182
 10
883.2434132952
 20
1121.6239122196
 10
896.9363535222999
 20
1127.6649571585
 10
909.4145547953999
 20
1135.9435877786
 10
920.3012789222
 20
1146.208546654
 10
929.2718355097999
 20
1158.1432976886
 10
935.6187721593
 20
1170.275700068
  0
LWPOLYLINE
  5
378
330
21D
100
AcDbEntity
  8
0
  6
Continuous
 62
     7
100
AcDbPolyline
 90
        4
 70
     0
 43
0.0
 10
846.5020882407999
 20
1117.0482725447
 10
848.9367267486999
 20
1116.9514467026
 10
852.6477402816999
 20
1116.8729474691
 10
855.1820139525998
 20
1116.8672781407
  0
LINE
  5
379
330
21D
100
AcDbEntity
  8
0
  6
Continuous
 62
     9
100
AcDbLine
 10
684.7608821676999
 20
1497.5062955667
 30
0.0
 11
684.2093622016999
 21
1502.7536575269
 31
0.0
1001
ACAD
1000
RTMaterial
1005
0
  0
LINE
  5
37A
330
21D
100
AcDbEntity
  8
0
  6
Continuous
 62
     7
100
AcDbLine
 10
686.7499259584
 20
1497.6106805807
 30
0.0
 11
686.1984059924
 21
1502.858042541
 31
0.0
1001
ACAD
1000
RTMaterial
1005
0
  0
LINE
  5
37B
330
21D
100
AcDbEntity
  8
0
  6
Continuous
 62
     9
100
AcDbLine
 10
687.1929278878
 20
1502.9363940559
 30
0.0
 11
687.5395919138
 21
1499.6381061695
 31
0.0
1001
ACAD
1000
RTMaterial
1005
0
  0
LWPOLYLINE
  5
383
330
21D
100
AcDbEntity
  8
0
  6
Continuous
 62
     7
100
AcDbPolyline
 90
        8
 70
     0
 43
0.0
 10
767.9323484228
 20
1175.6489856144
 10
771.6540164366
 20
1166.1740360634
 10
779.8663067300999
 20
1152.6631834584
 10
790.3953248921001
 20
1140.8151340546
 10
802.8899665963001
 20
1131.0390838721
 10
816.9276046514999
 20
1123.6684089608
 10
832.0266868975998
 20
1118.9456625916
 10
846.5020710921001
 20
1117.0489013477
  0
LINE
  5
384
330
21D
100
AcDbEntity
  8
0
  6
Continuous
 62
     7
100
AcDbLine
 10
601.1431029180999
 20
1175.6489856144
 30
0.0
 11
1031.1430919927
 21
1175.6489856144
 31
0.0
1001
ACAD
1000
RTMaterial
1005
0
  0
LINE
  5
385
330
21D
100
AcDbEntity
  8
0
  6
Continuous
 62
     7
100
AcDbLine
 10
725.4714230135
 20
1517.6876044961
 30
0.0
 11
725.4706273421001
 21
1517.6916447305
 31
0.0
1001
ACAD
1000
RTMaterial
1005
0
  0
LINE
  5
386
330
21D
100
AcDbEntity
  8
0
  6
Continuous
 62
     9
100
AcDbLine
 10
802.0014843335001
 20
1478.6127295304
 30
0.0
 11
802.1568075705001
 21
1475.6489856144
 31
0.0
1001
ACAD
1000
RTMaterial
1005
0
  0
LINE
  5
387
330
21D
100
AcDbEntity
  8
0
  6
Continuous
 62
     9
100
AcDbLine
 10
809.8525617932999
 20
1481.1928225832
 30
0.0
 11
809.8180875495
 21
1480.2195939482
 31
0.0
1001
ACAD
1000
RTMaterial
1005
0
  0
LINE
  5
388
330
21D
100
AcDbEntity
  8
0
  6
Continuous
 62
     7
100
AcDbLine
 10
811.854860132
 20
1481.1489856144
 30
0.0
 11
812.1431029181
 21
1475.6489856144
 31
0.0
1001
ACAD
1000
RTMaterial
1005
0
  0
LINE
  5
389
330
21D
100
AcDbEntity
  8
7_ALL_FEATURES
  6
Continuous
 62
     7
100
AcDbLine
 10
1084.4581494189
 20
1480.9231771727
 30
0.0
 11
1084.8930218634
 21
1481.1313564717
 31
0.0
1001
ACAD
1000
RTMaterial
1005
0
  0
LINE
  5
38A
330
21D
100
AcDbEntity
  8
7_ALL_FEATURES
  6
Continuous
 62
     7
100
AcDbLine
 10
887.2841645027
 20
1481.1489856144
 30
0.0
 11
887.2159569789998
 21
1480.7621615256
 31
0.0
1001
ACAD
1000
RTMaterial
1005
0
  0
LINE
  5
38B
330
21D
100
AcDbEntity
  8
7_ALL_FEATURES
  6
Continuous
 62
     7
100
AcDbLine
 10
865.0020413335001
 20
1481.1489856144
 30
0.0
 11
865.0702488571999
 21
1480.7621615256
 31
0.0
1001
ACAD
1000
RTMaterial
1005
0
  0
LINE
  5
38F
330
21D
100
AcDbEntity
  8
7_ALL_FEATURES
  6
Continuous
 62
     9
100
AcDbLine
 10
1000.695157733
 20
1510.7168151375
 30
0.0
 11
1000.695157733
 21
1511.1916172281
 31
0.0
1001
ACAD
1000
RTMaterial
1005
0
  0
LWPOLYLINE
  5
390
330
21D
100
AcDbEntity
  8
0
  6
Continuous
 62
     7
100
AcDbPolyline
 90
        4
 70
     0
 43
0.0
 10
935.6187033036999
 20
1170.2753827476
 10
936.3860345802001
 20
1172.0834708179
 10
937.6396650505
 20
1175.0985905102
 10
937.8636981536999
 20
1175.6489856144
  0
LWPOLYLINE
  5
391
330
21D
100
AcDbEntity
  8
7_ALL_FEATURES
  6
Continuous
 62
     7
100
AcDbPolyline
 90
        4
 70
     0
 43
0.0
 10
1123.235688149
 20
1475.6489856144
 10
1123.7411496273
 20
1476.4018594913
 10
1128.3567017749
 20
1481.0869109347
 10
1128.4573324966
 20
1481.1489856144
  0
LWPOLYLINE
  5
392
330
21D
100
AcDbEntity
  8
7_ALL_FEATURES
  6
Continuous
 62
     7
100
AcDbPolyline
 90
        3
 70
     0
 43
0.0
 10
1084.1546347064
 20
1480.414410618
 10
1084.2198594909
 20
1480.6150383562
 10
1084.4581494189
 20
1480.9231771727
  0
LINE
  5
393
330
21D
100
AcDbEntity
  8
7_ALL_FEATURES
  6
Continuous
 62
     7
100
AcDbLine
 10
1084.1555696113
 20
1480.4196877451
 30
0.0
 11
1084.0748953944
 21
1479.9621615256
 31
0.0
1001
ACAD
1000
RTMaterial
1005
0
  0
LINE
  5
394
330
21D
100
AcDbEntity
  8
0
  6
Continuous
 62
     7
100
AcDbLine
 10
601.1431029180999
 20
1475.6489856144
 30
0.0
 11
1179.2020748203
 21
1475.6489856144
 31
0.0
1001
ACAD
1000
RTMaterial
1005
0
  0
LINE
  5
395
330
21D
100
AcDbEntity
  8
02___PRT_ALL_AXES
  6
Continuous
 62
     7
100
AcDbLine
 10
872.1431029180999
 20
1476.4489856144
 30
0.0
 11
880.1430560492999
 21
1476.4489856144
 31
0.0
1001
ACAD
1000
RTMaterial
1005
0
  0
LINE
  5
396
330
21D
100
AcDbEntity
  8
02___PRT_ALL_AXES
  6
Continuous
 62
     9
100
AcDbLine
 10
1064.4213119338
 20
1476.8339592446
 30
0.0
 11
1081.8648939024
 21
1476.8339592446
 31
0.0
1001
ACAD
1000
RTMaterial
1005
0
  0
LINE
  5
397
330
21D
100
AcDbEntity
  8
02___PRT_ALL_AXES
  6
Continuous
 62
     9
100
AcDbLine
 10
867.4213119338
 20
1477.6339592446
 30
0.0
 11
884.8648939024
 21
1477.6339592446
 31
0.0
1001
ACAD
1000
RTMaterial
1005
0
  0
LINE
  5
398
330
21D
100
AcDbEntity
  8
02___PRT_ALL_AXES
  6
Continuous
 62
     7
100
AcDbLine
 10
1062.3931029181
 20
1479.5489856144
 30
0.0
 11
1083.8931029181
 21
1479.5489856144
 31
0.0
1001
ACAD
1000
RTMaterial
1005
0
  0
LINE
  5
399
330
21D
100
AcDbEntity
  8
7_ALL_FEATURES
  6
Continuous
 62
     9
100
AcDbLine
 10
1084.0748953944
 20
1479.9621615256
 30
0.0
 11
1062.2113104417
 21
1479.9621615256
 31
0.0
1001
ACAD
1000
RTMaterial
1005
0
  0
LINE
  5
39A
330
21D
100
AcDbEntity
  8
7_ALL_FEATURES
  6
Continuous
 62
     9
100
AcDbLine
 10
1084.0951042999
 20
1480.3226462656
 30
0.0
 11
1083.5242357524
 21
1480.3226337921
 31
0.0
1001
ACAD
1000
RTMaterial
1005
0
  0
LINE
  5
39B
330
21D
100
AcDbEntity
  8
7_ALL_FEATURES
  6
Continuous
 62
     9
100
AcDbLine
 10
1083.5242357524
 20
1480.3226337921
 30
0.0
 11
1068.3403577559
 21
1480.3226374067
 31
0.0
1001
ACAD
1000
RTMaterial
1005
0
  0
LINE
  5
39C
330
21D
100
AcDbEntity
  8
7_ALL_FEATURES
  6
Continuous
 62
     7
100
AcDbLine
 10
881.6931029180999
 20
1480.3489856144
 30
0.0
 11
870.5931029181
 21
1480.3489856144
 31
0.0
1001
ACAD
1000
RTMaterial
1005
0
  0
LINE
  5
39D
330
21D
100
AcDbEntity
  8
02___PRT_ALL_AXES
  6
Continuous
 62
     7
100
AcDbLine
 10
865.3931029181
 20
1480.3489856144
 30
0.0
 11
886.8931029181
 21
1480.3489856144
 31
0.0
1001
ACAD
1000
RTMaterial
1005
0
  0
LINE
  5
39E
330
21D
100
AcDbEntity
  8
7_ALL_FEATURES
  6
Continuous
 62
     9
100
AcDbLine
 10
885.3119985089
 20
1480.6156609719
 30
0.0
 11
866.9742404502001
 21
1480.6156576565
 31
0.0
1001
ACAD
1000
RTMaterial
1005
0
  0
LINE
  5
39F
330
21D
100
AcDbEntity
  8
7_ALL_FEATURES
  6
Continuous
 62
     9
100
AcDbLine
 10
887.2159569789998
 20
1480.7621615256
 30
0.0
 11
886.3272037111
 21
1480.7621615256
 31
0.0
1001
ACAD
1000
RTMaterial
1005
0
  0
LINE
  5
3A0
330
21D
100
AcDbEntity
  8
7_ALL_FEATURES
  6
Continuous
 62
     9
100
AcDbLine
 10
865.9589915836999
 20
1480.7621615256
 30
0.0
 11
865.0702488571999
 21
1480.7621615256
 31
0.0
1001
ACAD
1000
RTMaterial
1005
0
  0
LINE
  5
3A1
330
21D
100
AcDbEntity
  8
7_ALL_FEATURES
  6
Continuous
 62
     7
100
AcDbLine
 10
706.1431029181
 20
1481.1489856144
 30
0.0
 11
1189.1105739582
 21
1481.1489856144
 31
0.0
1001
ACAD
1000
RTMaterial
1005
0
  0
LINE
  5
3A2
330
21D
100
AcDbEntity
  8
7_ALL_FEATURES
  6
Continuous
 62
     7
100
AcDbLine
 10
901.5487863567001
 20
1481.1489856144
 30
0.0
 11
1006.4950381392
 21
1475.6489856144
 31
0.0
1001
ACAD
1000
RTMaterial
1005
0
  0
LINE
  5
3A3
330
21D
100
AcDbEntity
  8
0
  6
Continuous
 62
     7
100
AcDbLine
 10
1031.1431029181
 20
1175.6489856144
 30
0.0
 11
1184.5105319164
 21
1466.8529647253
 31
0.0
1001
ACAD
1000
RTMaterial
1005
0
  0
LINE
  5
3A4
330
21D
100
AcDbEntity
  8
7_ALL_FEATURES
  6
Continuous
 62
     7
100
AcDbLine
 10
689.6431029181
 20
1499.6489856144
 30
0.0
 11
687.6431029181
 21
1499.6489856144
 31
0.0
1001
ACAD
1000
RTMaterial
1005
0
  0
LINE
  5
3A5
330
21D
100
AcDbEntity
  8
0
  6
Continuous
 62
     9
100
AcDbLine
 10
604.5608576507
 20
1502.7536575269
 30
0.0
 11
684.2093622016999
 21
1502.7536575269
 31
0.0
1001
ACAD
1000
RTMaterial
1005
0
  0
LINE
  5
3A6
330
21D
100
AcDbEntity
  8
0
  6
Continuous
 62
     9
100
AcDbLine
 10
688.1042025119
 20
1503.6751710385
 30
0.0
 11
687.0186919517
 21
1503.6751809217
 31
0.0
1001
ACAD
1000
RTMaterial
1005
0
  0
LINE
  5
3A7
330
21D
100
AcDbEntity
  8
0
  6
Continuous
 62
     7
100
AcDbLine
 10
604.5608576507
 20
1504.6489856144
 30
0.0
 11
688.3337107527999
 21
1504.6489856144
 31
0.0
1001
ACAD
1000
RTMaterial
1005
0
  0
LINE
  5
3A8
330
21D
100
AcDbEntity
  8
0
  6
Continuous
 62
     7
100
AcDbLine
 10
804.9652977500999
 20
1515.9575376578
 30
0.0
 11
725.470627487
 21
1517.6916439986
 31
0.0
1001
ACAD
1000
RTMaterial
1005
0
  0
LINE
  5
3A9
330
21D
100
AcDbEntity
  8
7_ALL_FEATURES
  6
Continuous
 62
     9
100
AcDbLine
 10
719.362868191
 20
1515.8196431411
 30
0.0
 11
706.5606283703999
 21
1516.1437021169
 31
0.0
1001
ACAD
1000
RTMaterial
1005
0
  0
LINE
  5
3AA
330
21D
100
AcDbEntity
  8
7_ALL_FEATURES
  6
Continuous
 62
     9
100
AcDbLine
 10
726.6112375161
 20
1515.6368250434
 30
0.0
 11
719.362868191
 21
1515.8196431411
 31
0.0
1001
ACAD
1000
RTMaterial
1005
0
  0
LINE
  5
3AB
330
21D
100
AcDbEntity
  8
7_ALL_FEATURES
  6
Continuous
 62
     7
100
AcDbLine
 10
719.4133852769
 20
1517.8190050453
 30
0.0
 11
706.6112375161
 21
1518.143061693
 31
0.0
1001
ACAD
1000
RTMaterial
1005
0
  0
LINE
  5
3AC
330
21D
100
AcDbEntity
  8
7_ALL_FEATURES
  6
Continuous
 62
     7
100
AcDbLine
 10
726.6616682597999
 20
1517.6361890204
 30
0.0
 11
719.4133852769
 21
1517.8190050453
 31
0.0
1001
ACAD
1000
RTMaterial
1005
0
  0
LWPOLYLINE
  5
3AD
330
21D
100
AcDbEntity
  8
0
  6
Continuous
 62
     7
100
AcDbPolyline
 90
        3
 70
     0
 43
0.0
 10
1000.695157733
 20
1511.1916172281
 10
898.9724289521999
 20
1513.7566100785
 10
804.9652977500999
 20
1515.9575376578
  0
LWPOLYLINE
  5
3AE
330
21D
100
AcDbEntity
  8
0
  6
Continuous
 62
     7
100
AcDbPolyline
 90
        4
 70
     0
 43
0.0
 10
1185.9688642046
 20
1506.0228172708
 10
1124.632262529
 20
1507.8040509705
 10
1062.1319510508
 20
1509.5477516186
 10
1000.695157733
 20
1511.1916172281
  0
LWPOLYLINE
  5
3AF
330
21D
100
AcDbEntity
  8
0
  6
Continuous
 62
     7
100
AcDbPolyline
 90
        8
 70
     0
 43
0.0
 10
1184.509834652
 20
1466.8533306671
 10
1184.8915629694
 20
1467.7471975224
 10
1185.2007665244
 20
1469.6041147889
 10
1184.9184850796
 20
1471.4682330796
 10
1184.0713042736
 20
1473.1532202704
 10
1182.742585832
 20
1474.4922246366
 10
1181.0656712555
 20
1475.3518784035
 10
1179.2010238075
 20
1475.6489856144
  0
LINE
  5
3B0
330
21D
100
AcDbEntity
  8
7_ALL_FEATURES
  6
Continuous
 62
     7
100
AcDbLine
 10
1062.0020413335
 20
1481.1489856144
 30
0.0
 11
1062.2113104417
 21
1479.9621615256
 31
0.0
1001
ACAD
1000
RTMaterial
1005
0
  0
LINE
  5
3B1
330
21D
100
AcDbEntity
  8
7_ALL_FEATURES
  6
Continuous
 62
     7
100
AcDbLine
 10
1189.1112375161
 20
1481.1489856144
 30
0.0
 11
1187.9068973003
 21
1504.1291658904
 31
0.0
1001
ACAD
1000
RTMaterial
1005
0
  0
LINE
  5
3B2
330
21D
100
AcDbEntity
  8
7_ALL_FEATURES
  6
Continuous
 62
     9
100
AcDbLine
 10
1186.558664252
 20
1481.1489856144
 30
0.0
 11
1185.3679210777
 21
1504.1920148872
 31
0.0
1001
ACAD
1000
RTMaterial
1005
0
  0
ARC
  5
3B3
330
21D
100
AcDbEntity
  8
7_ALL_FEATURES
  6
Continuous
 62
     7
100
AcDbCircle
 10
-22998.915519088
 20
920.5575934603
 30
0.0
 40
23380.5919282811
100
AcDbArc
 50
359.3646276714
 51
0.0362587962
1001
ACAD
1000
RTMaterial
1005
0
  0
ARC
  5
3B4
330
21D
100
AcDbEntity
  8
7_ALL_FEATURES
  6
Continuous
 62
     9
100
AcDbCircle
 10
-22883.0331166107
 20
918.8544659944
 30
0.0
 40
23262.7113133322
100
AcDbArc
 50
359.365558933
 51
0.0405131059
1001
ACAD
1000
RTMaterial
1005
0
  0
ARC
  5
3B5
330
21D
100
AcDbEntity
  8
7_ALL_FEATURES
  6
Continuous
 62
     7
100
AcDbCircle
 10
193.1694073123
 20
661.2697542429
 30
0.0
 40
188.5023201441
100
AcDbArc
 50
359.1959456307
 51
359.9999950516
1001
ACAD
1000
RTMaterial
1005
0
  0
ARC
  5
3B6
330
21D
100
AcDbEntity
  8
7_ALL_FEATURES
  6
Continuous
 62
     7
100
AcDbCircle
 10
193.1717274563
 20
661.2697379628
 30
0.0
 40
188.5
100
AcDbArc
 50
279.5940682269
 51
359.1959406823
1001
ACAD
1000
RTMaterial
1005
0
  0
ARC
  5
3B7
330
21D
100
AcDbEntity
  8
0
  6
Continuous
 62
     9
100
AcDbCircle
 10
-405.4530623386
 20
955.778863043
 30
0.0
 40
679.0992665423
100
AcDbArc
 50
359.5130633523
 51
359.9615742482
1001
ACAD
1000
RTMaterial
1005
0
  0
ARC
  5
3B8
330
21D
100
AcDbEntity
  8
0
  6
Continuous
 62
     9
100
AcDbCircle
 10
55.66989370439999
 20
1210.9324866786
 30
0.0
 40
151.4236312053
100
AcDbArc
 50
269.8258483999
 51
270.0006938564
1001
ACAD
1000
RTMaterial
1005
0
  0
ARC
  5
3B9
330
21D
100
AcDbEntity
  8
0
  6
Continuous
 62
     9
100
AcDbCircle
 10
81.6735817926
 20
1210.8964842682
 30
0.0
 40
151.3876287951
100
AcDbArc
 50
269.9992981881
 51
270.1496012186
1001
ACAD
1000
RTMaterial
1005
0
  0
ARC
  5
3BA
330
21D
100
AcDbEntity
  8
0
  6
Continuous
 62
     9
100
AcDbCircle
 10
55.6619595851
 20
1209.2461937606
 30
0.0
 40
149.7373219873
100
AcDbArc
 50
269.4853395603
 51
269.8269230772
1001
ACAD
1000
RTMaterial
1005
0
  0
ARC
  5
3BB
330
21D
100
AcDbEntity
  8
0
  6
Continuous
 62
     9
100
AcDbCircle
 10
81.68127293599999
 20
1209.2308042901
 30
0.0
 40
149.7219344504
100
AcDbArc
 50
270.1483223073
 51
270.5293319446
1001
ACAD
1000
RTMaterial
1005
0
  0
ARC
  5
3BC
330
21D
100
AcDbEntity
  8
0
  6
Continuous
 62
     9
100
AcDbCircle
 10
55.5830325278
 20
1200.7424568928
 30
0.0
 40
141.2332192506
100
AcDbArc
 50
269.1552368806
 51
269.4863699605
1001
ACAD
1000
RTMaterial
1005
0
  0
ARC
  5
3BD
330
21D
100
AcDbEntity
  8
0
  6
Continuous
 62
     9
100
AcDbCircle
 10
81.7609178054
 20
1200.7367017114
 30
0.0
 40
141.2274585705
100
AcDbArc
 50
270.528857644
 51
270.8304394584
1001
ACAD
1000
RTMaterial
1005
0
  0
ARC
  5
3BE
330
21D
100
AcDbEntity
  8
0
  6
Continuous
 62
     9
100
AcDbCircle
 10
55.4053651441
 20
1188.741899316799
 30
0.0
 40
129.2313465938
100
AcDbArc
 50
268.7115241834
 51
269.1555558719
1001
ACAD
1000
RTMaterial
1005
0
  0
ARC
  5
3BF
330
21D
100
AcDbEntity
  8
0
  6
Continuous
 62
     9
100
AcDbCircle
 10
81.9790522111
 20
1186.5341074537
 30
0.0
 40
127.0231951633
100
AcDbArc
 50
270.824905931
 51
271.2706185203
1001
ACAD
1000
RTMaterial
1005
0
  0
ARC
  5
3C0
330
21D
100
AcDbEntity
  8
0
  6
Continuous
 62
     9
100
AcDbCircle
 10
55.01209649109999
 20
1170.8107874799
 30
0.0
 40
111.2959259121
100
AcDbArc
 50
268.3962522017
 51
268.7063584959
1001
ACAD
1000
RTMaterial
1005
0
  0
ARC
  5
3C1
330
21D
100
AcDbEntity
  8
0
  6
Continuous
 62
     9
100
AcDbCircle
 10
82.3676483496
 20
1169.3319237946
 30
0.0
 40
109.8166245537
100
AcDbArc
 50
271.2669412777
 51
271.6394804021
1001
ACAD
1000
RTMaterial
1005
0
  0
ARC
  5
3C2
330
21D
100
AcDbEntity
  8
0
  6
Continuous
 62
     9
100
AcDbCircle
 10
54.58271559679999
 20
1155.5547377384
 30
0.0
 40
96.03383510370001
100
AcDbArc
 50
267.8948802572
 51
268.3975893845
1001
ACAD
1000
RTMaterial
1005
0
  0
ARC
  5
3C3
330
21D
100
AcDbEntity
  8
0
  6
Continuous
 62
     9
100
AcDbCircle
 10
82.90432474920001
 20
1151.171889425
 30
0.0
 40
91.6486712286
100
AcDbArc
 50
271.6289210849
 51
272.1226941752
1001
ACAD
1000
RTMaterial
1005
0
  0
ARC
  5
3C4
330
21D
100
AcDbEntity
  8
0
  6
Continuous
 62
     9
100
AcDbCircle
 10
53.7854854759
 20
1133.5843510398
 30
0.0
 40
74.04899194470001
100
AcDbArc
 50
267.2928742691
 51
267.886874802
1001
ACAD
1000
RTMaterial
1005
0
  0
ARC
  5
3C5
330
21D
100
AcDbEntity
  8
0
  6
Continuous
 62
     9
100
AcDbCircle
 10
83.6494911263
 20
1131.4537641289
 30
0.0
 40
71.9164772972
100
AcDbArc
 50
272.1112974026
 51
272.6418639818
1001
ACAD
1000
RTMaterial
1005
0
  0
ARC
  5
3C6
330
21D
100
AcDbEntity
  8
0
  6
Continuous
 62
     9
100
AcDbCircle
 10
52.9548413106
 20
1115.6437451555
 30
0.0
 40
56.0891785021
100
AcDbArc
 50
266.7776651801
 51
267.274865175
1001
ACAD
1000
RTMaterial
1005
0
  0
ARC
  5
3C7
330
21D
100
AcDbEntity
  8
0
  6
Continuous
 62
     9
100
AcDbCircle
 10
84.46646219829998
 20
1114.0886085106
 30
0.0
 40
54.5321237971
100
AcDbArc
 50
272.6253761047
 51
273.2472926809
1001
ACAD
1000
RTMaterial
1005
0
  0
ARC
  5
3C8
330
21D
100
AcDbEntity
  8
0
  6
Continuous
 62
     9
100
AcDbCircle
 10
87.29517529799998
 20
1074.3471255928
 30
0.0
 40
14.6866111766
100
AcDbArc
 50
275.4742317397
 51
276.1953559092
1001
ACAD
1000
RTMaterial
1005
0
  0
ARC
  5
3C9
330
21D
100
AcDbEntity
  8
0
  6
Continuous
 62
     9
100
AcDbCircle
 10
120.405243173
 20
943.4869653686
 30
0.0
 40
7.029728712999999
100
AcDbArc
 50
179.9666410164
 51
187.647105715
1001
ACAD
1000
RTMaterial
1005
0
  0
ARC
  5
3CA
330
21D
100
AcDbEntity
  8
0
  6
Continuous
 62
     9
100
AcDbCircle
 10
120.3708802991
 20
943.4853565000999
 30
0.0
 40
6.995148183799999
100
AcDbArc
 50
188.6446308547
 51
220.6086604914
1001
ACAD
1000
RTMaterial
1005
0
  0
ARC
  5
3CB
330
21D
100
AcDbEntity
  8
0
  6
Continuous
 62
     9
100
AcDbCircle
 10
120.3646435448
 20
943.4811445483999
 30
0.0
 40
6.987671949099999
100
AcDbArc
 50
220.6157271516
 51
270.0088296676
1001
ACAD
1000
RTMaterial
1005
0
  0
ARC
  5
3CC
330
21D
100
AcDbEntity
  8
0
  6
Continuous
 62
     9
100
AcDbCircle
 10
120.2607701898
 20
943.4679570886999
 30
0.0
 40
6.883673773099999
100
AcDbArc
 50
187.6506953954
 51
188.6392073687
1001
ACAD
1000
RTMaterial
1005
0
  0
ARC
  5
3CD
330
21D
100
AcDbEntity
  8
0
  6
Continuous
 62
     7
100
AcDbCircle
 10
120.3963886149
 20
943.5093679989998
 30
0.0
 40
6.021486199199999
100
AcDbArc
 50
179.9334427203
 51
187.6358831194
1001
ACAD
1000
RTMaterial
1005
0
  0
ARC
  5
3CE
330
21D
100
AcDbEntity
  8
0
  6
Continuous
 62
     9
100
AcDbCircle
 10
17.0959759142
 20
1057.3975443198
 30
0.0
 40
2.003774053699999
100
AcDbArc
 50
90.1856824602
 51
179.8143175398
1001
ACAD
1000
RTMaterial
1005
0
  0
ARC
  5
3CF
330
21D
100
AcDbEntity
  8
7_ALL_FEATURES
  6
Continuous
 62
     7
100
AcDbCircle
 10
8.671727456299999
 20
972.3217927777
 30
0.0
 40
2.0
100
AcDbArc
 50
90.0
 51
180.0
1001
ACAD
1000
RTMaterial
1005
0
  0
ARC
  5
3D0
330
21D
100
AcDbEntity
  8
0
  6
Continuous
 62
     7
100
AcDbCircle
 10
-10.831408864
 20
940.3217927776999
 30
0.0
 40
0.5
100
AcDbArc
 50
180.0
 51
270.0
1001
ACAD
1000
RTMaterial
1005
0
  0
ARC
  5
3D1
330
21D
100
AcDbEntity
  8
0
  6
Continuous
 62
     7
100
AcDbCircle
 10
-10.831408864
 20
971.3217927777
 30
0.0
 40
0.5
100
AcDbArc
 50
90.0
 51
180.0
1001
ACAD
1000
RTMaterial
1005
0
  0
ARC
  5
3D2
330
21D
100
AcDbEntity
  8
7_ALL_FEATURES
  6
Continuous
 62
     7
100
AcDbCircle
 10
23387.2490292438
 20
920.5575414535001
 30
0.0
 40
23380.5819835591
100
AcDbArc
 50
179.9637410609
 51
180.6353724714
1001
ACAD
1000
RTMaterial
1005
0
  0
ARC
  5
3D3
330
21D
100
AcDbEntity
  8
7_ALL_FEATURES
  6
Continuous
 62
     9
100
AcDbCircle
 10
23271.1344101006
 20
918.8532109382
 30
0.0
 40
23262.4691528574
100
AcDbArc
 50
179.9594833811
 51
180.6344445803
1001
ACAD
1000
RTMaterial
1005
0
  0
ARC
  5
3D4
330
21D
100
AcDbEntity
  8
7_ALL_FEATURES
  6
Continuous
 62
     7
100
AcDbCircle
 10
195.1740476015
 20
661.2697542429
 30
0.0
 40
188.5023201452
100
AcDbArc
 50
180.0000049484
 51
180.8040543693
1001
ACAD
1000
RTMaterial
1005
0
  0
ARC
  5
3D5
330
21D
100
AcDbEntity
  8
7_ALL_FEATURES
  6
Continuous
 62
     7
100
AcDbCircle
 10
195.1717274563
 20
661.2697379628
 30
0.0
 40
188.5
100
AcDbArc
 50
180.8040593177
 51
260.4059317731
1001
ACAD
1000
RTMaterial
1005
0
  0
ARC
  5
3D6
330
21D
100
AcDbEntity
  8
7_ALL_FEATURES
  6
Continuous
 62
     7
100
AcDbCircle
 10
194.1717274563
 20
655.3536581797
 30
0.0
 40
182.5
100
AcDbArc
 50
260.4059317731
 51
279.5940682269
1001
ACAD
1000
RTMaterial
1005
0
  0
ARC
  5
3D7
330
21D
100
AcDbEntity
  8
7_ALL_FEATURES
  6
Continuous
 62
     9
100
AcDbCircle
 10
194.1717274563
 20
655.115543823
 30
0.0
 40
181.0575864352
100
AcDbArc
 50
260.3933732017
 51
279.6066267983
1001
ACAD
1000
RTMaterial
1005
0
  0
ARC
  5
3D8
330
21D
100
AcDbEntity
  8
7_ALL_FEATURES
  6
Continuous
 62
     9
100
AcDbCircle
 10
194.1717274563
 20
655.0689987291
 30
0.0
 40
179.0729675466
100
AcDbArc
 50
260.3934562990001
 51
279.606543701
1001
ACAD
1000
RTMaterial
1005
0
  0
ARC
  5
3D9
330
21D
100
AcDbEntity
  8
0
  6
Continuous
 62
     9
100
AcDbCircle
 10
1071.8179103367
 20
944.2710973227001
 30
0.0
 40
798.3287988669999
100
AcDbArc
 50
179.999836846
 51
180.1424601225
1001
ACAD
1000
RTMaterial
1005
0
  0
ARC
  5
3DA
330
21D
100
AcDbEntity
  8
0
  6
Continuous
 62
     7
100
AcDbCircle
 10
332.9857181049
 20
1045.2518535289
 30
0.0
 40
170.8249356486
100
AcDbArc
 50
213.4978140157
 51
214.4325047464
1001
ACAD
1000
RTMaterial
1005
0
  0
ARC
  5
3DB
330
21D
100
AcDbEntity
  8
0
  6
Continuous
 62
     9
100
AcDbCircle
 10
280.6698937042
 20
1210.932486624
 30
0.0
 40
151.4236311507
100
AcDbArc
 50
269.8258483999
 51
270.0006938564
1001
ACAD
1000
RTMaterial
1005
0
  0
ARC
  5
3DC
330
21D
100
AcDbEntity
  8
0
  6
Continuous
 62
     9
100
AcDbCircle
 10
331.6735817926
 20
1210.8964842683
 30
0.0
 40
151.3876287953
100
AcDbArc
 50
269.9992981881
 51
270.1496012186
1001
ACAD
1000
RTMaterial
1005
0
  0
ARC
  5
3DD
330
21D
100
AcDbEntity
  8
0
  6
Continuous
 62
     9
100
AcDbCircle
 10
280.6619595851
 20
1209.2461937607
 30
0.0
 40
149.7373219874
100
AcDbArc
 50
269.4853395603
 51
269.8269230772
1001
ACAD
1000
RTMaterial
1005
0
  0
ARC
  5
3DE
330
21D
100
AcDbEntity
  8
0
  6
Continuous
 62
     9
100
AcDbCircle
 10
331.681272936
 20
1209.2308042784
 30
0.0
 40
149.7219344387
100
AcDbArc
 50
270.1483223073
 51
270.5293319446
1001
ACAD
1000
RTMaterial
1005
0
  0
ARC
  5
3DF
330
21D
100
AcDbEntity
  8
0
  6
Continuous
 62
     9
100
AcDbCircle
 10
280.5830325276
 20
1200.7424568775
 30
0.0
 40
141.2332192353
100
AcDbArc
 50
269.1552368806
 51
269.4863699605
1001
ACAD
1000
RTMaterial
1005
0
  0
ARC
  5
3E0
330
21D
100
AcDbEntity
  8
0
  6
Continuous
 62
     9
100
AcDbCircle
 10
331.7609178055
 20
1200.7367017043
 30
0.0
 40
141.2274585634
100
AcDbArc
 50
270.528857644
 51
270.8304394584
1001
ACAD
1000
RTMaterial
1005
0
  0
ARC
  5
3E1
330
21D
100
AcDbEntity
  8
0
  6
Continuous
 62
     9
100
AcDbCircle
 10
280.4053651437
 20
1188.7418992946
 30
0.0
 40
129.2313465716
100
AcDbArc
 50
268.7115241833
 51
269.1555558719
1001
ACAD
1000
RTMaterial
1005
0
  0
ARC
  5
3E2
330
21D
100
AcDbEntity
  8
0
  6
Continuous
 62
     9
100
AcDbCircle
 10
331.9790522112
 20
1186.534107452
 30
0.0
 40
127.0231951616
100
AcDbArc
 50
270.824905931
 51
271.2706185203
1001
ACAD
1000
RTMaterial
1005
0
  0
ARC
  5
3E3
330
21D
100
AcDbEntity
  8
0
  6
Continuous
 62
     9
100
AcDbCircle
 10
280.0120964911
 20
1170.81078748
 30
0.0
 40
111.2959259122
100
AcDbArc
 50
268.3962522017
 51
268.7063584959
1001
ACAD
1000
RTMaterial
1005
0
  0
ARC
  5
3E4
330
21D
100
AcDbEntity
  8
0
  6
Continuous
 62
     9
100
AcDbCircle
 10
332.3676483508001
 20
1169.3319237466
 30
0.0
 40
109.8166245057
100
AcDbArc
 50
271.2669412776
 51
271.6394804022
1001
ACAD
1000
RTMaterial
1005
0
  0
ARC
  5
3E5
330
21D
100
AcDbEntity
  8
0
  6
Continuous
 62
     9
100
AcDbCircle
 10
279.5827155975
 20
1155.5547377599
 30
0.0
 40
96.03383512509999
100
AcDbArc
 50
267.8948802573
 51
268.3975893843999
1001
ACAD
1000
RTMaterial
1005
0
  0
ARC
  5
3E6
330
21D
100
AcDbEntity
  8
0
  6
Continuous
 62
     9
100
AcDbCircle
 10
332.9043247497001
 20
1151.1718894105
 30
0.0
 40
91.64867121410001
100
AcDbArc
 50
271.6289210848
 51
272.1226941752
1001
ACAD
1000
RTMaterial
1005
0
  0
ARC
  5
3E7
330
21D
100
AcDbEntity
  8
0
  6
Continuous
 62
     9
100
AcDbCircle
 10
278.7854854764
 20
1133.5843510522
 30
0.0
 40
74.0489919571
100
AcDbArc
 50
267.2928742691
 51
267.886874802
1001
ACAD
1000
RTMaterial
1005
0
  0
ARC
  5
3E8
330
21D
100
AcDbEntity
  8
0
  6
Continuous
 62
     9
100
AcDbCircle
 10
333.6494911266
 20
1131.453764121
 30
0.0
 40
71.91647728939999
100
AcDbArc
 50
272.1112974026
 51
272.6418639819
1001
ACAD
1000
RTMaterial
1005
0
  0
ARC
  5
3E9
330
21D
100
AcDbEntity
  8
0
  6
Continuous
 62
     9
100
AcDbCircle
 10
277.9548413105
 20
1115.643745154
 30
0.0
 40
56.0891785006
100
AcDbArc
 50
266.7776651801
 51
267.274865175
1001
ACAD
1000
RTMaterial
1005
0
  0
ARC
  5
3EA
330
21D
100
AcDbEntity
  8
0
  6
Continuous
 62
     9
100
AcDbCircle
 10
334.4664621992
 20
1114.0886084926
 30
0.0
 40
54.53212377909999
100
AcDbArc
 50
272.6253761046
 51
273.247292681
1001
ACAD
1000
RTMaterial
1005
0
  0
ARC
  5
3EB
330
21D
100
AcDbEntity
  8
0
  6
Continuous
 62
     9
100
AcDbCircle
 10
337.2951752986
 20
1074.3471255865
 30
0.0
 40
14.6866111703
100
AcDbArc
 50
275.4742317395
 51
276.1953559094
1001
ACAD
1000
RTMaterial
1005
0
  0
ARC
  5
3EC
330
21D
100
AcDbEntity
  8
0
  6
Continuous
 62
     9
100
AcDbCircle
 10
267.9596002775
 20
943.4990576645001
 30
0.0
 40
7.014113673099999
100
AcDbArc
 50
314.414301042
 51
327.5436349568
1001
ACAD
1000
RTMaterial
1005
0
  0
ARC
  5
3ED
330
21D
100
AcDbEntity
  8
0
  6
Continuous
 62
     9
100
AcDbCircle
 10
267.9742767374
 20
943.4824847974001
 30
0.0
 40
6.993667778899999
100
AcDbArc
 50
328.4681231415
 51
0.0702381857
1001
ACAD
1000
RTMaterial
1005
0
  0
ARC
  5
3EE
330
21D
100
AcDbEntity
  8
0
  6
Continuous
 62
     9
100
AcDbCircle
 10
267.9783820082
 20
943.4829035664998
 30
0.0
 40
6.989430914099999
100
AcDbArc
 50
269.9946922255
 51
314.3970007144
1001
ACAD
1000
RTMaterial
1005
0
  0
ARC
  5
3EF
330
21D
100
AcDbEntity
  8
0
  6
Continuous
 62
     9
100
AcDbCircle
 10
268.0535988714
 20
943.4350769969
 30
0.0
 40
6.900462849
100
AcDbArc
 50
327.5730439485
 51
328.4700275285
1001
ACAD
1000
RTMaterial
1005
0
  0
ARC
  5
3F0
330
21D
100
AcDbEntity
  8
0
  6
Continuous
 62
     7
100
AcDbCircle
 10
267.9628612675
 20
943.5159893000999
 30
0.0
 40
6.0094795246
100
AcDbArc
 50
313.8911099708
 51
328.4576846205
1001
ACAD
1000
RTMaterial
1005
0
  0
ARC
  5
3F1
330
21D
100
AcDbEntity
  8
0
  6
Continuous
 62
     7
100
AcDbCircle
 10
267.9681210252
 20
943.5072641032
 30
0.0
 40
6.000434307499999
100
AcDbArc
 50
328.5024156125
 51
0.0868800774
1001
ACAD
1000
RTMaterial
1005
0
  0
ARC
  5
3F2
330
21D
100
AcDbEntity
  8
0
  6
Continuous
 62
     7
100
AcDbCircle
 10
267.9801017524
 20
943.5021479387
 30
0.0
 40
5.987552639099999
100
AcDbArc
 50
269.976304536
 51
313.8640443266
1001
ACAD
1000
RTMaterial
1005
0
  0
ARC
  5
3F3
330
21D
100
AcDbEntity
  8
0
  6
Continuous
 62
     9
100
AcDbCircle
 10
370.2474795962999
 20
1057.3975475694
 30
0.0
 40
2.003772259199999
100
AcDbArc
 50
0.1855895965
 51
89.8143343341
1001
ACAD
1000
RTMaterial
1005
0
  0
ARC
  5
3F4
330
21D
100
AcDbEntity
  8
7_ALL_FEATURES
  6
Continuous
 62
     7
100
AcDbCircle
 10
379.6717274563
 20
972.3217927777
 30
0.0
 40
2.0
100
AcDbArc
 50
0.0
 51
90.0
1001
ACAD
1000
RTMaterial
1005
0
  0
ARC
  5
3F5
330
21D
100
AcDbEntity
  8
7_ALL_FEATURES
  6
Continuous
 62
     7
100
AcDbCircle
 10
381.6717274563
 20
941.4217927777
 30
0.0
 40
0.5
100
AcDbArc
 50
270.0
 51
360.0
1001
ACAD
1000
RTMaterial
1005
0
  0
ARC
  5
3F6
330
21D
100
AcDbEntity
  8
7_ALL_FEATURES
  6
Continuous
 62
     7
100
AcDbCircle
 10
381.6717274563
 20
970.2217927776999
 30
0.0
 40
0.5
100
AcDbArc
 50
0.0
 51
90.0
1001
ACAD
1000
RTMaterial
1005
0
  0
ARC
  5
3F7
330
21D
100
AcDbEntity
  8
0
  6
Continuous
 62
     9
100
AcDbCircle
 10
18.8111022531
 20
1496.1449812778
 30
0.0
 40
15.6283927907
100
AcDbArc
 50
267.2230328174
 51
270.0422315424
1001
ACAD
1000
RTMaterial
1005
0
  0
ARC
  5
3F8
330
21D
100
AcDbEntity
  8
7_ALL_FEATURES
  6
Continuous
 62
     7
100
AcDbCircle
 10
8.671727456299999
 20
1516.1489856144
 30
0.0
 40
2.0
100
AcDbArc
 50
90.0
 51
180.0000000002
1001
ACAD
1000
RTMaterial
1005
0
  0
ARC
  5
3F9
330
21D
100
AcDbEntity
  8
7_ALL_FEATURES
  6
Continuous
 62
     9
100
AcDbCircle
 10
10.1017530705
 20
1508.716995601
 30
0.0
 40
1.999819064799999
100
AcDbArc
 50
90.2962558942
 51
177.0262605951
1001
ACAD
1000
RTMaterial
1005
0
  0
ARC
  5
3FA
330
21D
100
AcDbEntity
  8
7_ALL_FEATURES
  6
Continuous
 62
     9
100
AcDbCircle
 10
10.1341804983
 20
1508.6536818722
 30
0.0
 40
1.999798722299999
100
AcDbArc
 50
90.3110814399
 51
176.9882196192
1001
ACAD
1000
RTMaterial
1005
0
  0
ARC
  5
3FB
330
21D
100
AcDbEntity
  8
7_ALL_FEATURES
  6
Continuous
 62
     9
100
AcDbCircle
 10
8.671407291199999
 20
1516.1433818555
 30
0.0
 40
1.9996798605
100
AcDbArc
 50
89.9908264753
 51
179.9908237174
1001
ACAD
1000
RTMaterial
1005
0
  0
ARC
  5
3FC
330
21D
100
AcDbEntity
  8
7_ALL_FEATURES
  6
Continuous
 62
     9
100
AcDbCircle
 10
8.670789455399999
 20
1515.6371270187
 30
0.0
 40
1.9990620219
100
AcDbArc
 50
89.9918576189
 51
180.0086550138999
1001
ACAD
1000
RTMaterial
1005
0
  0
ARC
  5
3FD
330
21D
100
AcDbEntity
  8
7_ALL_FEATURES
  6
Continuous
 62
     9
100
AcDbCircle
 10
8.6707884092
 20
1515.8199431253
 30
0.0
 40
1.999060975399999
100
AcDbArc
 50
89.97308576569999
 51
180.0085979516
1001
ACAD
1000
RTMaterial
1005
0
  0
ARC
  5
3FE
330
21D
100
AcDbEntity
  8
0
  6
Continuous
 62
     9
100
AcDbCircle
 10
15.7663190336
 20
1479.3316015954
 30
0.0
 40
1.915722369499999
100
AcDbArc
 50
131.7072970749
 51
139.2475026997
1001
ACAD
1000
RTMaterial
1005
0
  0
ARC
  5
3FF
330
21D
100
AcDbEntity
  8
0
  6
Continuous
 62
     7
100
AcDbCircle
 10
-10.831408864
 20
1515.1489856144
 30
0.0
 40
0.5
100
AcDbArc
 50
90.0
 51
180.0
1001
ACAD
1000
RTMaterial
1005
0
  0
ARC
  5
400
330
21D
100
AcDbEntity
  8
0
  6
Continuous
 62
     7
100
AcDbCircle
 10
-10.831408864
 20
1484.1489856144
 30
0.0
 40
0.5
100
AcDbArc
 50
180.0
 51
270.0
1001
ACAD
1000
RTMaterial
1005
0
  0
ARC
  5
401
330
21D
100
AcDbEntity
  8
0
  6
Continuous
 62
     9
100
AcDbCircle
 10
21.5679488588
 20
1412.5949399428
 30
0.0
 40
67.9580307967
100
AcDbArc
 50
85.89460174800001
 51
86.13579964610002
1001
ACAD
1000
RTMaterial
1005
0
  0
ARC
  5
402
330
21D
100
AcDbEntity
  8
02___PRT_ALL_AXES
  6
Continuous
 62
     7
100
AcDbCircle
 10
30.3386528657
 20
1481.1599697926
 30
0.0
 40
4.0
100
AcDbArc
 50
191.6975863634
 51
241.82416025
1001
ACAD
1000
RTMaterial
1005
0
  0
ARC
  5
403
330
21D
100
AcDbEntity
  8
7_ALL_FEATURES
  6
Continuous
 62
     7
100
AcDbCircle
 10
25.2646273558
 20
1480.1489856144
 30
0.0
 40
1.0
100
AcDbArc
 50
27.8181415115
 51
69.2735712298
1001
ACAD
1000
RTMaterial
1005
0
  0
ARC
  5
404
330
21D
100
AcDbEntity
  8
7_ALL_FEATURES
  6
Continuous
 62
     7
100
AcDbCircle
 10
26.5912772719
 20
1480.8489856144
 30
0.0
 40
0.5
100
AcDbArc
 50
207.8181392846
 51
269.9999999933
1001
ACAD
1000
RTMaterial
1005
0
  0
ARC
  5
405
330
21D
100
AcDbEntity
  8
02___PRT_ALL_AXES
  6
Continuous
 62
     7
100
AcDbCircle
 10
33.17172745630001
 20
1486.4489856144
 30
0.0
 40
10.0
100
AcDbArc
 50
241.82416025
 51
270.0
1001
ACAD
1000
RTMaterial
1005
0
  0
ARC
  5
406
330
21D
100
AcDbEntity
  8
02___PRT_ALL_AXES
  6
Continuous
 62
     7
100
AcDbCircle
 10
48.3386528657
 20
1480.3599697926
 30
0.0
 40
4.0
100
AcDbArc
 50
191.6975863634
 51
241.82416025
1001
ACAD
1000
RTMaterial
1005
0
  0
ARC
  5
407
330
21D
100
AcDbEntity
  8
7_ALL_FEATURES
  6
Continuous
 62
     7
100
AcDbCircle
 10
43.1915662406
 20
1480.1489856144
 30
0.0
 40
1.0
100
AcDbArc
 50
10.0000010802
 51
90.0
1001
ACAD
1000
RTMaterial
1005
0
  0
ARC
  5
408
330
21D
100
AcDbEntity
  8
7_ALL_FEATURES
  6
Continuous
 62
     7
100
AcDbCircle
 10
44.73233885649999
 20
1480.0489856144
 30
0.0
 40
0.5
100
AcDbArc
 50
190.0000034567
 51
269.9999999921
1001
ACAD
1000
RTMaterial
1005
0
  0
ARC
  5
409
330
21D
100
AcDbEntity
  8
02___PRT_ALL_AXES
  6
Continuous
 62
     7
100
AcDbCircle
 10
41.1717274563
 20
1486.4489856144
 30
0.0
 40
10.0
100
AcDbArc
 50
270.0
 51
296.1175677679
1001
ACAD
1000
RTMaterial
1005
0
  0
ARC
  5
40A
330
21D
100
AcDbEntity
  8
02___PRT_ALL_AXES
  6
Continuous
 62
     7
100
AcDbCircle
 10
51.1717274563
 20
1485.6489856144
 30
0.0
 40
10.0
100
AcDbArc
 50
241.82416025
 51
270.0
1001
ACAD
1000
RTMaterial
1005
0
  0
ARC
  5
40B
330
21D
100
AcDbEntity
  8
02___PRT_ALL_AXES
  6
Continuous
 62
     7
100
AcDbCircle
 10
59.17172745630001
 20
1485.6489856144
 30
0.0
 40
10.0
100
AcDbArc
 50
270.0
 51
298.17583975
1001
ACAD
1000
RTMaterial
1005
0
  0
ARC
  5
40C
330
21D
100
AcDbEntity
  8
02___PRT_ALL_AXES
  6
Continuous
 62
     7
100
AcDbCircle
 10
62.00480204689999
 20
1480.3599697926
 30
0.0
 40
4.0
100
AcDbArc
 50
298.17583975
 51
348.3024136366
1001
ACAD
1000
RTMaterial
1005
0
  0
ARC
  5
40D
330
21D
100
AcDbEntity
  8
7_ALL_FEATURES
  6
Continuous
 62
     7
100
AcDbCircle
 10
65.6111160562
 20
1480.0489856144
 30
0.0
 40
0.5
100
AcDbArc
 50
270.0
 51
349.9999991635
1001
ACAD
1000
RTMaterial
1005
0
  0
ARC
  5
40E
330
21D
100
AcDbEntity
  8
0
  6
Continuous
 62
     9
100
AcDbCircle
 10
118.2610403859
 20
1647.3758163819
 30
0.0
 40
129.6751591302
100
AcDbArc
 50
268.6311922463
 51
269.2068783121
1001
ACAD
1000
RTMaterial
1005
0
  0
ARC
  5
40F
330
21D
100
AcDbEntity
  8
0
  6
Continuous
 62
     9
100
AcDbCircle
 10
115.1486694569
 20
1541.6696567563
 30
0.0
 40
23.9208190715
100
AcDbArc
 50
267.2194101114
 51
267.4177607697
1001
ACAD
1000
RTMaterial
1005
0
  0
ARC
  5
410
330
21D
100
AcDbEntity
  8
0
  6
Continuous
 62
     9
100
AcDbCircle
 10
114.9207570646
 20
1536.9999754219
 30
0.0
 40
19.2455793676
100
AcDbArc
 50
266.9200979655
 51
267.2227184618
1001
ACAD
1000
RTMaterial
1005
0
  0
ARC
  5
411
330
21D
100
AcDbEntity
  8
0
  6
Continuous
 62
     9
100
AcDbCircle
 10
113.3842136191
 20
1517.1328933866
 30
0.0
 40
1.009697821899999
100
AcDbArc
 50
59.74563837579999
 51
71.77348517189999
1001
ACAD
1000
RTMaterial
1005
0
  0
ARC
  5
412
330
21D
100
AcDbEntity
  8
0
  6
Continuous
 62
     9
100
AcDbCircle
 10
113.3853845309
 20
1517.142178107
 30
0.0
 40
1.001243107799999
100
AcDbArc
 50
40.65649326249999
 51
53.1370297838
1001
ACAD
1000
RTMaterial
1005
0
  0
ARC
  5
413
330
21D
100
AcDbEntity
  8
0
  6
Continuous
 62
     7
100
AcDbCircle
 10
113.3861845537
 20
1517.1486251164
 30
0.0
 40
1.0
100
AcDbArc
 50
40.2940671706
 51
90.0000629976
1001
ACAD
1000
RTMaterial
1005
0
  0
ARC
  5
414
330
21D
100
AcDbEntity
  8
0
  6
Continuous
 62
     9
100
AcDbCircle
 10
113.3958975666
 20
1517.1556018939
 30
0.0
 40
0.9841963652
100
AcDbArc
 50
53.1578837038
 51
59.6671117757
1001
ACAD
1000
RTMaterial
1005
0
  0
ARC
  5
415
330
21D
100
AcDbEntity
  8
0
  6
Continuous
 62
     7
100
AcDbCircle
 10
114.9717274563
 20
1517.3489856144
 30
0.0
 40
0.8
100
AcDbArc
 50
90.0
 51
148.0118878576
1001
ACAD
1000
RTMaterial
1005
0
  0
ARC
  5
416
330
21D
100
AcDbEntity
  8
0
  6
Continuous
 62
     9
100
AcDbCircle
 10
120.3134318473
 20
1826.9488927842
 30
0.0
 40
309.2612927086
100
AcDbArc
 50
269.6606199089
 51
270.0096873195
1001
ACAD
1000
RTMaterial
1005
0
  0
ARC
  5
417
330
21D
100
AcDbEntity
  8
0
  6
Continuous
 62
     9
100
AcDbCircle
 10
119.7534788924
 20
1748.2486312884
 30
0.0
 40
230.5590279429
100
AcDbArc
 50
269.2306188986
 51
269.6246945348
1001
ACAD
1000
RTMaterial
1005
0
  0
ARC
  5
418
330
21D
100
AcDbEntity
  8
7_ALL_FEATURES
  6
Continuous
 62
     9
100
AcDbCircle
 10
104.1544332597
 20
3259.830351010901
 30
0.0
 40
1754.8061487084
100
AcDbArc
 50
268.0842469588
 51
268.2285420645
1001
ACAD
1000
RTMaterial
1005
0
  0
ARC
  5
419
330
21D
100
AcDbEntity
  8
7_ALL_FEATURES
  6
Continuous
 62
     9
100
AcDbCircle
 10
194.1699228553
 20
-34173.4337773972
 30
0.0
 40
35684.6253968518
100
AcDbArc
 50
89.70948074620002
 51
89.871949178
1001
ACAD
1000
RTMaterial
1005
0
  0
ARC
  5
41A
330
21D
100
AcDbEntity
  8
7_ALL_FEATURES
  6
Continuous
 62
     9
100
AcDbCircle
 10
194.17199792
 20
-34173.13049516701
 30
0.0
 40
35684.3221107415
100
AcDbArc
 50
89.8719514214
 51
90.29051947959999
1001
ACAD
1000
RTMaterial
1005
0
  0
ARC
  5
41B
330
21D
100
AcDbEntity
  8
7_ALL_FEATURES
  6
Continuous
 62
     9
100
AcDbCircle
 10
284.7604179369
 20
3242.2974833532
 30
0.0
 40
1737.263996914
100
AcDbArc
 50
271.7705927948
 51
271.8920258561
1001
ACAD
1000
RTMaterial
1005
0
  0
ARC
  5
41C
330
21D
100
AcDbEntity
  8
0
  6
Continuous
 62
     9
100
AcDbCircle
 10
193.2177323243
 20
1165.5884735101
 30
0.0
 40
48.74202152729999
100
AcDbArc
 50
183.7910109023
 51
184.2559862664
1001
ACAD
1000
RTMaterial
1005
0
  0
ARC
  5
41D
330
21D
100
AcDbEntity
  8
0
  6
Continuous
 62
     9
100
AcDbCircle
 10
193.395595887
 20
1165.5539430443
 30
0.0
 40
48.4718611667
100
AcDbArc
 50
350.9621940327
 51
356.2285287131
1001
ACAD
1000
RTMaterial
1005
0
  0
ARC
  5
41E
330
21D
100
AcDbEntity
  8
0
  6
Continuous
 62
     9
100
AcDbCircle
 10
274.1168072563
 20
1524.3378235214
 30
0.0
 40
6.5697080716
100
AcDbArc
 50
274.168117849
 51
275.4248741006
1001
ACAD
1000
RTMaterial
1005
0
  0
ARC
  5
41F
330
21D
100
AcDbEntity
  8
0
  6
Continuous
 62
     9
100
AcDbCircle
 10
274.9589882492
 20
1517.1334893643
 30
0.0
 40
1.009051225
100
AcDbArc
 50
108.3278590115
 51
120.4662462158
1001
ACAD
1000
RTMaterial
1005
0
  0
ARC
  5
420
330
21D
100
AcDbEntity
  8
0
  6
Continuous
 62
     9
100
AcDbCircle
 10
274.9583205226
 20
1517.1419274676
 30
0.0
 40
1.001593677699999
100
AcDbArc
 50
126.865654297
 51
139.9856359548
1001
ACAD
1000
RTMaterial
1005
0
  0
ARC
  5
421
330
21D
100
AcDbEntity
  8
0
  6
Continuous
 62
     7
100
AcDbCircle
 10
274.9572699963
 20
1517.1486355023
 30
0.0
 40
1.0
100
AcDbArc
 50
89.99993884549999
 51
140.3544112064
1001
ACAD
1000
RTMaterial
1005
0
  0
ARC
  5
422
330
21D
100
AcDbEntity
  8
0
  6
Continuous
 62
     9
100
AcDbCircle
 10
274.9476676937
 20
1517.1554460978
 30
0.0
 40
0.9843871931999998
100
AcDbArc
 50
120.5462910428
 51
126.8416531218
1001
ACAD
1000
RTMaterial
1005
0
  0
ARC
  5
423
330
21D
100
AcDbEntity
  8
0
  6
Continuous
 62
     7
100
AcDbCircle
 10
272.3717274563
 20
1517.3489856144
 30
0.0
 40
0.8
100
AcDbArc
 50
29.5061500106
 51
90.0
1001
ACAD
1000
RTMaterial
1005
0
  0
ARC
  5
424
330
21D
100
AcDbEntity
  8
7_ALL_FEATURES
  6
Continuous
 62
     9
100
AcDbCircle
 10
194.1717274563
 20
8660.6851579703
 30
0.0
 40
7156.5569289323
100
AcDbArc
 50
269.7580932099
 51
270.2419067901
1001
ACAD
1000
RTMaterial
1005
0
  0
ARC
  5
425
330
21D
100
AcDbEntity
  8
7_ALL_FEATURES
  6
Continuous
 62
     9
100
AcDbCircle
 10
194.1717274563
 20
8506.2841979948
 30
0.0
 40
7000.261516821399
100
AcDbArc
 50
269.7554050221
 51
270.2445949779
1001
ACAD
1000
RTMaterial
1005
0
  0
ARC
  5
426
330
21D
100
AcDbEntity
  8
7_ALL_FEATURES
  6
Continuous
 62
     9
100
AcDbCircle
 10
343.5620720528
 20
1451.0613666011
 30
0.0
 40
41.68315382769999
100
AcDbArc
 50
141.2472055389
 51
142.7798487862
1001
ACAD
1000
RTMaterial
1005
0
  0
ARC
  5
427
330
21D
100
AcDbEntity
  8
7_ALL_FEATURES
  6
Continuous
 62
     9
100
AcDbCircle
 10
342.9660635472
 20
1451.5463783384
 30
0.0
 40
40.91475588449999
100
AcDbArc
 50
133.4906569255
 51
141.2544313592
1001
ACAD
1000
RTMaterial
1005
0
  0
ARC
  5
428
330
21D
100
AcDbEntity
  8
02___PRT_ALL_AXES
  6
Continuous
 62
     7
100
AcDbCircle
 10
326.3386528657
 20
1480.3599697926
 30
0.0
 40
4.0
100
AcDbArc
 50
191.6975863634
 51
241.82416025
1001
ACAD
1000
RTMaterial
1005
0
  0
ARC
  5
429
330
21D
100
AcDbEntity
  8
7_ALL_FEATURES
  6
Continuous
 62
     9
100
AcDbCircle
 10
309.6339683741
 20
1478.2653813596
 30
0.0
 40
2.058636723
100
AcDbArc
 50
315.5993257946
 51
319.3893815423
1001
ACAD
1000
RTMaterial
1005
0
  0
ARC
  5
42A
330
21D
100
AcDbEntity
  8
7_ALL_FEATURES
  6
Continuous
 62
     7
100
AcDbCircle
 10
322.7323388565
 20
1480.0489856144
 30
0.0
 40
0.5
100
AcDbArc
 50
190.0000034567
 51
270.0000000047
1001
ACAD
1000
RTMaterial
1005
0
  0
ARC
  5
42B
330
21D
100
AcDbEntity
  8
02___PRT_ALL_AXES
  6
Continuous
 62
     7
100
AcDbCircle
 10
340.0048020469
 20
1480.3599697926
 30
0.0
 40
4.0
100
AcDbArc
 50
298.17583975
 51
348.3024136366
1001
ACAD
1000
RTMaterial
1005
0
  0
ARC
  5
42C
330
21D
100
AcDbEntity
  8
7_ALL_FEATURES
  6
Continuous
 62
     7
100
AcDbCircle
 10
345.1518886721
 20
1480.1489856144
 30
0.0
 40
1.0
100
AcDbArc
 50
90.0
 51
169.9999986655
1001
ACAD
1000
RTMaterial
1005
0
  0
ARC
  5
42D
330
21D
100
AcDbEntity
  8
7_ALL_FEATURES
  6
Continuous
 62
     7
100
AcDbCircle
 10
343.6111160562
 20
1480.0489856144
 30
0.0
 40
0.5
100
AcDbArc
 50
270.0
 51
349.9999932898
1001
ACAD
1000
RTMaterial
1005
0
  0
ARC
  5
42E
330
21D
100
AcDbEntity
  8
02___PRT_ALL_AXES
  6
Continuous
 62
     7
100
AcDbCircle
 10
337.1717274563
 20
1485.6489856144
 30
0.0
 40
10.0
100
AcDbArc
 50
270.0
 51
298.17583975
1001
ACAD
1000
RTMaterial
1005
0
  0
ARC
  5
42F
330
21D
100
AcDbEntity
  8
02___PRT_ALL_AXES
  6
Continuous
 62
     7
100
AcDbCircle
 10
329.1717274563
 20
1485.6489856144
 30
0.0
 40
10.0
100
AcDbArc
 50
241.82416025
 51
270.0
1001
ACAD
1000
RTMaterial
1005
0
  0
ARC
  5
430
330
21D
100
AcDbEntity
  8
0
  6
Continuous
 62
     9
100
AcDbCircle
 10
364.8168737205001
 20
1428.0767283973
 30
0.0
 40
52.4463936326
100
AcDbArc
 50
92.8677848807
 51
93.06042133850001
1001
ACAD
1000
RTMaterial
1005
0
  0
ARC
  5
431
330
21D
100
AcDbEntity
  8
0
  6
Continuous
 62
     9
100
AcDbCircle
 10
364.6466038309
 20
1431.5422007558
 30
0.0
 40
48.9767425465
100
AcDbArc
 50
92.3170673343
 51
92.87167553859999
1001
ACAD
1000
RTMaterial
1005
0
  0
ARC
  5
432
330
21D
100
AcDbEntity
  8
0
  6
Continuous
 62
     9
100
AcDbCircle
 10
364.5192707795
 20
1434.9644906565
 30
0.0
 40
45.5521040801
100
AcDbArc
 50
90.0169962552
 51
92.33106961670001
1001
ACAD
1000
RTMaterial
1005
0
  0
ARC
  5
433
330
21D
100
AcDbEntity
  8
0
  6
Continuous
 62
     7
100
AcDbCircle
 10
371.7493034821
 20
1469.5946742541
 30
0.0
 40
6.0543181624
100
AcDbArc
 50
71.2569251897
 51
89.91401620059999
1001
ACAD
1000
RTMaterial
1005
0
  0
ARC
  5
434
330
21D
100
AcDbEntity
  8
0
  6
Continuous
 62
     9
100
AcDbCircle
 10
370.6436751429
 20
1469.6489782278
 30
0.0
 40
6.0035330224
100
AcDbArc
 50
347.2260067196
 51
89.84849989750001
1001
ACAD
1000
RTMaterial
1005
0
  0
ARC
  5
435
330
21D
100
AcDbEntity
  8
0
  6
Continuous
 62
     7
100
AcDbCircle
 10
371.7582239415
 20
1469.6488304658
 30
0.0
 40
6.0001742249
100
AcDbArc
 50
356.187533623
 51
71.1714199255
1001
ACAD
1000
RTMaterial
1005
0
  0
ARC
  5
436
330
21D
100
AcDbEntity
  8
02___PRT_ALL_AXES
  6
Continuous
 62
     7
100
AcDbCircle
 10
347.1717274562999
 20
1486.4489856144
 30
0.0
 40
10.0
100
AcDbArc
 50
243.8824322321
 51
270.0
1001
ACAD
1000
RTMaterial
1005
0
  0
ARC
  5
437
330
21D
100
AcDbEntity
  8
02___PRT_ALL_AXES
  6
Continuous
 62
     7
100
AcDbCircle
 10
358.0048020469
 20
1481.1599697926
 30
0.0
 40
4.0
100
AcDbArc
 50
298.17583975
 51
348.3024136366
1001
ACAD
1000
RTMaterial
1005
0
  0
ARC
  5
438
330
21D
100
AcDbEntity
  8
7_ALL_FEATURES
  6
Continuous
 62
     7
100
AcDbCircle
 10
363.0788275569
 20
1480.1489856144
 30
0.0
 40
1.0
100
AcDbArc
 50
110.7264287702
 51
152.1818584885
1001
ACAD
1000
RTMaterial
1005
0
  0
ARC
  5
439
330
21D
100
AcDbEntity
  8
7_ALL_FEATURES
  6
Continuous
 62
     7
100
AcDbCircle
 10
361.7521776408
 20
1480.8489856144
 30
0.0
 40
0.5
100
AcDbArc
 50
270.0
 51
332.1818607154
1001
ACAD
1000
RTMaterial
1005
0
  0
ARC
  5
43A
330
21D
100
AcDbEntity
  8
02___PRT_ALL_AXES
  6
Continuous
 62
     7
100
AcDbCircle
 10
355.1717274562999
 20
1486.4489856144
 30
0.0
 40
10.0
100
AcDbArc
 50
270.0
 51
298.17583975
1001
ACAD
1000
RTMaterial
1005
0
  0
ARC
  5
43B
330
21D
100
AcDbEntity
  8
7_ALL_FEATURES
  6
Continuous
 62
     7
100
AcDbCircle
 10
381.6717274563
 20
1485.2489856144
 30
0.0
 40
0.5
100
AcDbArc
 50
270.0
 51
360.0
1001
ACAD
1000
RTMaterial
1005
0
  0
ARC
  5
43C
330
21D
100
AcDbEntity
  8
7_ALL_FEATURES
  6
Continuous
 62
     7
100
AcDbCircle
 10
379.6717274563
 20
1516.1489856144
 30
0.0
 40
2.0
100
AcDbArc
 50
0.0
 51
90.0
1001
ACAD
1000
RTMaterial
1005
0
  0
ARC
  5
43D
330
21D
100
AcDbEntity
  8
7_ALL_FEATURES
  6
Continuous
 62
     9
100
AcDbCircle
 10
378.2092744147
 20
1508.653681873
 30
0.0
 40
1.999798722499999
100
AcDbArc
 50
3.0117803719
 51
89.6889185707
1001
ACAD
1000
RTMaterial
1005
0
  0
ARC
  5
43E
330
21D
100
AcDbEntity
  8
7_ALL_FEATURES
  6
Continuous
 62
     9
100
AcDbCircle
 10
378.2417386522
 20
1508.7170884849
 30
0.0
 40
1.999777497899999
100
AcDbArc
 50
2.971426454899999
 51
89.70478511709998
1001
ACAD
1000
RTMaterial
1005
0
  0
ARC
  5
43F
330
21D
100
AcDbEntity
  8
7_ALL_FEATURES
  6
Continuous
 62
     9
100
AcDbCircle
 10
379.672047617
 20
1516.1433818536
 30
0.0
 40
1.9996798649
100
AcDbArc
 50
0.0091763355
 51
90.00917339690001
1001
ACAD
1000
RTMaterial
1005
0
  0
ARC
  5
440
330
21D
100
AcDbEntity
  8
7_ALL_FEATURES
  6
Continuous
 62
     9
100
AcDbCircle
 10
379.672665456
 20
1515.6371270199
 30
0.0
 40
1.9990620222
100
AcDbArc
 50
359.9913449554
 51
90.0081423451
1001
ACAD
1000
RTMaterial
1005
0
  0
ARC
  5
441
330
21D
100
AcDbEntity
  8
7_ALL_FEATURES
  6
Continuous
 62
     9
100
AcDbCircle
 10
379.6726661585
 20
1515.8175960567
 30
0.0
 40
1.99906132
100
AcDbArc
 50
359.9914677135
 51
90.02672159579999
1001
ACAD
1000
RTMaterial
1005
0
  0
ARC
  5
442
330
21D
100
AcDbEntity
  8
7_ALL_FEATURES
  6
Continuous
 62
     7
100
AcDbCircle
 10
381.6717274563
 20
1514.0489856144
 30
0.0
 40
0.5
100
AcDbArc
 50
0.0
 51
90.0
1001
ACAD
1000
RTMaterial
1005
0
  0
ARC
  5
443
330
21D
100
AcDbEntity
  8
0
  6
Continuous
 62
     7
100
AcDbCircle
 10
604.5608576507
 20
1502.6489856144
 30
0.0
 40
2.0
100
AcDbArc
 50
90.0
 51
177.0
1001
ACAD
1000
RTMaterial
1005
0
  0
ARC
  5
444
330
21D
100
AcDbEntity
  8
0
  6
Continuous
 62
     9
100
AcDbCircle
 10
711.6424098411
 20
1483.1411565588
 30
0.0
 40
4.000926764899999
100
AcDbArc
 50
288.3237597945
 51
330.0554574979
1001
ACAD
1000
RTMaterial
1005
0
  0
ARC
  5
446
330
21D
100
AcDbEntity
  8
0
  6
Continuous
 62
     9
100
AcDbCircle
 10
684.2039772008
 20
1502.6214175257
 30
0.0
 40
3.005501027099999
100
AcDbArc
 50
6.015644263099999
 51
20.5247252533
1001
ACAD
1000
RTMaterial
1005
0
  0
ARC
  5
447
330
21D
100
AcDbEntity
  8
0
  6
Continuous
 62
     7
100
AcDbCircle
 10
684.2093622016999
 20
1502.6489856144
 30
0.0
 40
2.0
100
AcDbArc
 50
6.0
 51
90.0
1001
ACAD
1000
RTMaterial
1005
0
  0
ARC
  5
448
330
21D
100
AcDbEntity
  8
0
  6
Continuous
 62
     9
100
AcDbCircle
 10
706.1367407172999
 20
1499.7786187454
 30
0.0
 40
21.5256960192
100
AcDbArc
 50
280.2856664618
 51
288.3128936101
1001
ACAD
1000
RTMaterial
1005
0
  0
ARC
  5
449
330
21D
100
AcDbEntity
  8
0
  6
Continuous
 62
     9
100
AcDbCircle
 10
706.1431396128999
 20
1499.7536864287
 30
0.0
 40
21.5000395148
100
AcDbArc
 50
186.0000663771
 51
250.449702473
1001
ACAD
1000
RTMaterial
1005
0
  0
ARC
  5
44A
330
21D
100
AcDbEntity
  8
0
  6
Continuous
 62
     7
100
AcDbCircle
 10
706.1431029181
 20
1499.6489856144
 30
0.0
 40
19.5
100
AcDbArc
 50
186.0
 51
288.3176984112
1001
ACAD
1000
RTMaterial
1005
0
  0
ARC
  5
44B
330
21D
100
AcDbEntity
  8
0
  6
Continuous
 62
     7
100
AcDbCircle
 10
706.1431029181
 20
1499.6489856144
 30
0.0
 40
18.5
100
AcDbArc
 50
88.54789971009999
 51
90.7403859505
1001
ACAD
1000
RTMaterial
1005
0
  0
ARC
  5
44C
330
21D
100
AcDbEntity
  8
0
  6
Continuous
 62
     7
100
AcDbCircle
 10
706.1431029181
 20
1499.6489856144
 30
0.0
 40
18.5
100
AcDbArc
 50
99.94959896270001
 51
179.9959363167
1001
ACAD
1000
RTMaterial
1005
0
  0
ARC
  5
44D
330
21D
100
AcDbEntity
  8
7_ALL_FEATURES
  6
Continuous
 62
     7
100
AcDbCircle
 10
706.1431029181
 20
1499.6489856144
 30
0.0
 40
18.5
100
AcDbArc
 50
88.55
 51
270.0
1001
ACAD
1000
RTMaterial
1005
0
  0
ARC
  5
44E
330
21D
100
AcDbEntity
  8
7_ALL_FEATURES
  6
Continuous
 62
     9
100
AcDbCircle
 10
706.1431029181
 20
1499.6489856144
 30
0.0
 40
16.5
100
AcDbArc
 50
88.55
 51
180.0
1001
ACAD
1000
RTMaterial
1005
0
  0
CIRCLE
  5
44F
330
21D
100
AcDbEntity
  8
0
  6
Continuous
 62
     7
100
AcDbCircle
 10
706.1431029181
 20
1499.6489856144
 30
0.0
 40
16.0
1001
ACAD
1000
RTMaterial
1005
0
  0
CIRCLE
  5
450
330
21D
100
AcDbEntity
  8
0
  6
Continuous
 62
     9
100
AcDbCircle
 10
706.1431029181
 20
1499.6489856144
 30
0.0
 40
15.5
1001
ACAD
1000
RTMaterial
1005
0
  0
ARC
  5
451
330
21D
100
AcDbEntity
  8
0
  6
Continuous
 62
     9
100
AcDbCircle
 10
854.2845986622999
 20
1278.4948143563
 30
0.0
 40
116.1267585408
100
AcDbArc
 50
267.2910466704
 51
270.3103398467
1001
ACAD
1000
RTMaterial
1005
0
  0
ARC
  5
452
330
21D
100
AcDbEntity
  8
02___PRT_ALL_AXES
  6
Continuous
 62
     7
100
AcDbCircle
 10
872.1431029180999
 20
1486.4489856144
 30
0.0
 40
10.0
100
AcDbArc
 50
241.82416025
 51
270.0
1001
ACAD
1000
RTMaterial
1005
0
  0
ARC
  5
453
330
21D
100
AcDbEntity
  8
02___PRT_ALL_AXES
  6
Continuous
 62
     7
100
AcDbCircle
 10
880.1431029180999
 20
1486.4489856144
 30
0.0
 40
10.0
100
AcDbArc
 50
270.0
 51
298.17583975
1001
ACAD
1000
RTMaterial
1005
0
  0
ARC
  5
454
330
21D
100
AcDbEntity
  8
02___PRT_ALL_AXES
  6
Continuous
 62
     7
100
AcDbCircle
 10
869.3100283275001
 20
1481.1599697926
 30
0.0
 40
4.0
100
AcDbArc
 50
191.6975863634
 51
241.82416025
1001
ACAD
1000
RTMaterial
1005
0
  0
ARC
  5
455
330
21D
100
AcDbEntity
  8
02___PRT_ALL_AXES
  6
Continuous
 62
     7
100
AcDbCircle
 10
882.9761775087
 20
1481.1599697926
 30
0.0
 40
4.0
100
AcDbArc
 50
298.17583975
 51
348.3024136366
1001
ACAD
1000
RTMaterial
1005
0
  0
ARC
  5
456
330
21D
100
AcDbEntity
  8
7_ALL_FEATURES
  6
Continuous
 62
     9
100
AcDbCircle
 10
885.3162329683
 20
1484.4381851926
 30
0.0
 40
3.8225265662
100
AcDbArc
 50
269.9365297541
 51
275.3767105976
1001
ACAD
1000
RTMaterial
1005
0
  0
ARC
  5
457
330
21D
100
AcDbEntity
  8
7_ALL_FEATURES
  6
Continuous
 62
     9
100
AcDbCircle
 10
866.8810200982001
 20
1483.719262946
 30
0.0
 40
3.097512775099999
100
AcDbArc
 50
252.6824456588
 51
255.8084610304
1001
ACAD
1000
RTMaterial
1005
0
  0
ARC
  5
458
330
21D
100
AcDbEntity
  8
7_ALL_FEATURES
  6
Continuous
 62
     9
100
AcDbCircle
 10
884.6446682467998
 20
1482.7405384216
 30
0.0
 40
2.5970946712
100
AcDbArc
 50
310.3799190076
 51
311.9450467065
1001
ACAD
1000
RTMaterial
1005
0
  0
ARC
  5
459
330
21D
100
AcDbEntity
  8
0
  6
Continuous
 62
     7
100
AcDbCircle
 10
810.0060393174
 20
1478.2119430712
 30
0.0
 40
2.0
100
AcDbArc
 50
3.0
 51
88.03418546290002
1001
ACAD
1000
RTMaterial
1005
0
  0
ARC
  5
45A
330
21D
100
AcDbEntity
  8
7_ALL_FEATURES
  6
Continuous
 62
     7
100
AcDbCircle
 10
865.5626527336998
 20
1480.8489856144
 30
0.0
 40
0.5
100
AcDbArc
 50
190.0
 51
270.0
1001
ACAD
1000
RTMaterial
1005
0
  0
ARC
  5
45B
330
21D
100
AcDbEntity
  8
7_ALL_FEATURES
  6
Continuous
 62
     7
100
AcDbCircle
 10
886.7235531025
 20
1480.8489856144
 30
0.0
 40
0.5
100
AcDbArc
 50
270.0
 51
350.0
1001
ACAD
1000
RTMaterial
1005
0
  0
ARC
  5
45C
330
21D
100
AcDbEntity
  8
0
  6
Continuous
 62
     9
100
AcDbCircle
 10
861.5343574702
 20
2979.5217998526
 30
0.0
 40
1502.089278425
100
AcDbArc
 50
265.9753305958
 51
267.7285797511
1001
ACAD
1000
RTMaterial
1005
0
  0
ARC
  5
45D
330
21D
100
AcDbEntity
  8
0
  6
Continuous
 62
     7
100
AcDbCircle
 10
861.5294533850999
 20
2979.3279738306
 30
0.0
 40
1500.0
100
AcDbArc
 50
267.2023232194
 51
268.0341854629
1001
ACAD
1000
RTMaterial
1005
0
  0
ARC
  5
45E
330
21D
100
AcDbEntity
  8
02___PRT_ALL_AXES
  6
Continuous
 62
     7
100
AcDbCircle
 10
1069.1431029181
 20
1485.6489856144
 30
0.0
 40
10.0
100
AcDbArc
 50
241.82416025
 51
270.0
1001
ACAD
1000
RTMaterial
1005
0
  0
ARC
  5
45F
330
21D
100
AcDbEntity
  8
02___PRT_ALL_AXES
  6
Continuous
 62
     7
100
AcDbCircle
 10
1077.1431029181
 20
1485.6489856144
 30
0.0
 40
10.0
100
AcDbArc
 50
270.0
 51
298.17583975
1001
ACAD
1000
RTMaterial
1005
0
  0
ARC
  5
460
330
21D
100
AcDbEntity
  8
02___PRT_ALL_AXES
  6
Continuous
 62
     7
100
AcDbCircle
 10
1066.3100283275
 20
1480.3599697926
 30
0.0
 40
4.0
100
AcDbArc
 50
191.6975863634
 51
241.82416025
1001
ACAD
1000
RTMaterial
1005
0
  0
ARC
  5
461
330
21D
100
AcDbEntity
  8
02___PRT_ALL_AXES
  6
Continuous
 62
     7
100
AcDbCircle
 10
1079.9761775087
 20
1480.3599697926
 30
0.0
 40
4.0
100
AcDbArc
 50
298.17583975
 51
348.3024136366
1001
ACAD
1000
RTMaterial
1005
0
  0
ARC
  5
462
330
21D
100
AcDbEntity
  8
7_ALL_FEATURES
  6
Continuous
 62
     7
100
AcDbCircle
 10
1185.9096789305
 20
1504.0236928848
 30
0.0
 40
2.0
100
AcDbArc
 50
3.000000063999999
 51
88.30421948020001
1001
ACAD
1000
RTMaterial
1005
0
  0
ARC
  5
463
330
21D
100
AcDbEntity
  8
7_ALL_FEATURES
  6
Continuous
 62
     9
100
AcDbCircle
 10
1085.0986408595
 20
1480.1420864674
 30
0.0
 40
1.019863654199999
100
AcDbArc
 50
152.2048239807
 51
163.7762591295
1001
ACAD
1000
RTMaterial
1005
0
  0
ARC
  5
464
330
21D
100
AcDbEntity
  8
7_ALL_FEATURES
  6
Continuous
 62
     9
100
AcDbCircle
 10
1085.0784790745
 20
1480.1520471759
 30
0.0
 40
0.997688162
100
AcDbArc
 50
124.5377539186
 51
133.9020314597
1001
ACAD
1000
RTMaterial
1005
0
  0
ARC
  5
465
330
21D
100
AcDbEntity
  8
7_ALL_FEATURES
  6
Continuous
 62
     9
100
AcDbCircle
 10
1085.0666188873
 20
1480.1516179586
 30
0.0
 40
0.9864538886
100
AcDbArc
 50
163.7881859091
 51
170.0157830516
1001
ACAD
1000
RTMaterial
1005
0
  0
ARC
  5
466
330
21D
100
AcDbEntity
  8
7_ALL_FEATURES
  6
Continuous
 62
     7
100
AcDbCircle
 10
1062.7037143182
 20
1480.0489856144
 30
0.0
 40
0.5
100
AcDbArc
 50
190.0
 51
270.0
1001
ACAD
1000
RTMaterial
1005
0
  0
ARC
  5
467
330
21D
100
AcDbEntity
  8
7_ALL_FEATURES
  6
Continuous
 62
     7
100
AcDbCircle
 10
1083.582491517899
 20
1480.0489856144
 30
0.0
 40
0.5
100
AcDbArc
 50
270.0
 51
350.0
1001
ACAD
1000
RTMaterial
1005
0
  0
SPLINE
  5
468
330
21D
100
AcDbEntity
  8
0
  6
Continuous
 62
     7
100
AcDbSpline
210
0.0
220
0.0
230
1.0
 70
     8
 71
     3
 72
     8
 73
     4
 74
     0
 42
0.0000000001
 43
0.0000000001
 40
0.0
 40
0.0
 40
0.0
 40
0.0
 40
1.0
 40
1.0
 40
1.0
 40
1.0
 10
114.1717274563
 20
972.1895626571999
 30
0.0
 10
114.1717274563
 20
972.293690725
 30
0.0
 10
114.1917972529
 20
972.3996187338
 30
0.0
 10
114.2301076076
 20
972.4964431688
 30
0.0
  0
SPLINE
  5
469
330
21D
100
AcDbEntity
  8
0
  6
Continuous
 62
     7
100
AcDbSpline
210
0.0
220
0.0
230
1.0
 70
     8
 71
     3
 72
     8
 73
     4
 74
     0
 42
0.0000000001
 43
0.0000000001
 40
0.0
 40
0.0
 40
0.0
 40
0.0
 40
1.0
 40
1.0
 40
1.0
 40
1.0
 10
273.1133473051
 20
972.4964431688
 30
0.0
 10
273.1516576597
 20
972.3996187338
 30
0.0
 10
273.1717274563
 20
972.293690725
 30
0.0
 10
273.1717274563
 20
972.1895626571999
 30
0.0
  0
SPLINE
  5
46A
330
21D
100
AcDbEntity
  8
0
  6
Continuous
 62
     7
100
AcDbSpline
210
0.0
220
0.0
230
1.0
 70
     8
 71
     3
 72
     8
 73
     4
 74
     0
 42
0.0000000001
 43
0.0000000001
 40
0.0
 40
0.0
 40
0.0
 40
0.0
 40
1.0
 40
1.0
 40
1.0
 40
1.0
 10
189.5437033179
 20
951.4839855239999
 30
0.0
 10
189.5654899915
 20
951.4545501273
 30
0.0
 10
189.5838224349
 20
951.4226110142999
 30
0.0
 10
189.6062966281
 20
951.3936971358001
 30
0.0
  0
SPLINE
  5
46B
330
21D
100
AcDbEntity
  8
0
  6
Continuous
 62
     7
100
AcDbSpline
210
0.0
220
0.0
230
1.0
 70
     8
 71
     3
 72
     8
 73
     4
 74
     0
 42
0.0000000001
 43
0.0000000001
 40
0.0
 40
0.0
 40
0.0
 40
0.0
 40
1.0
 40
1.0
 40
1.0
 40
1.0
 10
189.8341885157
 20
951.3936971358001
 30
0.0
 10
189.8569730512
 20
951.4273481537999
 30
0.0
 10
189.8766737229
 20
951.4631484493
 30
0.0
 10
189.9012594397
 20
951.4955068886999
 30
0.0
  0
LINE
  5
46C
330
21D
100
AcDbEntity
  8
0
  6
Continuous
 62
     7
100
AcDbLine
 10
192.0905323502
 20
948.6614540551
 30
0.0
 11
192.1026596269
 21
948.6437572969
 31
0.0
1001
ACAD
1000
RTMaterial
1005
0
  0
LINE
  5
46D
330
21D
100
AcDbEntity
  8
0
  6
Continuous
 62
     7
100
AcDbLine
 10
187.2624523506
 20
948.6437572969
 30
0.0
 11
187.2745113621
 21
948.6610721375999
 31
0.0
1001
ACAD
1000
RTMaterial
1005
0
  0
SPLINE
  5
46E
330
21D
100
AcDbEntity
  8
0
  6
Continuous
 62
     7
100
AcDbSpline
210
0.0
220
0.0
230
1.0
 70
     8
 71
     3
 72
    11
 73
     7
 74
     0
 42
0.0000000001
 43
0.0000000001
 40
0.0
 40
0.0
 40
0.0
 40
0.0
 40
0.247007022
 40
0.4961824546
 40
0.7472191175000001
 40
1.0
 40
1.0
 40
1.0
 40
1.0
 10
187.2745113621
 20
948.6610721375999
 30
0.0
 10
187.4079296373
 20
948.8524071403999
 30
0.0
 10
187.6834692728
 20
949.2314391785001
 30
0.0
 10
188.0929957792
 20
949.8060667896
 30
0.0
 10
188.501139326
 20
950.3883570817999
 30
0.0
 10
188.7742241246
 20
950.777955292
 30
0.0
 10
188.9104940941999
 20
950.9739487125001
 30
0.0
  0
SPLINE
  5
46F
330
21D
100
AcDbEntity
  8
0
  6
Continuous
 62
     7
100
AcDbSpline
210
0.0
220
0.0
230
1.0
 70
     8
 71
     3
 72
     9
 73
     5
 74
     0
 42
0.0000000001
 43
0.0000000001
 40
0.0
 40
0.0
 40
0.0
 40
0.0
 40
0.4999184618000001
 40
1.0
 40
1.0
 40
1.0
 40
1.0
 10
114.2301076076
 20
972.4964431688
 30
0.0
 10
114.2872995991
 20
972.6438210197001
 30
0.0
 10
114.4898513897
 20
972.9130716705999
 30
0.0
 10
114.8135899781
 20
973.016979275
 30
0.0
 10
114.9717274563
 20
973.016979275
 30
0.0
  0
SPLINE
  5
470
330
21D
100
AcDbEntity
  8
0
  6
Continuous
 62
     7
100
AcDbSpline
210
0.0
220
0.0
230
1.0
 70
     8
 71
     3
 72
     9
 73
     5
 74
     0
 42
0.0000000001
 43
0.0000000001
 40
0.0
 40
0.0
 40
0.0
 40
0.0
 40
0.5000811754
 40
1.0
 40
1.0
 40
1.0
 40
1.0
 10
272.3717274563
 20
973.016979275
 30
0.0
 10
272.5298648203
 20
973.016979275
 30
0.0
 10
272.8536033985
 20
972.9130717682
 30
0.0
 10
273.0561552719
 20
972.6438211272
 30
0.0
 10
273.1133473051
 20
972.4964431688
 30
0.0
  0
SPLINE
  5
471
330
21D
100
AcDbEntity
  8
0
  6
Continuous
 62
     7
100
AcDbSpline
210
0.0
220
0.0
230
1.0
 70
     8
 71
     3
 72
     8
 73
     4
 74
     0
 42
0.0000000001
 43
0.0000000001
 40
0.0
 40
0.0
 40
0.0
 40
0.0
 40
1.0
 40
1.0
 40
1.0
 40
1.0
 10
189.6076958824
 20
950.6294340913999
 30
0.0
 10
189.5817745625999
 20
950.5924402853999
 30
0.0
 10
189.5533679446
 20
950.5570543448
 30
0.0
 10
189.5300839092
 20
950.5183463328
 30
0.0
  0
SPLINE
  5
472
330
21D
100
AcDbEntity
  8
0
  6
Continuous
 62
     7
100
AcDbSpline
210
0.0
220
0.0
230
1.0
 70
     8
 71
     3
 72
     9
 73
     5
 74
     0
 42
0.0000000001
 43
0.0000000001
 40
0.0
 40
0.0
 40
0.0
 40
0.0
 40
0.2525199057
 40
1.0
 40
1.0
 40
1.0
 40
1.0
 10
189.5300839092
 20
950.5183463328
 30
0.0
 10
189.4318313107
 20
950.3620931239998
 30
0.0
 10
189.0413561915
 20
949.7441948764
 30
0.0
 10
188.6487612968999
 20
949.1276009744
 30
0.0
 10
188.3504192299
 20
948.6698841357
 30
0.0
  0
SPLINE
  5
473
330
21D
100
AcDbEntity
  8
0
  6
Continuous
 62
     7
100
AcDbSpline
210
0.0
220
0.0
230
1.0
 70
     8
 71
     3
 72
     9
 73
     5
 74
     0
 42
0.0000000001
 43
0.0000000001
 40
0.0
 40
0.0
 40
0.0
 40
0.0
 40
0.4965950034000001
 40
1.0
 40
1.0
 40
1.0
 40
1.0
 10
191.0795248647
 20
948.6437572969
 30
0.0
 10
190.8811366246
 20
948.9448067551
 30
0.0
 10
190.4938654138
 20
949.5589990780999
 30
0.0
 10
190.1060067867
 20
950.1727140889999
 30
0.0
 10
189.912266907
 20
950.4826223672001
 30
0.0
  0
SPLINE
  5
474
330
21D
100
AcDbEntity
  8
0
  6
Continuous
 62
     7
100
AcDbSpline
210
0.0
220
0.0
230
1.0
 70
     8
 71
     3
 72
     8
 73
     4
 74
     0
 42
0.0000000001
 43
0.0000000001
 40
0.0
 40
0.0
 40
0.0
 40
0.0
 40
1.0
 40
1.0
 40
1.0
 40
1.0
 10
189.912266907
 20
950.4826223672001
 30
0.0
 10
189.8909315826
 20
950.5180469795
 30
0.0
 10
189.866719204
 20
950.5516636708
 30
0.0
 10
189.8446362814
 20
950.5866271339
 30
0.0
  0
SPLINE
  5
475
330
21D
100
AcDbEntity
  8
0
  6
Continuous
 62
     7
100
AcDbSpline
210
0.0
220
0.0
230
1.0
 70
     8
 71
     3
 72
     8
 73
     4
 74
     0
 42
0.0000000001
 43
0.0000000001
 40
0.0
 40
0.0
 40
0.0
 40
0.0
 40
1.0
 40
1.0
 40
1.0
 40
1.0
 10
189.6076958824
 20
950.6035445971999
 30
0.0
 10
189.5817744807
 20
950.5665493637
 30
0.0
 10
189.553367807
 20
950.531161902
 30
0.0
 10
189.5300839092
 20
950.4924523880999
 30
0.0
  0
SPLINE
  5
476
330
21D
100
AcDbEntity
  8
0
  6
Continuous
 62
     7
100
AcDbSpline
210
0.0
220
0.0
230
1.0
 70
     8
 71
     3
 72
     9
 73
     5
 74
     0
 42
0.0000000001
 43
0.0000000001
 40
0.0
 40
0.0
 40
0.0
 40
0.0
 40
0.2525029086
 40
1.0
 40
1.0
 40
1.0
 40
1.0
 10
189.5300839092
 20
950.4924523880999
 30
0.0
 10
189.4318322808
 20
950.3361937357
 30
0.0
 10
189.0413401948
 20
949.7182288191
 30
0.0
 10
188.6487504027
 20
949.1015544245
 30
0.0
 10
188.3504192299
 20
948.6437572969
 30
0.0
  0
SPLINE
  5
477
330
21D
100
AcDbEntity
  8
0
  6
Continuous
 62
     7
100
AcDbSpline
210
0.0
220
0.0
230
1.0
 70
     8
 71
     3
 72
     9
 73
     5
 74
     0
 42
0.0000000001
 43
0.0000000001
 40
0.0
 40
0.0
 40
0.0
 40
0.0
 40
0.4965714189
 40
1.0
 40
1.0
 40
1.0
 40
1.0
 10
191.0795248647
 20
948.6698841357
 30
0.0
 10
190.8811345983
 20
948.9708728786
 30
0.0
 10
190.4938518592
 20
949.5849808911
 30
0.0
 10
190.1060047631
 20
950.1986258256
 30
0.0
 10
189.912266907
 20
950.5085167555
 30
0.0
  0
SPLINE
  5
478
330
21D
100
AcDbEntity
  8
0
  6
Continuous
 62
     7
100
AcDbSpline
210
0.0
220
0.0
230
1.0
 70
     8
 71
     3
 72
     9
 73
     5
 74
     0
 42
0.0000000001
 43
0.0000000001
 40
0.0
 40
0.0
 40
0.0
 40
0.0
 40
0.4998489833
 40
1.0
 40
1.0
 40
1.0
 40
1.0
 10
273.5676692376
 20
949.3217927776999
 30
0.0
 10
273.5676692376
 20
949.1730405486
 30
0.0
 10
273.6362533062
 20
948.8717008096999
 30
0.0
 10
273.8296049578
 20
948.6305268395
 30
0.0
 10
273.946239229
 20
948.5380583516
 30
0.0
  0
SPLINE
  5
479
330
21D
100
AcDbEntity
  8
0
  6
Continuous
 62
     7
100
AcDbSpline
210
0.0
220
0.0
230
1.0
 70
     8
 71
     3
 72
     9
 73
     5
 74
     0
 42
0.0000000001
 43
0.0000000001
 40
0.0
 40
0.0
 40
0.0
 40
0.0
 40
0.4997436489
 40
1.0
 40
1.0
 40
1.0
 40
1.0
 10
273.5968206552
 20
949.3217927776999
 30
0.0
 10
273.5968206552
 20
949.1799598147
 30
0.0
 10
273.6591754154
 20
948.8929636778999
 30
0.0
 10
273.835363399
 20
948.6579154086999
 30
0.0
 10
273.9427732268
 20
948.5650659826999
 30
0.0
  0
SPLINE
  5
47A
330
21D
100
AcDbEntity
  8
0
  6
Continuous
 62
     7
100
AcDbSpline
210
0.0
220
0.0
230
1.0
 70
     8
 71
     3
 72
    18
 73
    14
 74
     0
 42
0.0000000001
 43
0.0000000001
 40
0.0
 40
0.0
 40
0.0
 40
0.0
 40
0.0054731169
 40
0.0200887775
 40
0.0440115655
 40
0.0771150379
 40
0.1190720001
 40
0.169470188
 40
0.2937408344000001
 40
0.4450617414
 40
0.6177073569
 40
0.8052939830999999
 40
1.0
 40
1.0
 40
1.0
 40
1.0
 10
273.5676692376
 20
949.3217927776999
 30
0.0
 10
273.5621890185
 20
949.3217659141
 30
0.0
 10
273.558097849
 20
949.2934963119001
 30
0.0
 10
273.5501736907
 20
949.2578576946
 30
0.0
 10
273.5439377809
 20
949.1820401085
 30
0.0
 10
273.5366550761999
 20
949.0850799746999
 30
0.0
 10
273.5300030477
 20
948.9589091414998
 30
0.0
 10
273.5206535838
 20
948.7425307207999
 30
0.0
 10
273.5107879079
 20
948.4160432791
 30
0.0
 10
273.5013919539
 20
947.9673996738
 30
0.0
 10
273.4944147009
 20
947.4551918007
 30
0.0
 10
273.4900676054
 20
946.8995500988
 30
0.0
 10
273.4890872285
 20
946.5167537969
 30
0.0
 10
273.4891114729
 20
946.3217927777
 30
0.0
  0
SPLINE
  5
47B
330
21D
100
AcDbEntity
  8
0
  6
Continuous
 62
     9
100
AcDbSpline
210
0.0
220
0.0
230
1.0
 70
     8
 71
     3
 72
    11
 73
     7
 74
     0
 42
0.0000000001
 43
0.0000000001
 40
0.0
 40
0.0
 40
0.0
 40
0.0
 40
0.0958841124
 40
0.2953140372
 40
0.5993611499
 40
1.0
 40
1.0
 40
1.0
 40
1.0
 10
273.4915791729
 20
942.2861360869999
 30
0.0
 10
273.4941626785
 20
942.2955208279999
 30
0.0
 10
273.5267045747
 20
942.3095896072
 30
0.0
 10
273.5816840254
 20
942.3244927417998
 30
0.0
 10
273.6743643842
 20
942.3396490808
 30
0.0
 10
273.7448459851
 20
942.3475209063999
 30
0.0
 10
273.785328529
 20
942.3514377503
 30
0.0
  0
SPLINE
  5
47C
330
21D
100
AcDbEntity
  8
0
  6
Continuous
 62
     9
100
AcDbSpline
210
0.0
220
0.0
230
1.0
 70
     8
 71
     3
 72
     9
 73
     5
 74
     0
 42
0.0000000001
 43
0.0000000001
 40
0.0
 40
0.0
 40
0.0
 40
0.0
 40
0.3732413913
 40
1.0
 40
1.0
 40
1.0
 40
1.0
 10
273.6216796953
 20
950.0075070634
 30
0.0
 10
273.6256266829
 20
949.9575804135
 30
0.0
 10
273.7356568306
 20
949.8488630776
 30
0.0
 10
273.8594568951
 20
949.8069283019001
 30
0.0
 10
273.9400029499
 20
949.7827386772998
 30
0.0
  0
SPLINE
  5
47D
330
21D
100
AcDbEntity
  8
0
  6
Continuous
 62
     9
100
AcDbSpline
210
0.0
220
0.0
230
1.0
 70
     8
 71
     3
 72
     9
 73
     5
 74
     0
 42
0.0000000001
 43
0.0000000001
 40
0.0
 40
0.0
 40
0.0
 40
0.0
 40
0.49909203
 40
1.0
 40
1.0
 40
1.0
 40
1.0
 10
273.2124251749
 20
974.2204478419999
 30
0.0
 10
273.2131231091
 20
974.4742082963
 30
0.0
 10
273.4282754282
 20
975.0027227985
 30
0.0
 10
273.9573987218
 20
975.2142764422998
 30
0.0
 10
274.2120824998
 20
975.2149697374001
 30
0.0
  0
SPLINE
  5
47E
330
21D
100
AcDbEntity
  8
0
  6
Continuous
 62
     9
100
AcDbSpline
210
0.0
220
0.0
230
1.0
 70
     8
 71
     3
 72
     9
 73
     5
 74
     0
 42
0.0000000001
 43
0.0000000001
 40
0.0
 40
0.0
 40
0.0
 40
0.0
 40
0.4990922552000001
 40
1.0
 40
1.0
 40
1.0
 40
1.0
 10
273.0750181661
 20
974.7719678080001
 30
0.0
 10
273.0757161004
 20
975.0257283785
 30
0.0
 10
273.2908685352
 20
975.5542429164998
 30
0.0
 10
273.8199918258
 20
975.7657964087
 30
0.0
 10
274.0746754911
 20
975.7664897034
 30
0.0
  0
SPLINE
  5
480
330
21D
100
AcDbEntity
  8
0
  6
Continuous
 62
     9
100
AcDbSpline
210
0.0
220
0.0
230
1.0
 70
     8
 71
     3
 72
    11
 73
     7
 74
     0
 42
0.0000000001
 43
0.0000000001
 40
0.0
 40
0.0
 40
0.0
 40
0.0
 40
0.3669081974
 40
0.6573672951000001
 40
0.8686755296999999
 40
1.0
 40
1.0
 40
1.0
 40
1.0
 10
14.3635236929
 20
974.3513167889998
 30
0.0
 10
14.3949397864
 20
974.7040732419
 30
0.0
 10
14.457394043
 20
975.3353086841999
 30
0.0
 10
14.563970324
 20
976.1680703809
 30
0.0
 10
14.6744773837
 20
976.7675607010001
 30
0.0
 10
14.7606629942
 20
977.0905715498999
 30
0.0
 10
14.817220532
 20
977.2040135280999
 30
0.0
  0
SPLINE
  5
481
330
21D
100
AcDbEntity
  8
0
  6
Continuous
 62
     9
100
AcDbSpline
210
0.0
220
0.0
230
1.0
 70
     8
 71
     3
 72
    11
 73
     7
 74
     0
 42
0.0000000001
 43
0.0000000001
 40
0.0
 40
0.0
 40
0.0
 40
0.0
 40
0.1313255596
 40
0.3426341336
 40
0.6330927967000001
 40
1.0
 40
1.0
 40
1.0
 40
1.0
 10
372.5262343806
 20
977.2040135280999
 30
0.0
 10
372.582789775
 20
977.0905757445
 30
0.0
 10
372.6689734179
 20
976.7675788066
 30
0.0
 10
372.7794773571
 20
976.1681149844001
 30
0.0
 10
372.8860512097
 20
975.335392568
 30
0.0
 10
372.948504072
 20
974.7041873250999
 30
0.0
 10
372.9799195061
 20
974.3514479381
 30
0.0
  0
SPLINE
  5
482
330
21D
100
AcDbEntity
  8
0
  6
Continuous
 62
     9
100
AcDbSpline
210
0.0
220
0.0
230
1.0
 70
     8
 71
     3
 72
     9
 73
     5
 74
     0
 42
0.0000000001
 43
0.0000000001
 40
0.0
 40
0.0
 40
0.0
 40
0.0
 40
0.2719368280999999
 40
1.0
 40
1.0
 40
1.0
 40
1.0
 10
274.8020288157
 20
1059.6432476719
 30
0.0
 10
274.7212718079
 20
1059.647817496
 30
0.0
 10
274.4243475016
 20
1059.6653819033
 30
0.0
 10
274.12759209
 20
1059.6860440751
 30
0.0
 10
273.9117724916
 20
1059.7039196805
 30
0.0
  0
LINE
  5
483
330
21D
100
AcDbEntity
  8
0
  6
Continuous
 62
     9
100
AcDbLine
 10
273.9117724916
 20
1059.7039196805
 30
0.0
 11
273.8837756167
 21
1059.7062554898
 31
0.0
1001
ACAD
1000
RTMaterial
1005
0
  0
SPLINE
  5
484
330
21D
100
AcDbEntity
  8
0
  6
Continuous
 62
     9
100
AcDbSpline
210
0.0
220
0.0
230
1.0
 70
     8
 71
     3
 72
     9
 73
     5
 74
     0
 42
0.0000000001
 43
0.0000000001
 40
0.0
 40
0.0
 40
0.0
 40
0.0
 40
0.2682685865
 40
1.0
 40
1.0
 40
1.0
 40
1.0
 10
273.8837756167
 20
1059.7062554898
 30
0.0
 10
273.8461392797
 20
1059.7094185179
 30
0.0
 10
273.7058761368
 20
1059.7215594957
 30
0.0
 10
273.5657324699
 20
1059.7351390127
 30
0.0
 10
273.4633185248
 20
1059.7462884174
 30
0.0
  0
SPLINE
  5
485
330
21D
100
AcDbEntity
  8
0
  6
Continuous
 62
     9
100
AcDbSpline
210
0.0
220
0.0
230
1.0
 70
     8
 71
     3
 72
    11
 73
     7
 74
     0
 42
0.0000000001
 43
0.0000000001
 40
0.0
 40
0.0
 40
0.0
 40
0.0
 40
0.4196693658
 40
0.7258929373000001
 40
0.9165465087999999
 40
1.0
 40
1.0
 40
1.0
 40
1.0
 10
273.4633185248
 20
1059.7462884174
 30
0.0
 10
273.3487449272
 20
1059.7587615959
 30
0.0
 10
273.1533748495
 20
1059.7817066839
 30
0.0
 10
272.8971050971
 20
1059.8273520978
 30
0.0
 10
272.7572937138
 20
1059.8616835926
 30
0.0
 10
272.6717211854
 20
1059.905199533
 30
0.0
 10
272.6717274563
 20
1059.9281177187
 30
0.0
  0
SPLINE
  5
486
330
21D
100
AcDbEntity
  8
0
  6
Continuous
 62
     9
100
AcDbSpline
210
0.0
220
0.0
230
1.0
 70
     8
 71
     3
 72
    11
 73
     7
 74
     0
 42
0.0000000001
 43
0.0000000001
 40
0.0
 40
0.0
 40
0.0
 40
0.0
 40
0.083453507
 40
0.2741070477
 40
0.5803306193
 40
1.0
 40
1.0
 40
1.0
 40
1.0
 10
339.6717274563
 20
1059.9281177187
 30
0.0
 10
339.6717336942
 20
1059.9051995285
 30
0.0
 10
339.5861612235
 20
1059.8616836057
 30
0.0
 10
339.4463498002
 20
1059.8273520868
 30
0.0
 10
339.1900800737
 20
1059.781706688
 30
0.0
 10
338.9947099838
 20
1059.7587615964
 30
0.0
 10
338.8801363817
 20
1059.7462884176
 30
0.0
  0
SPLINE
  5
487
330
21D
100
AcDbEntity
  8
0
  6
Continuous
 62
     9
100
AcDbSpline
210
0.0
220
0.0
230
1.0
 70
     8
 71
     3
 72
     9
 73
     5
 74
     0
 42
0.0000000001
 43
0.0000000001
 40
0.0
 40
0.0
 40
0.0
 40
0.0
 40
0.2176524599
 40
1.0
 40
1.0
 40
1.0
 40
1.0
 10
338.696249694
 20
1059.7274970616
 30
0.0
 10
338.6136417649
 20
1059.7195545117
 30
0.0
 10
338.233833816
 20
1059.6858451729
 30
0.0
 10
337.8532882193
 20
1059.6609848074
 30
0.0
 10
337.5554677171
 20
1059.6440443124
 30
0.0
  0
SPLINE
  5
488
330
21D
100
AcDbEntity
  8
0
  6
Continuous
 62
     9
100
AcDbSpline
210
0.0
220
0.0
230
1.0
 70
     8
 71
     3
 72
    11
 73
     7
 74
     0
 42
0.0000000001
 43
0.0000000001
 40
0.0
 40
0.0
 40
0.0
 40
0.0
 40
0.1288733734
 40
0.3399404315
 40
0.6313498949000001
 40
1.0
 40
1.0
 40
1.0
 40
1.0
 10
274.2120824998
 20
975.2149697374001
 30
0.0
 10
274.2365695242
 20
975.1112961705
 30
0.0
 10
274.2716132993
 20
974.8316587425
 30
0.0
 10
274.3183087795
 20
974.3122718282
 30
0.0
 10
274.3626594951
 20
973.5933046392
 30
0.0
 10
274.3889592951
 20
973.0483912335001
 30
0.0
 10
274.4021651559
 20
972.7439529733
 30
0.0
  0
SPLINE
  5
489
330
21D
100
AcDbEntity
  8
0
  6
Continuous
 62
     9
100
AcDbSpline
210
0.0
220
0.0
230
1.0
 70
     8
 71
     3
 72
     9
 73
     5
 74
     0
 42
0.0000000001
 43
0.0000000001
 40
0.0
 40
0.0
 40
0.0
 40
0.0
 40
0.3842631116
 40
1.0
 40
1.0
 40
1.0
 40
1.0
 10
370.5289753111
 20
975.2149697374001
 30
0.0
 10
370.5855851057
 20
975.1119938457001
 30
0.0
 10
370.6729552539
 20
974.8148395042999
 30
0.0
 10
370.7335053332
 20
974.5162897646
 30
0.0
 10
370.7658295944
 20
974.3307882163
 30
0.0
  0
SPLINE
  5
48A
330
21D
100
AcDbEntity
  8
0
  6
Continuous
 62
     9
100
AcDbSpline
210
0.0
220
0.0
230
1.0
 70
     8
 71
     3
 72
     9
 73
     5
 74
     0
 42
0.0000000001
 43
0.0000000001
 40
0.0
 40
0.0
 40
0.0
 40
0.0
 40
0.2719368280999999
 40
1.0
 40
1.0
 40
1.0
 40
1.0
 10
49.8020288158
 20
1059.6432476719
 30
0.0
 10
49.7212718079
 20
1059.647817496
 30
0.0
 10
49.4243475017
 20
1059.6653819033
 30
0.0
 10
49.12759209
 20
1059.6860440751
 30
0.0
 10
48.9117724916
 20
1059.7039196805
 30
0.0
  0
LINE
  5
48B
330
21D
100
AcDbEntity
  8
0
  6
Continuous
 62
     9
100
AcDbLine
 10
48.9117724916
 20
1059.7039196805
 30
0.0
 11
48.8837756167
 21
1059.7062554898
 31
0.0
1001
ACAD
1000
RTMaterial
1005
0
  0
SPLINE
  5
48C
330
21D
100
AcDbEntity
  8
0
  6
Continuous
 62
     9
100
AcDbSpline
210
0.0
220
0.0
230
1.0
 70
     8
 71
     3
 72
     9
 73
     5
 74
     0
 42
0.0000000001
 43
0.0000000001
 40
0.0
 40
0.0
 40
0.0
 40
0.0
 40
0.2682685865
 40
1.0
 40
1.0
 40
1.0
 40
1.0
 10
48.8837756167
 20
1059.7062554898
 30
0.0
 10
48.84613927970001
 20
1059.7094185179
 30
0.0
 10
48.7058761368
 20
1059.7215594957
 30
0.0
 10
48.5657324699
 20
1059.7351390127
 30
0.0
 10
48.46331852479999
 20
1059.7462884174
 30
0.0
  0
SPLINE
  5
48D
330
21D
100
AcDbEntity
  8
0
  6
Continuous
 62
     9
100
AcDbSpline
210
0.0
220
0.0
230
1.0
 70
     8
 71
     3
 72
    11
 73
     7
 74
     0
 42
0.0000000001
 43
0.0000000001
 40
0.0
 40
0.0
 40
0.0
 40
0.0
 40
0.4196693658
 40
0.7258929373000001
 40
0.9165465087999999
 40
1.0
 40
1.0
 40
1.0
 40
1.0
 10
48.46331852479999
 20
1059.7462884174
 30
0.0
 10
48.3487449272
 20
1059.7587615959
 30
0.0
 10
48.15337484949999
 20
1059.7817066839
 30
0.0
 10
47.8971050971
 20
1059.8273520978
 30
0.0
 10
47.7572937138
 20
1059.8616835926
 30
0.0
 10
47.6717211854
 20
1059.905199533
 30
0.0
 10
47.6717274563
 20
1059.9281177187
 30
0.0
  0
SPLINE
  5
48E
330
21D
100
AcDbEntity
  8
0
  6
Continuous
 62
     9
100
AcDbSpline
210
0.0
220
0.0
230
1.0
 70
     8
 71
     3
 72
    11
 73
     7
 74
     0
 42
0.0000000001
 43
0.0000000001
 40
0.0
 40
0.0
 40
0.0
 40
0.0
 40
0.083453507
 40
0.2741070477
 40
0.5803306193
 40
1.0
 40
1.0
 40
1.0
 40
1.0
 10
89.6717274563
 20
1059.9281177187
 30
0.0
 10
89.67173369420001
 20
1059.9051995285
 30
0.0
 10
89.58616122349999
 20
1059.8616836057
 30
0.0
 10
89.44634980020001
 20
1059.8273520868
 30
0.0
 10
89.19008007370001
 20
1059.781706688
 30
0.0
 10
88.99470998379999
 20
1059.7587615964
 30
0.0
 10
88.88013638169999
 20
1059.7462884176
 30
0.0
  0
SPLINE
  5
48F
330
21D
100
AcDbEntity
  8
0
  6
Continuous
 62
     9
100
AcDbSpline
210
0.0
220
0.0
230
1.0
 70
     8
 71
     3
 72
     9
 73
     5
 74
     0
 42
0.0000000001
 43
0.0000000001
 40
0.0
 40
0.0
 40
0.0
 40
0.0
 40
0.2176524599
 40
1.0
 40
1.0
 40
1.0
 40
1.0
 10
88.696249694
 20
1059.7274970616
 30
0.0
 10
88.61364176489999
 20
1059.7195545117
 30
0.0
 10
88.23383381600001
 20
1059.6858451729
 30
0.0
 10
87.85328821929999
 20
1059.6609848074
 30
0.0
 10
87.55546771709999
 20
1059.6440443124
 30
0.0
  0
SPLINE
  5
490
330
21D
100
AcDbEntity
  8
0
  6
Continuous
 62
     9
100
AcDbSpline
210
0.0
220
0.0
230
1.0
 70
     8
 71
     3
 72
    10
 73
     6
 74
     0
 42
0.0000000001
 43
0.0000000001
 40
0.0
 40
0.0
 40
0.0
 40
0.0
 40
0.1367970179
 40
0.349922543
 40
1.0
 40
1.0
 40
1.0
 40
1.0
 10
114.1310297378
 20
974.2204478419999
 30
0.0
 10
114.1119361751
 20
974.1437008419
 30
0.0
 10
114.0820798664
 20
973.9430934055999
 30
0.0
 10
114.0216750213
 20
973.3683895061998
 30
0.0
 10
113.9921765644
 20
972.8698229355
 30
0.0
 10
113.9717399987
 20
972.4945497686999
 30
0.0
  0
SPLINE
  5
491
330
21D
100
AcDbEntity
  8
0
  6
Continuous
 62
     9
100
AcDbSpline
210
0.0
220
0.0
230
1.0
 70
     8
 71
     3
 72
     9
 73
     5
 74
     0
 42
0.0000000001
 43
0.0000000001
 40
0.0
 40
0.0
 40
0.0
 40
0.0
 40
0.2178262294
 40
1.0
 40
1.0
 40
1.0
 40
1.0
 10
113.9717399987
 20
972.4945497686999
 30
0.0
 10
113.9636929971
 20
972.3467840525
 30
0.0
 10
113.9293647555
 20
971.6682765874001
 30
0.0
 10
113.9033769663
 20
970.9893709535
 30
0.0
 10
113.885383567
 20
970.4582900715999
 30
0.0
  0
SPLINE
  5
492
330
21D
100
AcDbEntity
  8
0
  6
Continuous
 62
     9
100
AcDbSpline
210
0.0
220
0.0
230
1.0
 70
     8
 71
     3
 72
     9
 73
     5
 74
     0
 42
0.0000000001
 43
0.0000000001
 40
0.0
 40
0.0
 40
0.0
 40
0.0
 40
0.3491273304
 40
1.0
 40
1.0
 40
1.0
 40
1.0
 10
114.2877825615
 20
974.9462037441
 30
0.0
 10
114.2863574881
 20
974.9258460131001
 30
0.0
 10
114.2814123473
 20
974.8677074160999
 30
0.0
 10
114.2777550721
 20
974.8088544872999
 30
0.0
 10
114.2684367466
 20
974.7719678080001
 30
0.0
  0
SPLINE
  5
493
330
21D
100
AcDbEntity
  8
0
  6
Continuous
 62
     9
100
AcDbSpline
210
0.0
220
0.0
230
1.0
 70
     8
 71
     3
 72
     9
 73
     5
 74
     0
 42
0.0000000001
 43
0.0000000001
 40
0.0
 40
0.0
 40
0.0
 40
0.0
 40
0.3490846169
 40
1.0
 40
1.0
 40
1.0
 40
1.0
 10
273.0556741771
 20
974.9461546022001
 30
0.0
 10
273.0570911882
 20
974.9258044769
 30
0.0
 10
273.0619861272
 20
974.8676703015
 30
0.0
 10
273.0658662599
 20
974.8088878437
 30
0.0
 10
273.0750181661
 20
974.7719678080001
 30
0.0
  0
SPLINE
  5
494
330
21D
100
AcDbEntity
  8
0
  6
Continuous
 62
     9
100
AcDbSpline
210
0.0
220
0.0
230
1.0
 70
     8
 71
     3
 72
    16
 73
    12
 74
     0
 42
0.0000000001
 43
0.0000000001
 40
0.0
 40
0.0
 40
0.0
 40
0.0
 40
0.0139670118
 40
0.0361836649
 40
0.0665152151
 40
0.1047020164
 40
0.2033036653
 40
0.3286179761
 40
0.4763283388000001
 40
0.6413330291000001
 40
1.0
 40
1.0
 40
1.0
 40
1.0
 10
273.2124251749
 20
974.2204478419999
 30
0.0
 10
273.2336194285
 20
974.1352550846
 30
0.0
 10
273.2656561112
 20
973.9094390244
 30
0.0
 10
273.3076026597
 20
973.4937298886999
 30
0.0
 10
273.3481235686
 20
972.9246643308
 30
0.0
 10
273.4065922662
 20
971.8759135053998
 30
0.0
 10
273.4696685192
 20
970.2295286953001
 30
0.0
 10
273.5324681888
 20
967.894525236
 30
0.0
 10
273.5833976241
 20
965.1417271181999
 30
0.0
 10
273.6345219186
 20
960.9220587621001
 30
0.0
 10
273.6475070374
 20
957.6304724969999
 30
0.0
 10
273.6460866196
 20
955.3760747377999
 30
0.0
  0
LINE
  5
495
330
21D
100
AcDbEntity
  8
0
  6
Continuous
 62
     9
100
AcDbLine
 10
273.6460866196
 20
955.3760747377999
 30
0.0
 11
273.6460514813
 21
955.3234211564999
 31
0.0
1001
ACAD
1000
RTMaterial
1005
0
  0
SPLINE
  5
496
330
21D
100
AcDbEntity
  8
0
  6
Continuous
 62
     9
100
AcDbSpline
210
0.0
220
0.0
230
1.0
 70
     8
 71
     3
 72
    14
 73
    10
 74
     0
 42
0.0000000001
 43
0.0000000001
 40
0.0
 40
0.0
 40
0.0
 40
0.0
 40
0.4031200628000001
 40
0.5756009644
 40
0.7227940331
 40
0.8412050481000001
 40
0.9281071560999999
 40
0.9812801002
 40
1.0
 40
1.0
 40
1.0
 40
1.0
 10
273.6216796953
 20
950.0075070634
 30
0.0
 10
273.6208791416
 20
949.9152104733999
 30
0.0
 10
273.6192762381
 20
949.7832858203999
 30
0.0
 10
273.6154866603
 20
949.6181567208999
 30
0.0
 10
273.6127929153
 20
949.5171630580999
 30
0.0
 10
273.6086207235
 20
949.4384946522998
 30
0.0
 10
273.6071222063
 20
949.3747719421001
 30
0.0
 10
273.6001647104
 20
949.3469314478998
 30
0.0
 10
273.6011060489
 20
949.3217103243999
 30
0.0
 10
273.5968206552
 20
949.3217927776999
 30
0.0
  0
LINE
  5
497
330
21D
100
AcDbEntity
  8
0
  6
Continuous
 62
     9
100
AcDbLine
 10
273.4915791729
 20
942.2861360869999
 30
0.0
 11
273.4940004679
 21
941.3100074447999
 31
0.0
1001
ACAD
1000
RTMaterial
1005
0
  0
SPLINE
  5
498
330
21D
100
AcDbEntity
  8
0
  6
Continuous
 62
     9
100
AcDbSpline
210
0.0
220
0.0
230
1.0
 70
     8
 71
     3
 72
     8
 73
     4
 74
     0
 42
0.0000000001
 43
0.0000000001
 40
0.0
 40
0.0
 40
0.0
 40
0.0
 40
1.0
 40
1.0
 40
1.0
 40
1.0
 10
89.6717274563
 20
1059.9281177187
 30
0.0
 10
89.50722048940001
 20
1059.9281177187
 30
0.0
 10
89.33816129350001
 20
1059.8846540495
 30
0.0
 10
89.19344553770001
 20
1059.8064243096
 30
0.0
  0
SPLINE
  5
49B
330
21D
100
AcDbEntity
  8
0
  6
Continuous
 62
     9
100
AcDbSpline
210
0.0
220
0.0
230
1.0
 70
     8
 71
     3
 72
    11
 73
     7
 74
     0
 42
0.0000000001
 43
0.0000000001
 40
0.0
 40
0.0
 40
0.0
 40
0.0
 40
0.249309604
 40
0.4993047392000001
 40
0.7496994085999999
 40
1.0
 40
1.0
 40
1.0
 40
1.0
 10
15.0922231195
 20
977.7555334941
 30
0.0
 10
15.0936408396
 20
977.4974467466
 30
0.0
 10
15.2001014944
 20
976.9755680165999
 30
0.0
 10
15.6452926453
 20
976.3164770883999
 30
0.0
 10
16.3070870383
 20
975.8736629399001
 30
0.0
 10
16.8303695016
 20
975.7679013739
 30
0.0
 10
17.089482189
 20
975.7664897034
 30
0.0
  0
SPLINE
  5
49C
330
21D
100
AcDbEntity
  8
0
  6
Continuous
 62
     9
100
AcDbSpline
210
0.0
220
0.0
230
1.0
 70
     8
 71
     3
 72
    11
 73
     7
 74
     0
 42
0.0000000001
 43
0.0000000001
 40
0.0
 40
0.0
 40
0.0
 40
0.0
 40
0.2493427155
 40
0.4993305047
 40
0.7497096253
 40
1.0
 40
1.0
 40
1.0
 40
1.0
 10
14.817220532
 20
977.2040135280999
 30
0.0
 10
14.81863844
 20
976.9458925850001
 30
0.0
 10
14.9251262675
 20
976.4239870872998
 30
0.0
 10
15.3703463529
 20
975.7649067655
 30
0.0
 10
16.03212222099999
 20
975.3221303966
 30
0.0
 10
16.5553775726
 20
975.2163813499
 30
0.0
 10
16.8144796015
 20
975.2149697374001
 30
0.0
  0
SPLINE
  5
49E
330
21D
100
AcDbEntity
  8
0
  6
Continuous
 62
     9
100
AcDbSpline
210
0.0
220
0.0
230
1.0
 70
     8
 71
     3
 72
    11
 73
     7
 74
     0
 42
0.0000000001
 43
0.0000000001
 40
0.0
 40
0.0
 40
0.0
 40
0.0
 40
0.2493096073
 40
0.4993047325
 40
0.7496994097
 40
1.0
 40
1.0
 40
1.0
 40
1.0
 10
372.2512317932
 20
977.7555334941
 30
0.0
 10
372.2498140731
 20
977.4974467431
 30
0.0
 10
372.1433534178
 20
976.9755680199001
 30
0.0
 10
371.6981622693
 20
976.3164770914
 30
0.0
 10
371.0363678803
 20
975.8736629401999
 30
0.0
 10
370.51308541
 20
975.7679013739
 30
0.0
 10
370.2539727237
 20
975.7664897034
 30
0.0
  0
SPLINE
  5
49F
330
21D
100
AcDbEntity
  8
0
  6
Continuous
 62
     9
100
AcDbSpline
210
0.0
220
0.0
230
1.0
 70
     8
 71
     3
 72
    11
 73
     7
 74
     0
 42
0.0000000001
 43
0.0000000001
 40
0.0
 40
0.0
 40
0.0
 40
0.0
 40
0.2493427223
 40
0.4993305143
 40
0.7497096305
 40
1.0
 40
1.0
 40
1.0
 40
1.0
 10
372.5262343806
 20
977.2040135280999
 30
0.0
 10
372.5248164727
 20
976.9458925781
 30
0.0
 10
372.4183286385
 20
976.4239870703999
 30
0.0
 10
371.9731085427
 20
975.7649067488999
 30
0.0
 10
371.3113326762
 20
975.3221303910001
 30
0.0
 10
370.7880773347
 20
975.2163813499
 30
0.0
 10
370.5289753111
 20
975.2149697374001
 30
0.0
  0
SPLINE
  5
4A0
330
21D
100
AcDbEntity
  8
0
  6
Continuous
 62
     9
100
AcDbSpline
210
0.0
220
0.0
230
1.0
 70
     8
 71
     3
 72
     8
 73
     4
 74
     0
 42
0.0000000001
 43
0.0000000001
 40
0.0
 40
0.0
 40
0.0
 40
0.0
 40
1.0
 40
1.0
 40
1.0
 40
1.0
 10
47.6717274563
 20
1059.9281177187
 30
0.0
 10
47.83620468
 20
1059.9281177187
 30
0.0
 10
48.00523170579999
 20
1059.8846705316
 30
0.0
 10
48.1499284716
 20
1059.8064682102
 30
0.0
  0
SPLINE
  5
4A1
330
21D
100
AcDbEntity
  8
0
  6
Continuous
 62
     9
100
AcDbSpline
210
0.0
220
0.0
230
1.0
 70
     8
 71
     3
 72
     8
 73
     4
 74
     0
 42
0.0000000001
 43
0.0000000001
 40
0.0
 40
0.0
 40
0.0
 40
0.0
 40
1.0
 40
1.0
 40
1.0
 40
1.0
 10
339.6717274563
 20
1059.9281177187
 30
0.0
 10
339.5072204894
 20
1059.9281177187
 30
0.0
 10
339.3381612935
 20
1059.8846540495
 30
0.0
 10
339.1934455377001
 20
1059.8064243096
 30
0.0
  0
SPLINE
  5
4A2
330
21D
100
AcDbEntity
  8
0
  6
Continuous
 62
     9
100
AcDbSpline
210
0.0
220
0.0
230
1.0
 70
     8
 71
     3
 72
     8
 73
     4
 74
     0
 42
0.0000000001
 43
0.0000000001
 40
0.0
 40
0.0
 40
0.0
 40
0.0
 40
1.0
 40
1.0
 40
1.0
 40
1.0
 10
272.6717274563
 20
1059.9281177187
 30
0.0
 10
272.83620468
 20
1059.9281177187
 30
0.0
 10
273.0052317058
 20
1059.8846705316
 30
0.0
 10
273.1499284716
 20
1059.8064682102
 30
0.0
  0
SPLINE
  5
4A4
330
21D
100
AcDbEntity
  8
0
  6
Continuous
 62
     9
100
AcDbSpline
210
0.0
220
0.0
230
1.0
 70
     8
 71
     3
 72
     9
 73
     5
 74
     0
 42
0.0000000001
 43
0.0000000001
 40
0.0
 40
0.0
 40
0.0
 40
0.0
 40
0.3770431279999999
 40
1.0
 40
1.0
 40
1.0
 40
1.0
 10
113.1313724128
 20
975.2149697374001
 30
0.0
 10
113.1057622309
 20
975.1065421962
 30
0.0
 10
113.0698165513
 20
974.8123129282001
 30
0.0
 10
113.0436200167
 20
974.5183217714998
 30
0.0
 10
113.0298357061
 20
974.3347635033
 30
0.0
  0
LINE
  5
4A5
330
21D
100
AcDbEntity
  8
0
  6
Continuous
 62
     9
100
AcDbLine
 10
113.0298357061
 20
974.3347635033
 30
0.0
 11
113.0268816208
 21
974.2949997564998
 31
0.0
1001
ACAD
1000
RTMaterial
1005
0
  0
SPLINE
  5
4A6
330
21D
100
AcDbEntity
  8
0
  6
Continuous
 62
     7
100
AcDbSpline
210
0.0
220
0.0
230
1.0
 70
     8
 71
     3
 72
     9
 73
     5
 74
     0
 42
0.0000000001
 43
0.0000000001
 40
0.0
 40
0.0
 40
0.0
 40
0.0
 40
0.2787288747
 40
1.0
 40
1.0
 40
1.0
 40
1.0
 10
272.7645009838
 20
972.9138150214
 30
0.0
 10
272.7783227465
 20
972.9141102583
 30
0.0
 10
272.8279106188
 20
972.9151844183999
 30
0.0
 10
272.8774990696
 20
972.9163525486999
 30
0.0
 10
272.9132513296
 20
972.9176265782999
 30
0.0
  0
SPLINE
  5
4A7
330
21D
100
AcDbEntity
  8
0
  6
Continuous
 62
     7
100
AcDbSpline
210
0.0
220
0.0
230
1.0
 70
     8
 71
     3
 72
    10
 73
     6
 74
     0
 42
0.0000000001
 43
0.0000000001
 40
0.0
 40
0.0
 40
0.0
 40
0.0
 40
0.7177568696
 40
0.9151083662999999
 40
1.0
 40
1.0
 40
1.0
 40
1.0
 10
272.9132513296
 20
972.9176265782999
 30
0.0
 10
272.9474902493
 20
972.9188466801
 30
0.0
 10
272.9923738618
 20
972.9192542117001
 30
0.0
 10
273.037829375
 20
972.9264840049001
 30
0.0
 10
273.0527230647
 20
972.9269860730001
 30
0.0
 10
273.0556728319
 20
972.9297643124999
 30
0.0
  0
SPLINE
  5
4A8
330
21D
100
AcDbEntity
  8
0
  6
Continuous
 62
     7
100
AcDbSpline
210
0.0
220
0.0
230
1.0
 70
     8
 71
     3
 72
    11
 73
     7
 74
     0
 42
0.0000000001
 43
0.0000000001
 40
0.0
 40
0.0
 40
0.0
 40
0.0
 40
0.0801087068
 40
0.2782964558
 40
0.5882321743
 40
1.0
 40
1.0
 40
1.0
 40
1.0
 10
114.2877820807
 20
972.9297643124999
 30
0.0
 10
114.29345734
 20
972.9244190672
 30
0.0
 10
114.3242385746
 20
972.9268641293
 30
0.0
 10
114.3780748104
 20
972.9182958808999
 30
0.0
 10
114.4692475072
 20
972.9164711366999
 30
0.0
 10
114.538886923
 20
972.9130170666
 30
0.0
 10
114.5789428256
 20
972.9118404621001
 30
0.0
  0
SPLINE
  5
4A9
330
21D
100
AcDbEntity
  8
0
  6
Continuous
 62
     9
100
AcDbSpline
210
0.0
220
0.0
230
1.0
 70
     8
 71
     3
 72
     9
 73
     5
 74
     0
 42
0.0000000001
 43
0.0000000001
 40
0.0
 40
0.0
 40
0.0
 40
0.0
 40
0.6157345512
 40
1.0
 40
1.0
 40
1.0
 40
1.0
 10
16.5776335363
 20
974.3308353791999
 30
0.0
 10
16.6099567988
 20
974.5163264162
 30
0.0
 10
16.6705050049
 20
974.8148604424001
 30
0.0
 10
16.7578723934
 20
975.111998596
 30
0.0
 10
16.8144796015
 20
975.2149697374001
 30
0.0
  0
SPLINE
  5
4AA
330
21D
100
AcDbEntity
  8
0
  6
Continuous
 62
     9
100
AcDbSpline
210
0.0
220
0.0
230
1.0
 70
     8
 71
     3
 72
     9
 73
     5
 74
     0
 42
0.0000000001
 43
0.0000000001
 40
0.0
 40
0.0
 40
0.0
 40
0.0
 40
0.5004366046000001
 40
1.0
 40
1.0
 40
1.0
 40
1.0
 10
113.1313724128
 20
975.2149697374001
 30
0.0
 10
113.3133236943
 20
975.2144744333
 30
0.0
 10
113.6837211053
 20
975.1107641811998
 30
0.0
 10
113.9435120547
 20
974.8263859549
 30
0.0
 10
114.0247437896
 20
974.6639283130001
 30
0.0
  0
SPLINE
  5
4AB
330
21D
100
AcDbEntity
  8
0
  6
Continuous
 62
     9
100
AcDbSpline
210
0.0
220
0.0
230
1.0
 70
     8
 71
     3
 72
     8
 73
     4
 74
     0
 42
0.0000000001
 43
0.0000000001
 40
0.0
 40
0.0
 40
0.0
 40
0.0
 40
1.0
 40
1.0
 40
1.0
 40
1.0
 10
114.0247437896
 20
974.6639283130001
 30
0.0
 10
114.0927280308
 20
974.5279647078
 30
0.0
 10
114.1306116479
 20
974.3724602894999
 30
0.0
 10
114.1310297378
 20
974.2204478419999
 30
0.0
  0
SPLINE
  5
4AC
330
21D
100
AcDbEntity
  8
0
  6
Continuous
 62
     9
100
AcDbSpline
210
0.0
220
0.0
230
1.0
 70
     8
 71
     3
 72
     9
 73
     5
 74
     0
 42
0.0000000001
 43
0.0000000001
 40
0.0
 40
0.0
 40
0.0
 40
0.0
 40
0.5009077448000001
 40
1.0
 40
1.0
 40
1.0
 40
1.0
 10
113.2687794216
 20
975.7664897034
 30
0.0
 10
113.5234630869
 20
975.7657964087
 30
0.0
 10
114.0525863775
 20
975.5542429164998
 30
0.0
 10
114.2677388123
 20
975.0257283785
 30
0.0
 10
114.2684367466
 20
974.7719678080001
 30
0.0
  0
SPLINE
  5
4AE
330
21D
100
AcDbEntity
  8
0
  6
Continuous
 62
     7
100
AcDbSpline
210
0.0
220
0.0
230
1.0
 70
     8
 71
     3
 72
    11
 73
     7
 74
     0
 42
0.0000000001
 43
0.0000000001
 40
0.0
 40
0.0
 40
0.0
 40
0.0
 40
0.2499769321
 40
0.4999357915
 40
0.7499349453000001
 40
1.0
 40
1.0
 40
1.0
 40
1.0
 10
114.4282978451
 20
942.7092501262
 30
0.0
 10
114.5231616758
 20
942.0018084339
 30
0.0
 10
114.9725015057
 20
940.6085513229999
 30
0.0
 10
116.3350347277
 20
938.8986437569
 30
0.0
 10
118.2106647427
 20
937.7743916027
 30
0.0
 10
119.6518041016
 20
937.5143982460999
 30
0.0
 10
120.3658293956
 20
937.5145958117
 30
0.0
  0
SPLINE
  5
4AF
330
21D
100
AcDbEntity
  8
0
  6
Continuous
 62
     7
100
AcDbSpline
210
0.0
220
0.0
230
1.0
 70
     8
 71
     3
 72
     8
 73
     4
 74
     0
 42
0.0000000001
 43
0.0000000001
 40
0.0
 40
0.0
 40
0.0
 40
0.0
 40
1.0
 40
1.0
 40
1.0
 40
1.0
 10
120.3658293956
 20
937.5145958117
 30
0.0
 10
169.5697614357
 20
937.5147832918999
 30
0.0
 10
218.7736934769
 20
937.5147832918999
 30
0.0
 10
267.9776255171
 20
937.5145958117
 30
0.0
  0
SPLINE
  5
4B0
330
21D
100
AcDbEntity
  8
7_ALL_FEATURES
  6
Continuous
 62
     9
100
AcDbSpline
210
0.0
220
0.0
230
1.0
 70
     8
 71
     3
 72
     8
 73
     4
 74
     0
 42
0.0000000001
 43
0.0000000001
 40
0.0
 40
0.0
 40
0.0
 40
0.0
 40
1.0
 40
1.0
 40
1.0
 40
1.0
 10
378.2519830143
 20
661.2697379628
 30
0.0
 10
378.2415365659
 20
660.3870270563
 30
0.0
 10
378.2311157486
 20
659.5043157323999
 30
0.0
 10
378.2201320589
 20
658.6216113473
 30
0.0
  0
SPLINE
  5
4B1
330
21D
100
AcDbEntity
  8
7_ALL_FEATURES
  6
Continuous
 62
     9
100
AcDbSpline
210
0.0
220
0.0
230
1.0
 70
     8
 71
     3
 72
    15
 73
    11
 74
     0
 42
0.0000000001
 43
0.0000000001
 40
0.0
 40
0.0
 40
0.0
 40
0.0
 40
0.1249500341
 40
0.2499051785
 40
0.3748699557
 40
0.4998490249
 40
0.6248470082999999
 40
0.7498685414000001
 40
0.8749154487999998
 40
1.0
 40
1.0
 40
1.0
 40
1.0
 10
378.2201320589
 20
658.6216113473
 30
0.0
 10
378.0869537861
 20
647.9187452262999
 30
0.0
 10
375.9469763504
 20
626.4895718091
 30
0.0
 10
367.2346878809
 20
595.4210643410999
 30
0.0
 10
353.2799809216001
 20
566.3141323670999
 30
0.0
 10
334.5014312479
 20
540.0576339604
 30
0.0
 10
311.4628232413
 20
517.4394584082
 30
0.0
 10
284.8522631061
 20
499.1430002116
 30
0.0
 10
255.4813071633
 20
485.7226890034
 30
0.0
 10
234.620572009
 20
480.2956588093
 30
0.0
 10
224.0556669916
 20
478.5071742489
 30
0.0
  0
SPLINE
  5
4B3
330
21D
100
AcDbEntity
  8
0
  6
Continuous
 62
     9
100
AcDbSpline
210
0.0
220
0.0
230
1.0
 70
     8
 71
     3
 72
    12
 73
     8
 74
     0
 42
0.0000000001
 43
0.0000000001
 40
0.0
 40
0.0
 40
0.0
 40
0.0
 40
0.0133553019
 40
0.0656626404
 40
0.2794400018
 40
0.6091758471000001
 40
1.0
 40
1.0
 40
1.0
 40
1.0
 10
114.4283395748
 20
942.7092557625
 30
0.0
 10
114.4324923756
 20
942.7076104283999
 30
0.0
 10
114.3898371121
 20
942.6957565532001
 30
0.0
 10
114.3362571296
 20
942.6878015207
 30
0.0
 10
114.1003965426
 20
942.6452549508999
 30
0.0
 10
113.8124129015
 20
942.6048090211999
 30
0.0
 10
113.5676585905
 20
942.569918378
 30
0.0
 10
113.4381220519
 20
942.5523943105
 30
0.0
  0
SPLINE
  5
4B4
330
21D
100
AcDbEntity
  8
0
  6
Continuous
 62
     9
100
AcDbSpline
210
0.0
220
0.0
230
1.0
 70
     8
 71
     3
 72
    11
 73
     7
 74
     0
 42
0.0000000001
 43
0.0000000001
 40
0.0
 40
0.0
 40
0.0
 40
0.0
 40
0.0643711802
 40
0.2783537654
 40
0.6088627151
 40
1.0
 40
1.0
 40
1.0
 40
1.0
 10
273.0843335174
 20
940.3723420087001
 30
0.0
 10
273.0627088471
 20
940.3743804699999
 30
0.0
 10
273.2347879102
 20
940.2731534228999
 30
0.0
 10
273.3131950803
 20
940.2079881717998
 30
0.0
 10
273.6298386405
 20
940.0148247330001
 30
0.0
 10
273.8227811744
 20
939.8939450883
 30
0.0
 10
273.9353520776
 20
939.8250500584
 30
0.0
  0
LINE
  5
4B5
330
21D
100
AcDbEntity
  8
0
  6
Continuous
 62
     9
100
AcDbLine
 10
120.3657203917
 20
936.4942280060001
 30
0.0
 11
267.977734521
 21
936.4942280060001
 31
0.0
1001
ACAD
1000
RTMaterial
1005
0
  0
LINE
  5
4C1
330
21D
100
AcDbEntity
  8
7_ALL_FEATURES
  6
Continuous
 62
     9
100
AcDbLine
 10
380.2388082146
 20
661.2875865733999
 30
0.0
 11
380.2062710272
 21
658.6425790465
 31
0.0
1001
ACAD
1000
RTMaterial
1005
0
  0
LINE
  5
4C2
330
21D
100
AcDbEntity
  8
7_ALL_FEATURES
  6
Continuous
 62
     9
100
AcDbLine
 10
8.1371839044
 20
658.6425790383999
 30
0.0
 11
8.104646716699999
 21
661.2875865651999
 31
0.0
1001
ACAD
1000
RTMaterial
1005
0
  0
SPLINE
  5
4C3
330
21D
100
AcDbEntity
  8
0
  6
Continuous
 62
     9
100
AcDbSpline
210
0.0
220
0.0
230
1.0
 70
     8
 71
     3
 72
    14
 73
    10
 74
     0
 42
0.0000000001
 43
0.0000000001
 40
0.0
 40
0.0
 40
0.0
 40
0.0
 40
0.0201361527
 40
0.0700003943
 40
0.1510437492
 40
0.2630144826
 40
0.4050677135000001
 40
0.5761761073000001
 40
1.0
 40
1.0
 40
1.0
 40
1.0
 10
112.7752220896
 20
974.3216039236001
 30
0.0
 10
112.8057949906
 20
974.3215779591
 30
0.0
 10
112.8509738393
 20
974.1869661424001
 30
0.0
 10
112.8939192774
 20
973.9924735835002
 30
0.0
 10
112.9457513707
 20
973.6104202935001
 30
0.0
 10
112.9945609928
 20
973.1112137450999
 30
0.0
 10
113.0437903086
 20
972.4648263526999
 30
0.0
 10
113.1113712553
 20
971.3491649605
 30
0.0
 10
113.150768088
 20
970.4460903292
 30
0.0
 10
113.1752815785
 20
969.8030615649999
 30
0.0
  0
SPLINE
  5
4C4
330
21D
100
AcDbEntity
  8
0
  6
Continuous
 62
     9
100
AcDbSpline
210
0.0
220
0.0
230
1.0
 70
     8
 71
     3
 72
     9
 73
     5
 74
     0
 42
0.0000000001
 43
0.0000000001
 40
0.0
 40
0.0
 40
0.0
 40
0.0
 40
0.4505430901
 40
1.0
 40
1.0
 40
1.0
 40
1.0
 10
113.1752815785
 20
969.8030615649999
 30
0.0
 10
113.2579591552
 20
967.6342941321999
 30
0.0
 10
113.3584069814
 20
962.8176385119999
 30
0.0
 10
113.388198734
 20
958.0004847532
 30
0.0
 10
113.3860014567
 20
955.3536581797001
 30
0.0
  0
SPLINE
  5
4C6
330
21D
100
AcDbEntity
  8
0
  6
Continuous
 62
     9
100
AcDbSpline
210
0.0
220
0.0
230
1.0
 70
     8
 71
     3
 72
    14
 73
    10
 74
     0
 42
0.0000000001
 43
0.0000000001
 40
0.0
 40
0.0
 40
0.0
 40
0.0
 40
0.0201320535
 40
0.0770962556
 40
0.1693214614
 40
0.2935663745
 40
0.4449728220000001
 40
0.6183490957
 40
1.0
 40
1.0
 40
1.0
 40
1.0
 10
114.3754873638
 20
943.5154789505
 30
0.0
 10
114.3750856015
 20
943.5087737514999
 30
0.0
 10
114.3359110741
 20
943.5135423407999
 30
0.0
 10
114.292200474
 20
943.5019408249999
 30
0.0
 10
114.1941153029
 20
943.5021865721001
 30
0.0
 10
114.0743231573
 20
943.4969333094999
 30
0.0
 10
113.9234801091
 20
943.4946766047
 30
0.0
 10
113.6882309856
 20
943.4915473525
 30
0.0
 10
113.5028566028
 20
943.490945753
 30
0.0
 10
113.3755157003
 20
943.4910582395
 30
0.0
  0
SPLINE
  5
4C7
330
21D
100
AcDbEntity
  8
7_ALL_FEATURES
  6
Continuous
 62
     9
100
AcDbSpline
210
0.0
220
0.0
230
1.0
 70
     8
 71
     3
 72
    15
 73
    11
 74
     0
 42
0.0000000001
 43
0.0000000001
 40
0.0
 40
0.0
 40
0.0
 40
0.0
 40
0.1249508916
 40
0.2499063015
 40
0.3748712213
 40
0.4998503066
 40
0.6248481641
 40
0.7498694334
 40
0.8749159268000001
 40
1.0
 40
1.0
 40
1.0
 40
1.0
 10
380.2063109290001
 20
658.6425961553
 30
0.0
 10
380.068081385
 20
647.8249608925
 30
0.0
 10
377.9060085994999
 20
626.1663469702999
 30
0.0
 10
369.1003259149
 20
594.7644176213
 30
0.0
 10
354.9963911229
 20
565.3452950772
 30
0.0
 10
336.016606666
 20
538.8072094214
 30
0.0
 10
312.731070792
 20
515.9465534918
 30
0.0
 10
285.8352888606
 20
497.4539540218
 30
0.0
 10
256.1495093136
 20
483.8899748248
 30
0.0
 10
235.0652716212
 20
478.404483683
 30
0.0
 10
224.387121791
 20
476.5969746180999
 30
0.0
  0
SPLINE
  5
4C8
330
21D
100
AcDbEntity
  8
0
  6
Continuous
 62
     9
100
AcDbSpline
210
0.0
220
0.0
230
1.0
 70
     8
 71
     3
 72
     9
 73
     5
 74
     0
 42
0.0000000001
 43
0.0000000001
 40
0.0
 40
0.0
 40
0.0
 40
0.0
 40
0.5494828144000001
 40
1.0
 40
1.0
 40
1.0
 40
1.0
 10
274.957453456
 20
955.3536581797001
 30
0.0
 10
274.9552550684
 20
958.0010452944
 30
0.0
 10
274.9850608238
 20
962.8189919337
 30
0.0
 10
275.0855449464
 20
967.636440613
 30
0.0
 10
275.1682639476
 20
969.8054391219001
 30
0.0
  0
SPLINE
  5
4C9
330
21D
100
AcDbEntity
  8
0
  6
Continuous
 62
     9
100
AcDbSpline
210
0.0
220
0.0
230
1.0
 70
     8
 71
     3
 72
    14
 73
    10
 74
     0
 42
0.0000000001
 43
0.0000000001
 40
0.0
 40
0.0
 40
0.0
 40
0.0
 40
0.4238197828
 40
0.5949252235
 40
0.7369761742000001
 40
0.8489462012
 40
0.9299910106
 40
0.9798587029
 40
1.0
 40
1.0
 40
1.0
 40
1.0
 10
275.1682639476
 20
969.8054391219001
 30
0.0
 10
275.1927740021
 20
970.4481242488999
 30
0.0
 10
275.2321638132
 20
971.3507137814
 30
0.0
 10
275.2997299834
 20
972.4657760080999
 30
0.0
 10
275.3489460079
 20
973.1118124016999
 30
0.0
 10
275.3977448605
 20
973.6107593046
 30
0.0
 10
275.4495573627
 20
973.9926048407001
 30
0.0
 10
275.4925005251
 20
974.1870290809
 30
0.0
 10
275.5376569235
 20
974.3215612892999
 30
0.0
 10
275.5682215922
 20
974.3216008316
 30
0.0
  0
SPLINE
  5
4CA
330
21D
100
AcDbEntity
  8
0
  6
Continuous
 62
     9
100
AcDbSpline
210
0.0
220
0.0
230
1.0
 70
     8
 71
     3
 72
    11
 73
     7
 74
     0
 42
0.0000000001
 43
0.0000000001
 40
0.0
 40
0.0
 40
0.0
 40
0.0
 40
0.0687087027
 40
0.2608611278000001
 40
0.5731207229000001
 40
1.0
 40
1.0
 40
1.0
 40
1.0
 10
114.3859731561
 20
955.3780788403999
 30
0.0
 10
114.3857073671
 20
955.3736508904
 30
0.0
 10
114.3605013752
 20
955.3752096113999
 30
0.0
 10
114.331551661
 20
955.3679028282999
 30
0.0
 10
114.2670586124
 20
955.3668028697
 30
0.0
 10
114.2208087746
 20
955.3642385118999
 30
0.0
 10
114.1932645798
 20
955.3633094039998
 30
0.0
  0
SPLINE
  5
4CB
330
21D
100
AcDbEntity
  8
0
  6
Continuous
 62
     9
100
AcDbSpline
210
0.0
220
0.0
230
1.0
 70
     8
 71
     3
 72
     9
 73
     5
 74
     0
 42
0.0000000001
 43
0.0000000001
 40
0.0
 40
0.0
 40
0.0
 40
0.0
 40
0.1975496243
 40
1.0
 40
1.0
 40
1.0
 40
1.0
 10
114.1932645798
 20
955.3633094039998
 30
0.0
 10
114.1401314708
 20
955.3615171428999
 30
0.0
 10
113.8710909343
 20
955.3549132063999
 30
0.0
 10
113.6019518348
 20
955.3534674151
 30
0.0
 10
113.3860014567
 20
955.3536581797001
 30
0.0
  0
SPLINE
  5
4CC
330
21D
100
AcDbEntity
  8
7_ALL_FEATURES
  6
Continuous
 62
     9
100
AcDbSpline
210
0.0
220
0.0
230
1.0
 70
     8
 71
     3
 72
    15
 73
    11
 74
     0
 42
0.0000000001
 43
0.0000000001
 40
0.0
 40
0.0
 40
0.0
 40
0.0
 40
0.1250845375
 40
0.2501318656
 40
0.3751536148
 40
0.5001515867000001
 40
0.6251305055
 40
0.7500950203
 40
0.8750498378999999
 40
1.0
 40
1.0
 40
1.0
 40
1.0
 10
163.9563331217
 20
476.5969746180999
 30
0.0
 10
153.2781444645
 20
478.4044945539
 30
0.0
 10
132.1937951777
 20
483.8900101561
 30
0.0
 10
102.5078994325
 20
497.4541130497
 30
0.0
 10
75.61204712510001
 20
515.9468287055999
 30
0.0
 10
52.32654090029999
 20
538.8075692935
 30
0.0
 10
33.3468462679
 20
565.3456692644
 30
0.0
 10
19.2430198768
 20
594.7647299895
 30
0.0
 10
10.4374228658
 20
626.1665253827
 30
0.0
 10
8.2753727026
 20
647.8250241587999
 30
0.0
 10
8.137143983699999
 20
658.6425961553
 30
0.0
  0
SPLINE
  5
4CE
330
21D
100
AcDbEntity
  8
0
  6
Continuous
 62
     9
100
AcDbSpline
210
0.0
220
0.0
230
1.0
 70
     8
 71
     3
 72
    14
 73
    10
 74
     0
 42
0.0000000001
 43
0.0000000001
 40
0.0
 40
0.0
 40
0.0
 40
0.0
 40
0.020132045
 40
0.0770963335
 40
0.1693217749
 40
0.2935670898
 40
0.444973668
 40
0.6183495705
 40
1.0
 40
1.0
 40
1.0
 40
1.0
 10
273.9574817438001
 20
955.3780788969
 30
0.0
 10
273.9578834638
 20
955.3713736978
 30
0.0
 10
273.9970581446
 20
955.3761423613
 30
0.0
 10
274.0407687188
 20
955.3645407832
 30
0.0
 10
274.1388542165
 20
955.3647865463998
 30
0.0
 10
274.2586465886
 20
955.3595332341998
 30
0.0
 10
274.4094897064
 20
955.3572764933999
 30
0.0
 10
274.6447385992
 20
955.3541472077
 30
0.0
 10
274.8301127096
 20
955.3535456344
 30
0.0
 10
274.9574534596
 20
955.3536581292998
 30
0.0
  0
SPLINE
  5
4CF
330
21D
100
AcDbEntity
  8
0
  6
Continuous
 62
     9
100
AcDbSpline
210
0.0
220
0.0
230
1.0
 70
     8
 71
     3
 72
    14
 73
    10
 74
     0
 42
0.0000000001
 43
0.0000000001
 40
0.0
 40
0.0
 40
0.0
 40
0.0
 40
0.020132706
 40
0.0770976517
 40
0.1693234145
 40
0.2935689947
 40
0.4449754489
 40
0.6183506552
 40
1.0
 40
1.0
 40
1.0
 40
1.0
 10
273.9679675618
 20
943.5154789066
 30
0.0
 10
273.9683700539
 20
943.5087735332
 30
0.0
 10
274.0075437600999
 20
943.5135425849001
 30
0.0
 10
274.0512563717
 20
943.5019407488999
 30
0.0
 10
274.1493414007
 20
943.5021866041001
 30
0.0
 10
274.2691343023
 20
943.4969332953
 30
0.0
 10
274.4199770881
 20
943.4946765928
 30
0.0
 10
274.6552253959
 20
943.4915473171999
 30
0.0
 10
274.8405988788
 20
943.4909457569
 30
0.0
 10
274.9679392613
 20
943.4910582458998
 30
0.0
  0
SPLINE
  5
4D0
330
21D
100
AcDbEntity
  8
7_ALL_FEATURES
  6
Continuous
 62
     9
100
AcDbSpline
210
0.0
220
0.0
230
1.0
 70
     8
 71
     3
 72
    15
 73
    11
 74
     0
 42
0.0000000001
 43
0.0000000001
 40
0.0
 40
0.0
 40
0.0
 40
0.0
 40
0.1250850166
 40
0.250132757
 40
0.3751547697999999
 40
0.5001528677
 40
0.6251317705
 40
0.7500961427
 40
0.8750506951000001
 40
1.0
 40
1.0
 40
1.0
 40
1.0
 10
164.2877879211
 20
478.5071742489
 30
0.0
 10
153.7228451765
 20
480.2956739953
 30
0.0
 10
132.8619993231
 20
485.7227245887999
 30
0.0
 10
103.4909285777
 20
499.1431591549999
 30
0.0
 10
76.88029818949999
 20
517.4397307297
 30
0.0
 10
53.8417199393
 20
540.0579904906
 30
0.0
 10
35.0632589271
 20
566.3145027508999
 30
0.0
 10
21.108659137
 20
595.4213734776
 30
0.0
 10
12.3964553571
 20
626.4897483431
 30
0.0
 10
10.2565003069
 20
647.9188078212001
 30
0.0
 10
10.1233228538
 20
658.6216113473
 30
0.0
  0
SPLINE
  5
4D1
330
21D
100
AcDbEntity
  8
7_ALL_FEATURES
  6
Continuous
 62
     9
100
AcDbSpline
210
0.0
220
0.0
230
1.0
 70
     8
 71
     3
 72
     8
 73
     4
 74
     0
 42
0.0000000001
 43
0.0000000001
 40
0.0
 40
0.0
 40
0.0
 40
0.0
 40
1.0
 40
1.0
 40
1.0
 40
1.0
 10
10.1233228538
 20
658.6216113473
 30
0.0
 10
10.1123391633
 20
659.5043157294999
 30
0.0
 10
10.10191928
 20
660.3870270617
 30
0.0
 10
10.0914726146
 20
661.2697379628
 30
0.0
  0
SPLINE
  5
4D2
330
21D
100
AcDbEntity
  8
0
  6
Continuous
 62
     9
100
AcDbSpline
210
0.0
220
0.0
230
1.0
 70
     8
 71
     3
 72
     9
 73
     5
 74
     0
 42
0.0000000001
 43
0.0000000001
 40
0.0
 40
0.0
 40
0.0
 40
0.0
 40
0.2727059129
 40
1.0
 40
1.0
 40
1.0
 40
1.0
 10
18.0539340144
 20
1480.534940999899
 30
0.0
 10
17.9318825551
 20
1480.5409529948
 30
0.0
 10
17.4848999617
 20
1480.5692992586
 30
0.0
 10
17.0375980784
 20
1480.620596464
 30
0.0
 10
16.7195169403
 20
1480.69155682
 30
0.0
  0
SPLINE
  5
4D3
330
21D
100
AcDbEntity
  8
0
  6
Continuous
 62
     9
100
AcDbSpline
210
0.0
220
0.0
230
1.0
 70
     8
 71
     3
 72
     9
 73
     5
 74
     0
 42
0.0000000001
 43
0.0000000001
 40
0.0
 40
0.0
 40
0.0
 40
0.0
 40
0.60987562
 40
1.0
 40
1.0
 40
1.0
 40
1.0
 10
16.7195169403
 20
1480.69155682
 30
0.0
 10
16.5276243775
 20
1480.7343659115
 30
0.0
 10
16.219832054
 20
1480.8145550007
 30
0.0
 10
15.935958093
 20
1481.0272112563
 30
0.0
 10
15.8906390809
 20
1481.1445293264
 30
0.0
  0
SPLINE
  5
4D4
330
21D
100
AcDbEntity
  8
0
  6
Continuous
 62
     9
100
AcDbSpline
210
0.0
220
0.0
230
1.0
 70
     8
 71
     3
 72
     9
 73
     5
 74
     0
 42
0.0000000001
 43
0.0000000001
 40
0.0
 40
0.0
 40
0.0
 40
0.0
 40
0.2413334431
 40
1.0
 40
1.0
 40
1.0
 40
1.0
 10
26.1477698543
 20
1480.3984736959
 30
0.0
 10
25.8819016752
 20
1480.416424055
 30
0.0
 10
24.7798253263
 20
1480.4842406117
 30
0.0
 10
23.675394557
 20
1480.5164723027
 30
0.0
 10
22.8376967371
 20
1480.5165927325
 30
0.0
  0
SPLINE
  5
4D5
330
21D
100
AcDbEntity
  8
0
  6
Continuous
 62
     9
100
AcDbSpline
210
0.0
220
0.0
230
1.0
 70
     8
 71
     3
 72
    11
 73
     7
 74
     0
 42
0.0000000001
 43
0.0000000001
 40
0.0
 40
0.0
 40
0.0
 40
0.0
 40
0.1558178009
 40
0.3723598234
 40
0.6572207287
 40
1.0
 40
1.0
 40
1.0
 40
1.0
 10
371.4528238098
 20
1481.1445263622
 30
0.0
 10
371.4229610104
 20
1481.0672406142
 30
0.0
 10
371.2777470091
 20
1480.9152530576
 30
0.0
 10
370.9567129493
 20
1480.7725018436
 30
0.0
 10
370.5204292524
 20
1480.6605928411
 30
0.0
 10
370.189756538
 20
1480.6128172404
 30
0.0
 10
370.0086801046
 20
1480.5919975899
 30
0.0
  0
SPLINE
  5
4D6
330
21D
100
AcDbEntity
  8
0
  6
Continuous
 62
     9
100
AcDbSpline
210
0.0
220
0.0
230
1.0
 70
     8
 71
     3
 72
     9
 73
     5
 74
     0
 42
0.0000000001
 43
0.0000000001
 40
0.0
 40
0.0
 40
0.0
 40
0.0
 40
0.2369194832
 40
1.0
 40
1.0
 40
1.0
 40
1.0
 10
370.0086801046
 20
1480.5919975899
 30
0.0
 10
369.8917625312999
 20
1480.5785547416
 30
0.0
 10
369.3971078263
 20
1480.5320547127
 30
0.0
 10
368.8998873971
 20
1480.5165967176
 30
0.0
 10
368.5208332933
 20
1480.5165927325
 30
0.0
  0
SPLINE
  5
4D7
330
21D
100
AcDbEntity
  8
0
  6
Continuous
 62
     9
100
AcDbSpline
210
0.0
220
0.0
230
1.0
 70
     8
 71
     3
 72
    10
 73
     6
 74
     0
 42
0.0000000001
 43
0.0000000001
 40
0.0
 40
0.0
 40
0.0
 40
0.0
 40
0.2016266564
 40
0.4438255357
 40
1.0
 40
1.0
 40
1.0
 40
1.0
 10
27.5273350042
 20
1478.3235248015
 30
0.0
 10
27.2124804008
 20
1478.3523142937
 30
0.0
 10
26.521459703
 20
1478.4363660669
 30
0.0
 10
24.9636756517
 20
1478.6135591979
 30
0.0
 10
23.709697596
 20
1478.673963737399
 30
0.0
 10
22.8376967371
 20
1478.6589679391
 30
0.0
  0
SPLINE
  5
4D8
330
21D
100
AcDbEntity
  8
0
  6
Continuous
 62
     9
100
AcDbSpline
210
0.0
220
0.0
230
1.0
 70
     8
 71
     3
 72
     9
 73
     5
 74
     0
 42
0.0000000001
 43
0.0000000001
 40
0.0
 40
0.0
 40
0.0
 40
0.0
 40
0.5276346935000001
 40
1.0
 40
1.0
 40
1.0
 40
1.0
 10
364.5057581756
 20
1478.6589679391
 30
0.0
 10
363.8725233882
 20
1478.6698974858
 30
0.0
 10
362.6707700684999
 20
1478.6359344625
 30
0.0
 10
361.4765037905
 20
1478.5111162074
 30
0.0
 10
360.913311526
 20
1478.4456165906
 30
0.0
  0
SPLINE
  5
4D9
330
21D
100
AcDbEntity
  8
0
  6
Continuous
 62
     9
100
AcDbSpline
210
0.0
220
0.0
230
1.0
 70
     8
 71
     3
 72
    13
 73
     9
 74
     0
 42
0.0000000001
 43
0.0000000001
 40
0.0
 40
0.0
 40
0.0
 40
0.0
 40
0.0954573493
 40
0.1866293053
 40
0.3077744532
 40
0.4555204958
 40
0.6245479206
 40
1.0
 40
1.0
 40
1.0
 40
1.0
 10
373.4702625416001
 20
1479.4931651908
 30
0.0
 10
373.4787953694
 20
1479.3301855522
 30
0.0
 10
373.1039001789
 20
1479.1221838379
 30
0.0
 10
372.6339660055
 20
1478.9989694272
 30
0.0
 10
372.0135750966
 20
1478.8841954606
 30
0.0
 10
371.2745379977
 20
1478.8002390143
 30
0.0
 10
370.0923766328
 20
1478.7071969821
 30
0.0
 10
369.1626020201
 20
1478.6723463916
 30
0.0
 10
368.5208332933
 20
1478.6589679391
 30
0.0
  0
SPLINE
  5
4DA
330
21D
100
AcDbEntity
  8
0
  6
Continuous
 62
     9
100
AcDbSpline
210
0.0
220
0.0
230
1.0
 70
     8
 71
     3
 72
    13
 73
     9
 74
     0
 42
0.0000000001
 43
0.0000000001
 40
0.0
 40
0.0
 40
0.0
 40
0.0
 40
0.3754516286
 40
0.5444789669
 40
0.6922248164
 40
0.8133696760999999
 40
0.9045423505
 40
1.0
 40
1.0
 40
1.0
 40
1.0
 10
18.8226216194
 20
1478.6589679391
 30
0.0
 10
18.1808527995
 20
1478.6723387922
 30
0.0
 10
17.2510779351
 20
1478.7072045028
 30
0.0
 10
16.0689180212
 20
1478.800247813599
 30
0.0
 10
15.329875743
 20
1478.8841746798
 30
0.0
 10
14.7094879176
 20
1478.9989456106
 30
0.0
 10
14.2395420489
 20
1479.1221816603
 30
0.0
 10
13.864685104
 20
1479.3301835224
 30
0.0
 10
13.8731923711
 20
1479.4931651908
 30
0.0
  0
SPLINE
  5
4DB
330
21D
100
AcDbEntity
  8
0
  6
Continuous
 62
     9
100
AcDbSpline
210
0.0
220
0.0
230
1.0
 70
     8
 71
     3
 72
     9
 73
     5
 74
     0
 42
0.0000000001
 43
0.0000000001
 40
0.0
 40
0.0
 40
0.0
 40
0.0
 40
0.4924571729000001
 40
1.0
 40
1.0
 40
1.0
 40
1.0
 10
373.4701035774
 20
1479.4931568662
 30
0.0
 10
373.4512388408
 20
1479.853361714
 30
0.0
 10
373.1741720608
 20
1480.5881107816
 30
0.0
 10
372.5334314948
 20
1481.031447252
 30
0.0
 10
372.1826892478
 20
1481.1546398053
 30
0.0
  0
SPLINE
  5
4DC
330
21D
100
AcDbEntity
  8
0
  6
Continuous
 62
     9
100
AcDbSpline
210
0.0
220
0.0
230
1.0
 70
     8
 71
     3
 72
     9
 73
     5
 74
     0
 42
0.0000000001
 43
0.0000000001
 40
0.0
 40
0.0
 40
0.0
 40
0.0
 40
0.4969171049
 40
1.0
 40
1.0
 40
1.0
 40
1.0
 10
13.8732082386
 20
1479.4931643599
 30
0.0
 10
13.8835253534
 20
1479.6902398766
 30
0.0
 10
13.9719430599
 20
1480.0860495896
 30
0.0
 10
14.1846944921
 20
1480.4307947947
 30
0.0
 10
14.3150893528
 20
1480.5821713098
 30
0.0
  0
SPLINE
  5
4DD
330
21D
100
AcDbEntity
  8
0
  6
Continuous
 62
     9
100
AcDbSpline
210
0.0
220
0.0
230
1.0
 70
     8
 71
     3
 72
     8
 73
     4
 74
     0
 42
0.0000000001
 43
0.0000000001
 40
0.0
 40
0.0
 40
0.0
 40
0.0
 40
1.0
 40
1.0
 40
1.0
 40
1.0
 10
14.491740206
 20
1480.7617907469
 30
0.0
 10
14.6846900657
 20
1480.9337643913
 30
0.0
 10
14.9164474668
 20
1481.0688785391
 30
0.0
 10
15.1602944658
 20
1481.1545711513
 30
0.0
  0
SPLINE
  5
4DE
330
21D
100
AcDbEntity
  8
0
  6
Continuous
 62
     7
100
AcDbSpline
210
0.0
220
0.0
230
1.0
 70
     8
 71
     3
 72
     9
 73
     5
 74
     0
 42
0.0000000001
 43
0.0000000001
 40
0.0
 40
0.0
 40
0.0
 40
0.0
 40
0.5729161104000001
 40
1.0
 40
1.0
 40
1.0
 40
1.0
 10
267.9777345203
 20
1517.6876044961
 30
0.0
 10
269.1155831813
 20
1517.6874985354
 30
0.0
 10
271.1015896791
 20
1517.6983073711
 30
0.0
 10
273.0876393074
 20
1517.729628308
 30
0.0
 10
273.9353237505
 20
1517.7596637336
 30
0.0
  0
SPLINE
  5
4DF
330
21D
100
AcDbEntity
  8
0
  6
Continuous
 62
     7
100
AcDbSpline
210
0.0
220
0.0
230
1.0
 70
     8
 71
     3
 72
     8
 73
     4
 74
     0
 42
0.0000000001
 43
0.0000000001
 40
0.0
 40
0.0
 40
0.0
 40
0.0
 40
1.0
 40
1.0
 40
1.0
 40
1.0
 10
120.3657203917
 20
1517.6876209149
 30
0.0
 10
169.5697248093
 20
1517.6929833483
 30
0.0
 10
218.7737301034
 20
1517.6929833483
 30
0.0
 10
267.977734521
 20
1517.6876209149
 30
0.0
  0
LINE
  5
4E0
330
21D
100
AcDbEntity
  8
0
  6
Continuous
 62
     9
100
AcDbLine
 10
273.9370559276
 20
1517.6924529182
 30
0.0
 11
273.9353248328
 21
1517.7499894197
 31
0.0
1001
ACAD
1000
RTMaterial
1005
0
  0
SPLINE
  5
4E1
330
21D
100
AcDbEntity
  8
0
  6
Continuous
 62
     9
100
AcDbSpline
210
0.0
220
0.0
230
1.0
 70
     8
 71
     3
 72
     9
 73
     5
 74
     0
 42
0.0000000001
 43
0.0000000001
 40
0.0
 40
0.0
 40
0.0
 40
0.0
 40
0.2891765393
 40
1.0
 40
1.0
 40
1.0
 40
1.0
 10
274.0351394756
 20
1517.754248014
 30
0.0
 10
274.0890723294
 20
1517.7566235846
 30
0.0
 10
274.2755529713
 20
1517.7653095508
 30
0.0
 10
274.4619779896
 20
1517.775673118
 30
0.0
 10
274.59431487
 20
1517.7854918276
 30
0.0
  0
SPLINE
  5
4E2
330
21D
100
AcDbEntity
  8
0
  6
Continuous
 62
     9
100
AcDbSpline
210
0.0
220
0.0
230
1.0
 70
     8
 71
     3
 72
    10
 73
     6
 74
     0
 42
0.0000000001
 43
0.0000000001
 40
0.0
 40
0.0
 40
0.0
 40
0.0
 40
0.7352569093000002
 40
0.9235487073999999
 40
1.0
 40
1.0
 40
1.0
 40
1.0
 10
274.7379108256
 20
1517.7975410731
 30
0.0
 10
274.7957270337
 20
1517.8031082118
 30
0.0
 10
274.8740943804
 20
1517.8116063396
 30
0.0
 10
274.9422072539
 20
1517.8265653394
 30
0.0
 10
274.9682077107
 20
1517.8367540084
 30
0.0
 10
274.9679392613
 20
1517.8427875172
 30
0.0
  0
SPLINE
  5
4E3
330
21D
100
AcDbEntity
  8
0
  6
Continuous
 62
     9
100
AcDbSpline
210
0.0
220
0.0
230
1.0
 70
     8
 71
     3
 72
     9
 73
     5
 74
     0
 42
0.0000000001
 43
0.0000000001
 40
0.0
 40
0.0
 40
0.0
 40
0.0
 40
0.2888917005
 40
1.0
 40
1.0
 40
1.0
 40
1.0
 10
113.3755156514
 20
1517.8427875172
 30
0.0
 10
113.3752262244
 20
1517.8362435957
 30
0.0
 10
113.4044197628
 20
1517.8260587899
 30
0.0
 10
113.4221898974
 20
1517.8219967347
 30
0.0
 10
113.4380335582
 20
1517.8190050453
 30
0.0
  0
SPLINE
  5
4E4
330
21D
100
AcDbEntity
  8
7_ALL_FEATURES
  6
Continuous
 62
     9
100
AcDbSpline
210
0.0
220
0.0
230
1.0
 70
     8
 71
     3
 72
    26
 73
    22
 74
     0
 42
0.0000000001
 43
0.0000000001
 40
0.0
 40
0.0
 40
0.0
 40
0.0
 40
0.2015105124
 40
0.3908590334
 40
0.4791816873000001
 40
0.5623712252000001
 40
0.6398040808
 40
0.7108989945000001
 40
0.775123533
 40
0.8319976269999999
 40
0.8810972929
 40
0.9220589201999999
 40
0.9393921010999999
 40
0.9545841769999999
 40
0.9676091506999998
 40
0.9784465839
 40
0.9870831218999999
 40
0.9935165457
 40
0.9977700310999999
 40
0.9991140253000001
 40
1.0
 40
1.0
 40
1.0
 40
1.0
 10
164.2877879211
 20
1506.0864683554
 30
0.0
 10
153.9178750529
 20
1506.1310115583
 30
0.0
 10
133.8040756077
 20
1506.2616853618
 30
0.0
 10
109.1461926138
 20
1506.541971224
 30
0.0
 10
90.57808571299998
 20
1506.8348120713
 30
0.0
 10
77.7693182612
 20
1507.0782522244
 30
0.0
 10
65.8478607492
 20
1507.3485872806
 30
0.0
 10
54.90326804449999
 20
1507.6435609919
 30
0.0
 10
45.01776179060001
 20
1507.9607939141
 30
0.0
 10
36.2655151774
 20
1508.2974967293
 30
0.0
 10
28.7121851302
 20
1508.650846412
 30
0.0
 10
23.1945823243
 20
1508.9708348453
 30
0.0
 10
19.4223952251
 20
1509.2404995883
 30
0.0
 10
17.0862739855
 20
1509.4336703659
 30
0.0
 10
15.0857019073
 20
1509.6283794728
 30
0.0
 10
13.4249840228
 20
1509.8242202958
 30
0.0
 10
12.1047590922
 20
1510.0187926498
 30
0.0
 10
11.1310759918
 20
1510.2124881247
 30
0.0
 10
10.5301689611
 20
1510.3823687428
 30
0.0
 10
10.2334072801
 20
1510.5330161475
 30
0.0
 10
10.1439972887
 20
1510.6128145186
 30
0.0
 10
10.1233228538
 20
1510.6534511132
 30
0.0
  0
LINE
  5
4E5
330
21D
100
AcDbEntity
  8
7_ALL_FEATURES
  6
Continuous
 62
     9
100
AcDbLine
 10
10.1233228538
 20
1510.6534511132
 30
0.0
 11
10.0914726146
 21
1510.7168151375
 31
0.0
1001
ACAD
1000
RTMaterial
1005
0
  0
LINE
  5
4E6
330
21D
100
AcDbEntity
  8
7_ALL_FEATURES
  6
Continuous
 62
     9
100
AcDbLine
 10
10.0914726146
 20
1510.7168151375
 30
0.0
 11
13.2346522157
 21
1510.7328912446
 31
0.0
1001
ACAD
1000
RTMaterial
1005
0
  0
LINE
  5
4E7
330
21D
100
AcDbEntity
  8
7_ALL_FEATURES
  6
Continuous
 62
     9
100
AcDbLine
 10
375.1086657848
 20
1510.7328919388
 30
0.0
 11
378.2519830143
 21
1510.7168151338
 31
0.0
1001
ACAD
1000
RTMaterial
1005
0
  0
LINE
  5
4E8
330
21D
100
AcDbEntity
  8
7_ALL_FEATURES
  6
Continuous
 62
     9
100
AcDbLine
 10
378.2519830143
 20
1510.7168151338
 30
0.0
 11
378.2201320589
 21
1510.6534511132
 31
0.0
1001
ACAD
1000
RTMaterial
1005
0
  0
SPLINE
  5
4E9
330
21D
100
AcDbEntity
  8
7_ALL_FEATURES
  6
Continuous
 62
     9
100
AcDbSpline
210
0.0
220
0.0
230
1.0
 70
     8
 71
     3
 72
    26
 73
    22
 74
     0
 42
0.0000000001
 43
0.0000000001
 40
0.0
 40
0.0
 40
0.0
 40
0.0
 40
0.0008859817
 40
0.002229989
 40
0.0064835198
 40
0.0129170133
 40
0.021553644
 40
0.0323911906
 40
0.0454162949
 40
0.0606085181
 40
0.0779418603
 40
0.1189038429
 40
0.1680038486
 40
0.2248782623
 40
0.2891030655
 40
0.360198146
 40
0.4376310556
 40
0.5208205417000001
 40
0.6091428199
 40
0.7984902155000001
 40
1.0
 40
1.0
 40
1.0
 40
1.0
 10
378.2201320589
 20
1510.6534511132
 30
0.0
 10
378.1994574469
 20
1510.6128142047
 30
0.0
 10
378.1100464558
 20
1510.533015279
 30
0.0
 10
377.8132815056
 20
1510.3823669624
 30
0.0
 10
377.2123678217
 20
1510.212485405
 30
0.0
 10
376.2386740635
 20
1510.0187888524
 30
0.0
 10
374.9184349244
 20
1509.8242154886
 30
0.0
 10
373.2576997108
 20
1509.6283737228
 30
0.0
 10
371.2571074875
 20
1509.4336637191
 30
0.0
 10
368.9209636309
 20
1509.2404921797
 30
0.0
 10
365.1487423517
 20
1508.9708263974
 30
0.0
 10
359.6310954355
 20
1508.6508373241
 30
0.0
 10
352.0777131384
 20
1508.2974870829
 30
0.0
 10
343.3254189315
 20
1507.960784264
 30
0.0
 10
333.4398739859
 20
1507.6435517907
 30
0.0
 10
322.4952562638
 20
1507.3485789886
 30
0.0
 10
310.5737900414
 20
1507.078244654
 30
0.0
 10
297.7650417798
 20
1506.8348065781
 30
0.0
 10
279.197014786
 20
1506.5419672298
 30
0.0
 10
254.5392464679
 20
1506.2616849662
 30
0.0
 10
234.425542403
 20
1506.1310112362
 30
0.0
 10
224.0556669916
 20
1506.0864683554
 30
0.0
  0
SPLINE
  5
4EA
330
21D
100
AcDbEntity
  8
7_ALL_FEATURES
  6
Continuous
 62
     9
100
AcDbSpline
210
0.0
220
0.0
230
1.0
 70
     8
 71
     3
 72
    10
 73
     6
 74
     0
 42
0.0000000001
 43
0.0000000001
 40
0.0
 40
0.0
 40
0.0
 40
0.0
 40
0.5533106131000001
 40
0.7939778615000001
 40
1.0
 40
1.0
 40
1.0
 40
1.0
 10
163.9563331217
 20
1504.1920148872
 30
0.0
 10
142.919143578
 20
1504.2814324995
 30
0.0
 10
112.7316667495
 20
1504.534231839
 30
0.0
 10
74.7163415247
 20
1505.1967689821
 30
0.0
 10
57.7377818469
 20
1505.6205885221
 30
0.0
 10
49.9083775005
 20
1505.8628527432
 30
0.0
  0
SPLINE
  5
4EB
330
21D
100
AcDbEntity
  8
7_ALL_FEATURES
  6
Continuous
 62
     9
100
AcDbSpline
210
0.0
220
0.0
230
1.0
 70
     8
 71
     3
 72
    19
 73
    15
 74
     0
 42
0.0000000001
 43
0.0000000001
 40
0.0
 40
0.0
 40
0.0
 40
0.0
 40
0.2229649167
 40
0.4198277172
 40
0.5893842404000001
 40
0.7306066782
 40
0.7903237962000001
 40
0.8426596054999999
 40
0.8875436304
 40
0.9249230483999999
 40
0.954768959
 40
0.9770928299999999
 40
0.9920027547
 40
1.0
 40
1.0
 40
1.0
 40
1.0
 10
45.4913191451
 20
1506.0050294389
 30
0.0
 10
42.7020351592
 20
1506.0984609399
 30
0.0
 10
37.4504388382
 20
1506.2878473905
 30
0.0
 10
30.0798012117
 20
1506.6035664551
 30
0.0
 10
23.7340631982
 20
1506.93165718
 30
0.0
 10
19.1057078403
 20
1507.2265602195
 30
0.0
 10
15.94512534
 20
1507.4738073599
 30
0.0
 10
13.9884962256
 20
1507.6504195803
 30
0.0
 10
12.3134629132
 20
1507.828090956
 30
0.0
 10
10.9201620899
 20
1508.0064189419
 30
0.0
 10
9.816446489199998
 20
1508.1836040239
 30
0.0
 10
8.9866745358
 20
1508.3594883174
 30
0.0
 10
8.4613431683
 20
1508.5264017782
 30
0.0
 10
8.183891888499999
 20
1508.670238773599
 30
0.0
 10
8.137143983699999
 20
1508.7587538712
 30
0.0
  0
SPLINE
  5
4EC
330
21D
100
AcDbEntity
  8
7_ALL_FEATURES
  6
Continuous
 62
     9
100
AcDbSpline
210
0.0
220
0.0
230
1.0
 70
     8
 71
     3
 72
    19
 73
    15
 74
     0
 42
0.0000000001
 43
0.0000000001
 40
0.0
 40
0.0
 40
0.0
 40
0.0
 40
0.007956711
 40
0.0228437618
 40
0.0451576004
 40
0.0750037122
 40
0.1123917301
 40
0.1572910674
 40
0.2096471619
 40
0.2693876468
 40
0.4106576127000001
 40
0.580246349
 40
0.7771036764
 40
1.0
 40
1.0
 40
1.0
 40
1.0
 10
380.2063109290001
 20
1508.7587538712
 30
0.0
 10
380.1588903166999
 20
1508.6689651379
 30
0.0
 10
379.8758616193
 20
1508.5238665174
 30
0.0
 10
379.3410630536
 20
1508.3552162236
 30
0.0
 10
378.4949758733999
 20
1508.1776301325
 30
0.0
 10
377.3694977315
 20
1507.9986442621
 30
0.0
 10
375.9483944443
 20
1507.818556175
 30
0.0
 10
374.2398632019
 20
1507.6391475731
 30
0.0
 10
372.2440522288
 20
1507.4608488363
 30
0.0
 10
369.0202964237
 20
1507.2113042559
 30
0.0
 10
364.2999081251001
 20
1506.9138100828
 30
0.0
 10
357.8289264057
 20
1506.5830730927
 30
0.0
 10
350.3145111532
 20
1506.2651029786
 30
0.0
 10
344.9610655274
 20
1506.0745542487
 30
0.0
 10
342.1180642013
 20
1505.9806069195
 30
0.0
  0
SPLINE
  5
4ED
330
21D
100
AcDbEntity
  8
7_ALL_FEATURES
  6
Continuous
 62
     9
100
AcDbSpline
210
0.0
220
0.0
230
1.0
 70
     8
 71
     3
 72
    10
 73
     6
 74
     0
 42
0.0000000001
 43
0.0000000001
 40
0.0
 40
0.0
 40
0.0
 40
0.0
 40
0.2060200104
 40
0.4466868022
 40
1.0
 40
1.0
 40
1.0
 40
1.0
 10
338.4379764455
 20
1505.8629424948
 30
0.0
 10
330.608454247
 20
1505.6206629961
 30
0.0
 10
313.6295614779
 20
1505.1968175605
 30
0.0
 10
275.6132699184
 20
1504.534244338
 30
0.0
 10
245.4249445397
 20
1504.2814346789
 30
0.0
 10
224.387121791
 20
1504.1920148872
 30
0.0
  0
SPLINE
  5
4EE
330
21D
100
AcDbEntity
  8
7_ALL_FEATURES
  6
Continuous
 62
     9
100
AcDbSpline
210
0.0
220
0.0
230
1.0
 70
     8
 71
     3
 72
     9
 73
     5
 74
     0
 42
0.0000000001
 43
0.0000000001
 40
0.0
 40
0.0
 40
0.0
 40
0.0
 40
0.5075358429
 40
1.0
 40
1.0
 40
1.0
 40
1.0
 10
8.104626918599999
 20
1508.820742705
 30
0.0
 10
7.590044806199999
 20
1509.8893746048
 30
0.0
 10
6.8553264157
 20
1512.1402840249
 30
0.0
 10
6.671727503999999
 20
1514.4859735488
 30
0.0
 10
6.6717274563
 20
1515.6368250434
 30
0.0
  0
LINE
  5
4EF
330
21D
100
AcDbEntity
  8
7_ALL_FEATURES
  6
Continuous
 62
     9
100
AcDbLine
 10
8.1371839044
 20
1508.7595109243
 30
0.0
 11
8.104646716699999
 21
1508.8211228743
 31
0.0
1001
ACAD
1000
RTMaterial
1005
0
  0
LINE
  5
4F0
330
21D
100
AcDbEntity
  8
7_ALL_FEATURES
  6
Continuous
 62
     9
100
AcDbLine
 10
380.2388082146
 20
1508.8211225144
 30
0.0
 11
380.2062710272
 21
1508.7595105652
 31
0.0
1001
ACAD
1000
RTMaterial
1005
0
  0
SPLINE
  5
4F1
330
21D
100
AcDbEntity
  8
7_ALL_FEATURES
  6
Continuous
 62
     9
100
AcDbSpline
210
0.0
220
0.0
230
1.0
 70
     8
 71
     3
 72
     9
 73
     5
 74
     0
 42
0.0000000001
 43
0.0000000001
 40
0.0
 40
0.0
 40
0.0
 40
0.0
 40
0.4924641897
 40
1.0
 40
1.0
 40
1.0
 40
1.0
 10
381.6717274563
 20
1515.6368250436
 30
0.0
 10
381.6717271613
 20
1514.4859734785
 30
0.0
 10
381.4881282853
 20
1512.140284016
 30
0.0
 10
380.7534100954
 20
1509.8893745185
 30
0.0
 10
380.2388279939
 20
1508.8207427048
 30
0.0
  0
SPLINE
  5
4F4
330
21D
100
AcDbEntity
  8
0
  6
Continuous
 62
     9
100
AcDbSpline
210
0.0
220
0.0
230
1.0
 70
     8
 71
     3
 72
     8
 73
     4
 74
     0
 42
0.0000000001
 43
0.0000000001
 40
0.0
 40
0.0
 40
0.0
 40
0.0
 40
1.0
 40
1.0
 40
1.0
 40
1.0
 10
113.7000213551
 20
1518.0919320539
 30
0.0
 10
113.5993099136
 20
1518.125161202
 30
0.0
 10
113.4920531928
 20
1518.1430593216
 30
0.0
 10
113.3860014567
 20
1518.143061693
 30
0.0
  0
SPLINE
  5
4F5
330
21D
100
AcDbEntity
  8
0
  6
Continuous
 62
     9
100
AcDbSpline
210
0.0
220
0.0
230
1.0
 70
     8
 71
     3
 72
     8
 73
     4
 74
     0
 42
0.0000000001
 43
0.0000000001
 40
0.0
 40
0.0
 40
0.0
 40
0.0
 40
1.0
 40
1.0
 40
1.0
 40
1.0
 10
113.6207401791
 20
1517.8117219203
 30
0.0
 10
113.5408836411
 20
1517.8320156423
 30
0.0
 10
113.4579104926
 20
1517.8427856706
 30
0.0
 10
113.3755157003
 20
1517.842787517
 30
0.0
  0
SPLINE
  5
4F6
330
21D
100
AcDbEntity
  8
0
  6
Continuous
 62
     9
100
AcDbSpline
210
0.0
220
0.0
230
1.0
 70
     8
 71
     3
 72
     8
 73
     4
 74
     0
 42
0.0000000001
 43
0.0000000001
 40
0.0
 40
0.0
 40
0.0
 40
0.0
 40
1.0
 40
1.0
 40
1.0
 40
1.0
 10
274.720934695
 20
1517.8112682852
 30
0.0
 10
274.8013434833
 20
1517.8318556562
 30
0.0
 10
274.8849367729
 20
1517.8427856612
 30
0.0
 10
274.9679392613
 20
1517.8427875172
 30
0.0
  0
SPLINE
  5
4F7
330
21D
100
AcDbEntity
  8
0
  6
Continuous
 62
     9
100
AcDbSpline
210
0.0
220
0.0
230
1.0
 70
     8
 71
     3
 72
     8
 73
     4
 74
     0
 42
0.0000000001
 43
0.0000000001
 40
0.0
 40
0.0
 40
0.0
 40
0.0
 40
1.0
 40
1.0
 40
1.0
 40
1.0
 10
274.6416879954
 20
1518.0913541375
 30
0.0
 10
274.7429141754
 20
1518.1249544745
 30
0.0
 10
274.850796429
 20
1518.143059307
 30
0.0
 10
274.9574534596
 20
1518.1430616917
 30
0.0
  0
SPLINE
  5
4F8
330
21D
100
AcDbEntity
  8
7_ALL_FEATURES
  6
Continuous
 62
     9
100
AcDbSpline
210
0.0
220
0.0
230
1.0
 70
     8
 71
     3
 72
     9
 73
     5
 74
     0
 42
0.0000000001
 43
0.0000000001
 40
0.0
 40
0.0
 40
0.0
 40
0.0
 40
0.5115502661
 40
1.0
 40
1.0
 40
1.0
 40
1.0
 10
10.0914016262
 20
1510.7168147713
 30
0.0
 10
9.5826661762
 20
1511.8168901497
 30
0.0
 10
8.8499817782
 20
1514.1000565652
 30
0.0
 10
8.666999069800001
 20
1516.4789143252
 30
0.0
 10
8.6710735448
 20
1517.6361890204
 30
0.0
  0
SPLINE
  5
4F9
330
21D
100
AcDbEntity
  8
0
  6
Continuous
 62
     9
100
AcDbSpline
210
0.0
220
0.0
230
1.0
 70
     8
 71
     3
 72
     9
 73
     5
 74
     0
 42
0.0000000001
 43
0.0000000001
 40
0.0
 40
0.0
 40
0.0
 40
0.0
 40
0.1611940363
 40
1.0
 40
1.0
 40
1.0
 40
1.0
 10
113.4383739747
 20
1517.8190050453
 30
0.0
 10
113.4622406595999
 20
1517.815146453
 30
0.0
 10
113.6112268405
 20
1517.7972524126
 30
0.0
 10
113.7610947212
 20
1517.7889681876
 30
0.0
 10
113.8867200433
 20
1517.7821947843
 30
0.0
  0
SPLINE
  5
4FA
330
21D
100
AcDbEntity
  8
0
  6
Continuous
 62
     9
100
AcDbSpline
210
0.0
220
0.0
230
1.0
 70
     8
 71
     3
 72
     9
 73
     5
 74
     0
 42
0.0000000001
 43
0.0000000001
 40
0.0
 40
0.0
 40
0.0
 40
0.0
 40
0.2149991096
 40
1.0
 40
1.0
 40
1.0
 40
1.0
 10
114.0709571131
 20
1517.773127277
 30
0.0
 10
114.13435125
 20
1517.7702648807
 30
0.0
 10
114.4292572306
 20
1517.7580222695
 30
0.0
 10
114.72429109
 20
1517.7490764454
 30
0.0
 10
114.9559086938
 20
1517.7429217925
 30
0.0
  0
LINE
  5
4FB
330
21D
100
AcDbEntity
  8
0
  6
Continuous
 62
     9
100
AcDbLine
 10
114.9559086938
 20
1517.7429217925
 30
0.0
 11
115.0603531463
 21
1517.740212002
 31
0.0
1001
ACAD
1000
RTMaterial
1005
0
  0
LINE
  5
4FC
330
21D
100
AcDbEntity
  8
0
  6
Continuous
 62
     9
100
AcDbLine
 10
115.0603531463
 20
1517.740212002
 30
0.0
 11
115.1633693045
 21
1517.7376610058
 31
0.0
1001
ACAD
1000
RTMaterial
1005
0
  0
LINE
  5
4FD
330
21D
100
AcDbEntity
  8
0
  6
Continuous
 62
     9
100
AcDbLine
 10
116.4660583224
 20
1517.7130810459
 30
0.0
 11
116.6575714906
 21
1517.7103899415
 31
0.0
1001
ACAD
1000
RTMaterial
1005
0
  0
LINE
  5
4FE
330
21D
100
AcDbEntity
  8
0
  6
Continuous
 62
     9
100
AcDbLine
 10
118.2432551866
 20
1517.6945495845
 30
0.0
 11
118.4815951425
 21
1517.6930253507
 31
0.0
1001
ACAD
1000
RTMaterial
1005
0
  0
LINE
  5
4FF
330
21D
100
AcDbEntity
  8
7_ALL_FEATURES
  6
Continuous
 62
     9
100
AcDbLine
 10
379.671729586
 20
1517.8166559921
 30
0.0
 11
274.7228686491
 21
1517.6933767192
 31
0.0
1001
ACAD
1000
RTMaterial
1005
0
  0
LINE
  5
500
330
21D
100
AcDbEntity
  8
7_ALL_FEATURES
  6
Continuous
 62
     9
100
AcDbLine
 10
274.7228686491
 20
1517.6933767192
 30
0.0
 11
273.9370559276
 21
1517.6924529182
 31
0.0
1001
ACAD
1000
RTMaterial
1005
0
  0
SPLINE
  5
501
330
21D
100
AcDbEntity
  8
7_ALL_FEATURES
  6
Continuous
 62
     9
100
AcDbSpline
210
0.0
220
0.0
230
1.0
 70
     8
 71
     3
 72
     9
 73
     5
 74
     0
 42
0.0000000001
 43
0.0000000001
 40
0.0
 40
0.0
 40
0.0
 40
0.0
 40
0.4884497391
 40
1.0
 40
1.0
 40
1.0
 40
1.0
 10
379.6723813678
 20
1517.6361890205
 30
0.0
 10
379.6764555929
 20
1516.4789143192
 30
0.0
 10
379.4934748873
 20
1514.1000557029
 30
0.0
 10
378.7607845365
 20
1511.8168920709
 30
0.0
 10
378.2520532874
 20
1510.7168147713
 30
0.0
  0
SPLINE
  5
502
330
21D
100
AcDbEntity
  8
7_ALL_FEATURES
  6
Continuous
 62
     9
100
AcDbSpline
210
0.0
220
0.0
230
1.0
 70
     8
 71
     3
 72
    14
 73
    10
 74
     0
 42
0.0000000001
 43
0.0000000001
 40
0.0
 40
0.0
 40
0.0
 40
0.0
 40
0.2618867553
 40
0.393031202
 40
0.522910058
 40
0.6494430465
 40
0.7710974727
 40
0.8880226247999999
 40
1.0
 40
1.0
 40
1.0
 40
1.0
 10
334.1470910326
 20
1480.3226625327
 30
0.0
 10
333.5309453600999
 20
1480.3226374309
 30
0.0
 10
332.6101835808
 20
1480.5089533556
 30
0.0
 10
331.4353750979
 20
1480.8648616206
 30
0.0
 10
330.5535994094
 20
1481.1029314722
 30
0.0
 10
329.6581309415
 20
1481.1784886788
 30
0.0
 10
328.8062168878
 20
1481.021445834899
 30
0.0
 10
328.0240224702
 20
1480.7603331775
 30
0.0
 10
327.5135889331
 20
1480.5877199046
 30
0.0
 10
327.2602974438
 20
1480.5152633887
 30
0.0
  0
SPLINE
  5
503
330
21D
100
AcDbEntity
  8
7_ALL_FEATURES
  6
Continuous
 62
     9
100
AcDbSpline
210
0.0
220
0.0
230
1.0
 70
     8
 71
     3
 72
     9
 73
     5
 74
     0
 42
0.0000000001
 43
0.0000000001
 40
0.0
 40
0.0
 40
0.0
 40
0.0
 40
0.4215118571
 40
1.0
 40
1.0
 40
1.0
 40
1.0
 10
30.5627671092
 20
1481.1489856144
 30
0.0
 10
30.6696341614
 20
1481.1489855101
 30
0.0
 10
30.9133585823
 20
1480.997517759
 30
0.0
 10
31.012445521
 20
1480.7564140951
 30
0.0
 10
31.0536690528
 20
1480.6156609718
 30
0.0
  0
SPLINE
  5
504
330
21D
100
AcDbEntity
  8
7_ALL_FEATURES
  6
Continuous
 62
     9
100
AcDbSpline
210
0.0
220
0.0
230
1.0
 70
     8
 71
     3
 72
     8
 73
     4
 74
     0
 42
0.0000000001
 43
0.0000000001
 40
0.0
 40
0.0
 40
0.0
 40
0.0
 40
1.0
 40
1.0
 40
1.0
 40
1.0
 10
327.7964053043
 20
1481.1499983241
 30
0.0
 10
327.6185315849001
 20
1480.9377226816
 30
0.0
 10
327.4432251823
 20
1480.7231995591
 30
0.0
 10
327.2602974438
 20
1480.5152633887
 30
0.0
  0
SPLINE
  5
505
330
21D
100
AcDbEntity
  8
7_ALL_FEATURES
  6
Continuous
 62
     9
100
AcDbSpline
210
0.0
220
0.0
230
1.0
 70
     8
 71
     3
 72
    11
 73
     7
 74
     0
 42
0.0000000001
 43
0.0000000001
 40
0.0
 40
0.0
 40
0.0
 40
0.0
 40
0.1614752161
 40
0.472684751
 40
0.7011728017000002
 40
1.0
 40
1.0
 40
1.0
 40
1.0
 10
77.15119729939999
 20
1476.9237610839
 30
0.0
 10
77.25463240329999
 20
1476.8023198509
 30
0.0
 10
77.6032836677
 20
1476.4870443607
 30
0.0
 10
78.20467403249999
 20
1476.1289594258
 30
0.0
 10
78.98720761869999
 20
1475.8518305571
 30
0.0
 10
79.49100120459999
 20
1475.7181669751
 30
0.0
 10
79.7779628363
 20
1475.6488715696
 30
0.0
  0
SPLINE
  5
506
330
21D
100
AcDbEntity
  8
7_ALL_FEATURES
  6
Continuous
 62
     9
100
AcDbSpline
210
0.0
220
0.0
230
1.0
 70
     8
 71
     3
 72
     9
 73
     5
 74
     0
 42
0.0000000001
 43
0.0000000001
 40
0.0
 40
0.0
 40
0.0
 40
0.0
 40
0.2864005738
 40
1.0
 40
1.0
 40
1.0
 40
1.0
 10
308.5385291346
 20
1475.6472848164
 30
0.0
 10
308.6653936605
 20
1475.6779742297
 30
0.0
 10
309.1070728631
 20
1475.7898433721
 30
0.0
 10
309.5450219927
 20
1475.9200027071
 30
0.0
 10
309.8489501067
 20
1476.0357277546
 30
0.0
  0
SPLINE
  5
507
330
21D
100
AcDbEntity
  8
7_ALL_FEATURES
  6
Continuous
 62
     9
100
AcDbSpline
210
0.0
220
0.0
230
1.0
 70
     8
 71
     3
 72
     9
 73
     5
 74
     0
 42
0.0000000001
 43
0.0000000001
 40
0.0
 40
0.0
 40
0.0
 40
0.0
 40
0.2809697329
 40
1.0
 40
1.0
 40
1.0
 40
1.0
 10
309.8489501067
 20
1476.0357277546
 30
0.0
 10
309.8990724977
 20
1476.0548125836
 30
0.0
 10
310.0764284898
 20
1476.1252352637
 30
0.0
 10
310.2502136888
 20
1476.205972861
 30
0.0
 10
310.3690553185
 20
1476.2746371011
 30
0.0
  0
SPLINE
  5
508
330
21D
100
AcDbEntity
  8
7_ALL_FEATURES
  6
Continuous
 62
     9
100
AcDbSpline
210
0.0
220
0.0
230
1.0
 70
     8
 71
     3
 72
     9
 73
     5
 74
     0
 42
0.0000000001
 43
0.0000000001
 40
0.0
 40
0.0
 40
0.0
 40
0.0
 40
0.2813337048
 40
1.0
 40
1.0
 40
1.0
 40
1.0
 10
310.3690157035
 20
1476.2746185356
 30
0.0
 10
310.4439626676
 20
1476.3174420498
 30
0.0
 10
310.7060778515
 20
1476.4766555406
 30
0.0
 10
310.9507133377
 20
1476.6672756148
 30
0.0
 10
311.1047911212
 20
1476.8250114056
 30
0.0
  0
LINE
  5
509
330
21D
100
AcDbEntity
  8
7_ALL_FEATURES
  6
Continuous
 62
     9
100
AcDbLine
 10
311.1967838593
 20
1476.9253840025
 30
0.0
 11
311.2052405756
 21
1476.9353448302
 31
0.0
1001
ACAD
1000
RTMaterial
1005
0
  0
LINE
  5
50A
330
21D
100
AcDbEntity
  8
7_ALL_FEATURES
  6
Continuous
 62
     9
100
AcDbLine
 10
311.2052405756
 20
1476.9353448302
 30
0.0
 11
311.2233940462
 21
1476.9572396527
 31
0.0
1001
ACAD
1000
RTMaterial
1005
0
  0
SPLINE
  5
50B
330
21D
100
AcDbEntity
  8
7_ALL_FEATURES
  6
Continuous
 62
     9
100
AcDbSpline
210
0.0
220
0.0
230
1.0
 70
     8
 71
     3
 72
     9
 73
     5
 74
     0
 42
0.0000000001
 43
0.0000000001
 40
0.0
 40
0.0
 40
0.0
 40
0.0
 40
0.4215042426000001
 40
1.0
 40
1.0
 40
1.0
 40
1.0
 10
357.7807426048
 20
1481.1489856144
 30
0.0
 10
357.6738768754
 20
1481.1489855094
 30
0.0
 10
357.4301558332
 20
1480.9975107343
 30
0.0
 10
357.3310605517
 20
1480.7564122918
 30
0.0
 10
357.2898323417
 20
1480.615657658
 30
0.0
  0
SPLINE
  5
50C
330
21D
100
AcDbEntity
  8
7_ALL_FEATURES
  6
Continuous
 62
     9
100
AcDbSpline
210
0.0
220
0.0
230
1.0
 70
     8
 71
     3
 72
    14
 73
    10
 74
     0
 42
0.0000000001
 43
0.0000000001
 40
0.0
 40
0.0
 40
0.0
 40
0.0
 40
0.1119721731
 40
0.2288944093
 40
0.3505444174
 40
0.4770805554999999
 40
0.6069716506000001
 40
0.7381143784000001
 40
1.0
 40
1.0
 40
1.0
 40
1.0
 10
61.0831573322
 20
1480.5152619421
 30
0.0
 10
60.8298750595
 20
1480.5877178699
 30
0.0
 10
60.31945385939999
 20
1480.7603298056
 30
0.0
 10
59.537285317
 20
1481.0214525348
 30
0.0
 10
58.685364223
 20
1481.1785062729
 30
0.0
 10
57.7898712797
 20
1481.1028385342
 30
0.0
 10
56.908031537
 20
1480.8648637622
 30
0.0
 10
55.7331948741
 20
1480.5089106882
 30
0.0
 10
54.8124232849
 20
1480.3226093744
 30
0.0
 10
54.19627275779999
 20
1480.3226462656
 30
0.0
  0
SPLINE
  5
50D
330
21D
100
AcDbEntity
  8
7_ALL_FEATURES
  6
Continuous
 62
     9
100
AcDbSpline
210
0.0
220
0.0
230
1.0
 70
     8
 71
     3
 72
     9
 73
     5
 74
     0
 42
0.0000000001
 43
0.0000000001
 40
0.0
 40
0.0
 40
0.0
 40
0.0
 40
0.2593341139
 40
1.0
 40
1.0
 40
1.0
 40
1.0
 10
32.82521298010001
 20
1480.7621615256
 30
0.0
 10
32.6730002743
 20
1480.7406204065
 30
0.0
 10
32.0857932022
 20
1480.6604931546
 30
0.0
 10
31.4927247506
 20
1480.6156547899
 30
0.0
 10
31.0536690529
 20
1480.6156609719
 30
0.0
  0
SPLINE
  5
50E
330
21D
100
AcDbEntity
  8
7_ALL_FEATURES
  6
Continuous
 62
     9
100
AcDbSpline
210
0.0
220
0.0
230
1.0
 70
     8
 71
     3
 72
     9
 73
     5
 74
     0
 42
0.0000000001
 43
0.0000000001
 40
0.0
 40
0.0
 40
0.0
 40
0.0
 40
0.2418720314
 40
1.0
 40
1.0
 40
1.0
 40
1.0
 10
357.2898323479
 20
1480.6156576565
 30
0.0
 10
357.1464288828
 20
1480.6157035096
 30
0.0
 10
356.5534290152
 20
1480.6291387002
 30
0.0
 10
355.9632690251
 20
1480.6991781441
 30
0.0
 10
355.5182172334
 20
1480.7621615256
 30
0.0
  0
SPLINE
  5
50F
330
21D
100
AcDbEntity
  8
7_ALL_FEATURES
  6
Continuous
 62
     9
100
AcDbSpline
210
0.0
220
0.0
230
1.0
 70
     8
 71
     3
 72
    12
 73
     8
 74
     0
 42
0.0000000001
 43
0.0000000001
 40
0.0
 40
0.0
 40
0.0
 40
0.0
 40
0.0258914193
 40
0.0825900243
 40
0.2920107791
 40
0.6108301741
 40
1.0
 40
1.0
 40
1.0
 40
1.0
 10
334.2344362096
 20
1481.1489856144
 30
0.0
 10
334.2272032888
 20
1481.1489848268
 30
0.0
 10
334.2128291845
 20
1481.1238359313
 30
0.0
 10
334.1938327879
 20
1481.0508481999
 30
0.0
 10
334.1715317131
 20
1480.8826225557
 30
0.0
 10
334.1550075283
 20
1480.6300315314
 30
0.0
 10
334.1487773183
 20
1480.431366342
 30
0.0
 10
334.1470910258
 20
1480.322662533
 30
0.0
  0
SPLINE
  5
510
330
21D
100
AcDbEntity
  8
7_ALL_FEATURES
  6
Continuous
 62
     9
100
AcDbSpline
210
0.0
220
0.0
230
1.0
 70
     8
 71
     3
 72
     9
 73
     5
 74
     0
 42
0.0000000001
 43
0.0000000001
 40
0.0
 40
0.0
 40
0.0
 40
0.0
 40
0.255163472
 40
1.0
 40
1.0
 40
1.0
 40
1.0
 10
328.5457491935
 20
1481.1536673868
 30
0.0
 10
328.4351176366
 20
1481.1020605865
 30
0.0
 10
328.0054348012
 20
1480.8915683641
 30
0.0
 10
327.5828535813
 20
1480.6667263767
 30
0.0
 10
327.2602975308
 20
1480.5152634173
 30
0.0
  0
SPLINE
  5
511
330
21D
100
AcDbEntity
  8
7_ALL_FEATURES
  6
Continuous
 62
     9
100
AcDbSpline
210
0.0
220
0.0
230
1.0
 70
     8
 71
     3
 72
     9
 73
     5
 74
     0
 42
0.0000000001
 43
0.0000000001
 40
0.0
 40
0.0
 40
0.0
 40
0.0
 40
0.2398958879
 40
1.0
 40
1.0
 40
1.0
 40
1.0
 10
355.7260453838
 20
1481.1562513017
 30
0.0
 10
355.7060602495
 20
1481.1267133683
 30
0.0
 10
355.6265023827
 20
1481.0010697025
 30
0.0
 10
355.5607446201999
 20
1480.8668528498
 30
0.0
 10
355.518217238
 20
1480.7621615237
 30
0.0
  0
SPLINE
  5
512
330
21D
100
AcDbEntity
  8
7_ALL_FEATURES
  6
Continuous
 62
     9
100
AcDbSpline
210
0.0
220
0.0
230
1.0
 70
     8
 71
     3
 72
     9
 73
     5
 74
     0
 42
0.0000000001
 43
0.0000000001
 40
0.0
 40
0.0
 40
0.0
 40
0.0
 40
0.2551688373
 40
1.0
 40
1.0
 40
1.0
 40
1.0
 10
59.789052034
 20
1481.1581973602
 30
0.0
 10
59.9004831006
 20
1481.1063335233
 30
0.0
 10
60.3328798218
 20
1480.8939617064
 30
0.0
 10
60.7588485637
 20
1480.6686875488
 30
0.0
 10
61.0831573332
 20
1480.5152619418
 30
0.0
  0
SPLINE
  5
513
330
21D
100
AcDbEntity
  8
7_ALL_FEATURES
  6
Continuous
 62
     9
100
AcDbSpline
210
0.0
220
0.0
230
1.0
 70
     8
 71
     3
 72
    12
 73
     8
 74
     0
 42
0.0000000001
 43
0.0000000001
 40
0.0
 40
0.0
 40
0.0
 40
0.0
 40
0.0258742286
 40
0.0825693273
 40
0.2919941693
 40
0.61082218
 40
1.0
 40
1.0
 40
1.0
 40
1.0
 10
54.10892371460001
 20
1481.1489856143
 30
0.0
 10
54.11615180520001
 20
1481.1489842232
 30
0.0
 10
54.1305002229
 20
1481.1238205508
 30
0.0
 10
54.1494860484
 20
1481.0508524573
 30
0.0
 10
54.17178064289999
 20
1480.8826081684
 30
0.0
 10
54.1883250181
 20
1480.630022752
 30
0.0
 10
54.194573376
 20
1480.4313516873
 30
0.0
 10
54.19627276159999
 20
1480.3226462657
 30
0.0
  0
SPLINE
  5
514
330
21D
100
AcDbEntity
  8
7_ALL_FEATURES
  6
Continuous
 62
     9
100
AcDbSpline
210
0.0
220
0.0
230
1.0
 70
     8
 71
     3
 72
     9
 73
     5
 74
     0
 42
0.0000000001
 43
0.0000000001
 40
0.0
 40
0.0
 40
0.0
 40
0.0
 40
0.2398917552
 40
1.0
 40
1.0
 40
1.0
 40
1.0
 10
32.6174548409
 20
1481.1562553188
 30
0.0
 10
32.6374390192
 20
1481.1267199623
 30
0.0
 10
32.7169920821
 20
1481.0010832803
 30
0.0
 10
32.7827384147
 20
1480.8668698072
 30
0.0
 10
32.8252566003
 20
1480.7621811128
 30
0.0
  0
SPLINE
  5
515
330
21D
100
AcDbEntity
  8
7_ALL_FEATURES
  6
Continuous
 62
     9
100
AcDbSpline
210
0.0
220
0.0
230
1.0
 70
     8
 71
     3
 72
     8
 73
     4
 74
     0
 42
0.0000000001
 43
0.0000000001
 40
0.0
 40
0.0
 40
0.0
 40
0.0
 40
1.0
 40
1.0
 40
1.0
 40
1.0
 10
60.5479619106
 20
1481.1489837797
 30
0.0
 10
60.7260259114
 20
1480.9374611486
 30
0.0
 10
60.9026015222
 20
1480.7246615872
 30
0.0
 10
61.0831573322
 20
1480.5152619421
 30
0.0
  0
SPLINE
  5
516
330
21D
100
AcDbEntity
  8
7_ALL_FEATURES
  6
Continuous
 62
     9
100
AcDbSpline
210
0.0
220
0.0
230
1.0
 70
     8
 71
     3
 72
     8
 73
     4
 74
     0
 42
0.0000000001
 43
0.0000000001
 40
0.0
 40
0.0
 40
0.0
 40
0.0
 40
1.0
 40
1.0
 40
1.0
 40
1.0
 10
33.4186757179
 20
1481.0424163807
 30
0.0
 10
33.2232873613
 20
1480.9440117084
 30
0.0
 10
33.02592933790001
 20
1480.8491847015
 30
0.0
 10
32.82521298010001
 20
1480.7621615256
 30
0.0
  0
SPLINE
  5
517
330
21D
100
AcDbEntity
  8
7_ALL_FEATURES
  6
Continuous
 62
     9
100
AcDbSpline
210
0.0
220
0.0
230
1.0
 70
     8
 71
     3
 72
     8
 73
     4
 74
     0
 42
0.0000000001
 43
0.0000000001
 40
0.0
 40
0.0
 40
0.0
 40
0.0
 40
1.0
 40
1.0
 40
1.0
 40
1.0
 10
310.3690143592
 20
1476.2746172564
 30
0.0
 10
310.2213941851
 20
1476.082728935
 30
0.0
 10
310.0350234336
 20
1475.915645634
 30
0.0
 10
309.8281774862
 20
1475.789837853
 30
0.0
  0
SPLINE
  5
518
330
21D
100
AcDbEntity
  8
7_ALL_FEATURES
  6
Continuous
 62
     9
100
AcDbSpline
210
0.0
220
0.0
230
1.0
 70
     8
 71
     3
 72
     8
 73
     4
 74
     0
 42
0.0000000001
 43
0.0000000001
 40
0.0
 40
0.0
 40
0.0
 40
0.0
 40
1.0
 40
1.0
 40
1.0
 40
1.0
 10
355.5182172334
 20
1480.7621615256
 30
0.0
 10
355.2464225699
 20
1480.8799476334
 30
0.0
 10
354.9808157994001
 20
1481.0119693036
 30
0.0
 10
354.7178723939
 20
1481.1483755785
 30
0.0
  0
SPLINE
  5
519
330
21D
100
AcDbEntity
  8
0
  6
Continuous
 62
     7
100
AcDbSpline
210
0.0
220
0.0
230
1.0
 70
     8
 71
     3
 72
    11
 73
     7
 74
     0
 42
0.0000000001
 43
0.0000000001
 40
0.0
 40
0.0
 40
0.0
 40
0.0
 40
0.2501409674
 40
0.5000748239
 40
0.7500026189
 40
1.0
 40
1.0
 40
1.0
 40
1.0
 10
13.6841908154
 20
1475.5803773226
 30
0.0
 10
12.9531467799
 20
1475.4692209491
 30
0.0
 10
11.5188273014
 20
1474.9697810722
 30
0.0
 10
9.799039391799999
 20
1473.4925936293
 30
0.0
 10
8.728357818099999
 20
1471.4949784016
 30
0.0
 10
8.549202050799999
 20
1469.9872600803
 30
0.0
 10
8.5983351294
 20
1469.2498731303
 30
0.0
  0
SPLINE
  5
51A
330
21D
100
AcDbEntity
  8
0
  6
Continuous
 62
     9
100
AcDbSpline
210
0.0
220
0.0
230
1.0
 70
     8
 71
     3
 72
    15
 73
    11
 74
     0
 42
0.0000000001
 43
0.0000000001
 40
0.0
 40
0.0
 40
0.0
 40
0.0
 40
0.1084119557
 40
0.2307296913
 40
0.3628543313
 40
0.5000062631000001
 40
0.6371573297
 40
0.7692794370999999
 40
0.8915931690999999
 40
1.0
 40
1.0
 40
1.0
 40
1.0
 10
156.5757877435
 20
1175.5894500124
 30
0.0
 10
159.103005346
 20
1174.6859281123
 30
0.0
 10
164.6141715456
 20
1173.1315210578
 30
0.0
 10
173.4575123254
 20
1171.5038288781
 30
0.0
 10
183.1093475685
 20
1170.50295189
 30
0.0
 10
193.1728007770999
 20
1170.159897549
 30
0.0
 10
203.2362104166
 20
1170.5023938501
 30
0.0
 10
212.8879170566
 20
1171.5027437678
 30
0.0
 10
221.7310512252
 20
1173.1299695847
 30
0.0
 10
227.2420594552
 20
1174.6841171699
 30
0.0
 10
229.7691800564
 20
1175.5875335195
 30
0.0
  0
SPLINE
  5
51B
330
21D
100
AcDbEntity
  8
0
  6
Continuous
 62
     7
100
AcDbSpline
210
0.0
220
0.0
230
1.0
 70
     8
 71
     3
 72
     9
 73
     5
 74
     0
 42
0.0000000001
 43
0.0000000001
 40
0.0
 40
0.0
 40
0.0
 40
0.0
 40
0.2554857139
 40
1.0
 40
1.0
 40
1.0
 40
1.0
 10
376.4986152740001
 20
1468.3215629297
 30
0.0
 10
376.6088835813
 20
1468.3949923285
 30
0.0
 10
377.031259655
 20
1468.6960894046
 30
0.0
 10
377.4418741439
 20
1469.0128935973
 30
0.0
 10
377.7467272977
 20
1469.2497657585
 30
0.0
  0
SPLINE
  5
51C
330
21D
100
AcDbEntity
  8
0
  6
Continuous
 62
     9
100
AcDbSpline
210
0.0
220
0.0
230
1.0
 70
     8
 71
     3
 72
    23
 73
    19
 74
     0
 42
0.0000000001
 43
0.0000000001
 40
0.0
 40
0.0
 40
0.0
 40
0.0
 40
0.0018823134
 40
0.0056827694
 40
0.0114836993
 40
0.0192607737
 40
0.0289853237
 40
0.0406331332
 40
0.0695941241
 40
0.1059961094
 40
0.1497608622
 40
0.200879821
 40
0.2593964626
 40
0.3253642024999999
 40
0.3988427655
 40
0.5686190604
 40
0.7693840144
 40
1.0
 40
1.0
 40
1.0
 40
1.0
 10
9.833207695599998
 20
1468.3189257351
 30
0.0
 10
9.842914459299999
 20
1468.2961244984
 30
0.0
 10
9.922095224099999
 20
1468.2641083855
 30
0.0
 10
10.061447417
 20
1468.2283274297
 30
0.0
 10
10.2913830635
 20
1468.19217869
 30
0.0
 10
10.5945815105
 20
1468.1569876956
 30
0.0
 10
10.977457
 20
1468.1229008455
 30
0.0
 10
11.6381705772
 20
1468.0755917066
 30
0.0
 10
12.6508760489
 20
1468.0220611734
 30
0.0
 10
14.0863427976
 20
1467.9638916368
 30
0.0
 10
15.8138886179
 20
1467.9074035366
 30
0.0
 10
17.8326864932
 20
1467.8515247043
 30
0.0
 10
20.1438984091
 20
1467.7953875699
 30
0.0
 10
22.7495417595
 20
1467.7386381168
 30
0.0
 10
26.8197868833
 20
1467.6582279048
 30
0.0
 10
32.66461298
 20
1467.5567560079
 30
0.0
 10
40.5783176237
 20
1467.4457690833
 30
0.0
 10
46.25724994859999
 20
1467.3805321365
 30
0.0
 10
49.2932433087
 20
1467.3496674958
 30
0.0
  0
LINE
  5
51D
330
21D
100
AcDbEntity
  8
0
  6
Continuous
 62
     9
100
AcDbLine
 10
49.2932433087
 20
1467.3496674958
 30
0.0
 11
49.38353258310001
 21
1467.3487508233
 31
0.0
1001
ACAD
1000
RTMaterial
1005
0
  0
SPLINE
  5
51E
330
21D
100
AcDbEntity
  8
0
  6
Continuous
 62
     9
100
AcDbSpline
210
0.0
220
0.0
230
1.0
 70
     8
 71
     3
 72
    13
 73
     9
 74
     0
 42
0.0000000001
 43
0.0000000001
 40
0.0
 40
0.0
 40
0.0
 40
0.0
 40
0.1013582995
 40
0.2225365707
 40
0.4998492655
 40
0.7772418737000001
 40
0.8985124801999999
 40
1.0
 40
1.0
 40
1.0
 40
1.0
 10
49.38353258310001
 20
1467.3487508233
 30
0.0
 10
59.0944565274
 20
1467.2502916308
 30
0.0
 10
80.41595993039999
 20
1467.1127299767
 30
0.0
 10
128.3074712733
 20
1466.9083749229
 30
0.0
 10
193.0658500245
 20
1466.8142044187
 30
0.0
 10
257.8330559825
 20
1466.9089569503
 30
0.0
 10
305.7534829317
 20
1467.1095873976
 30
0.0
 10
327.096166773
 20
1467.2529603793
 30
0.0
 10
336.8194836721
 20
1467.3502917844
 30
0.0
  0
LINE
  5
51F
330
21D
100
AcDbEntity
  8
0
  6
Continuous
 62
     9
100
AcDbLine
 10
336.8194836721
 20
1467.3502917844
 30
0.0
 11
336.9616740365
 21
1467.3517175979
 31
0.0
1001
ACAD
1000
RTMaterial
1005
0
  0
SPLINE
  5
520
330
21D
100
AcDbEntity
  8
0
  6
Continuous
 62
     9
100
AcDbSpline
210
0.0
220
0.0
230
1.0
 70
     8
 71
     3
 72
    23
 73
    19
 74
     0
 42
0.0000000001
 43
0.0000000001
 40
0.0
 40
0.0
 40
0.0
 40
0.0
 40
0.2305946901
 40
0.4313657167000001
 40
0.6011543307000001
 40
0.6746374053000001
 40
0.7406073141
 40
0.7991247644000001
 40
0.8502439268999999
 40
0.8940083877999999
 40
0.9304082967999999
 40
0.9593677273999999
 40
0.9710146798
 40
0.9807386707999999
 40
0.9885158222999999
 40
0.9943168766999999
 40
0.9981174209999998
 40
1.0
 40
1.0
 40
1.0
 40
1.0
 10
336.9616740365
 20
1467.3517175979
 30
0.0
 10
340.0041973367
 20
1467.3822794635
 30
0.0
 10
345.6956858049
 20
1467.4454938765
 30
0.0
 10
353.6271138974
 20
1467.5555950967
 30
0.0
 10
359.4853483882
 20
1467.6572725773
 30
0.0
 10
363.5649650519
 20
1467.7381289077
 30
0.0
 10
366.1765514226
 20
1467.7949103006
 30
0.0
 10
368.4929902319999
 20
1467.8510627783
 30
0.0
 10
370.5163237225
 20
1467.9070823143
 30
0.0
 10
372.2477161108
 20
1467.9636360432
 30
0.0
 10
373.6863564727
 20
1468.0217553269
 30
0.0
 10
374.701282923
 20
1468.0752167224
 30
0.0
 10
375.3634476685
 20
1468.1225071421
 30
0.0
 10
375.747169245
 20
1468.15660765
 30
0.0
 10
376.0510476546
 20
1468.1918437054
 30
0.0
 10
376.2815012196
 20
1468.2280769561
 30
0.0
 10
376.4211724729
 20
1468.263949366
 30
0.0
 10
376.500523479
 20
1468.2960675276
 30
0.0
 10
376.510247217
 20
1468.3189257351
 30
0.0
  0
SPLINE
  5
521
330
21D
100
AcDbEntity
  8
0
  6
Continuous
 62
     9
100
AcDbSpline
210
0.0
220
0.0
230
1.0
 70
     8
 71
     3
 72
    11
 73
     7
 74
     0
 42
0.0000000001
 43
0.0000000001
 40
0.0
 40
0.0
 40
0.0
 40
0.0
 40
0.2500072938
 40
0.4998698874000001
 40
0.7498478931000001
 40
1.0
 40
1.0
 40
1.0
 40
1.0
 10
15.6839048045
 20
1475.652680018
 30
0.0
 10
14.7952648622
 20
1475.6503141987
 30
0.0
 10
12.9941359491
 20
1475.2382426046
 30
0.0
 10
10.84674162
 20
1473.5158114891
 30
0.0
 10
9.647164230700001
 20
1471.0374097789
 30
0.0
 10
9.648180119899999
 20
1469.1886999231
 30
0.0
 10
9.8447748256
 20
1468.321548172
 30
0.0
  0
SPLINE
  5
522
330
21D
100
AcDbEntity
  8
0
  6
Continuous
 62
     9
100
AcDbSpline
210
0.0
220
0.0
230
1.0
 70
     8
 71
     3
 72
    11
 73
     7
 74
     0
 42
0.0000000001
 43
0.0000000001
 40
0.0
 40
0.0
 40
0.0
 40
0.0
 40
0.2350039052
 40
0.4942360889
 40
0.7477725247000001
 40
1.0
 40
1.0
 40
1.0
 40
1.0
 10
8.597787504099999
 20
1469.2498366413
 30
0.0
 10
8.7092594213
 20
1469.2006300593
 30
0.0
 10
8.9025713012
 20
1469.0231767591
 30
0.0
 10
9.200118428199999
 20
1468.7784624064
 30
0.0
 10
9.5134310219
 20
1468.5341085866
 30
0.0
 10
9.748528868300001
 20
1468.410092368
 30
0.0
 10
9.8447748256
 20
1468.321548172
 30
0.0
  0
SPLINE
  5
523
330
21D
100
AcDbEntity
  8
0
  6
Continuous
 62
     9
100
AcDbSpline
210
0.0
220
0.0
230
1.0
 70
     8
 71
     3
 72
    17
 73
    13
 74
     0
 42
0.0000000001
 43
0.0000000001
 40
0.0
 40
0.0
 40
0.0
 40
0.0
 40
0.0626964152
 40
0.1253824933
 40
0.2502532687
 40
0.3751255648
 40
0.4999993800000001
 40
0.6248733472
 40
0.7497460351000001
 40
0.8746172602999999
 40
0.9373034782999999
 40
1.0
 40
1.0
 40
1.0
 40
1.0
 10
144.610120002
 20
1161.9711973397
 30
0.0
 10
144.8289522711
 20
1159.0305885093
 30
0.0
 10
145.8023684155
 20
1153.1739960931
 30
0.0
 10
149.813143379
 20
1142.054175671
 30
0.0
 10
158.5425199377
 20
1129.7935394802
 30
0.0
 10
173.5328886627
 20
1119.8206704432
 30
0.0
 10
191.0970095561
 20
1115.8231943165
 30
0.0
 10
208.9330652944
 20
1118.3440709424
 30
0.0
 10
224.7018518897
 20
1127.0339851455
 30
0.0
 10
234.42220039
 20
1138.5250068527
 30
0.0
 10
239.3446614606
 20
1149.2723992011
 30
0.0
 10
240.8026979081
 20
1155.0275124118
 30
0.0
 10
241.2656742484
 20
1157.9396851921
 30
0.0
  0
SPLINE
  5
524
330
21D
100
AcDbEntity
  8
0
  6
Continuous
 62
     9
100
AcDbSpline
210
0.0
220
0.0
230
1.0
 70
     8
 71
     3
 72
     9
 73
     5
 74
     0
 42
0.0000000001
 43
0.0000000001
 40
0.0
 40
0.0
 40
0.0
 40
0.0
 40
0.3306440918
 40
1.0
 40
1.0
 40
1.0
 40
1.0
 10
809.8534880844001
 20
1481.1928713398
 30
0.0
 10
809.8770421414
 20
1481.0883159552
 30
0.0
 10
809.9460000436
 20
1480.7715904722
 30
0.0
 10
810.0179815383999
 20
1480.4555356842
 30
0.0
 10
810.0667058114
 20
1480.2441110697
 30
0.0
  0
SPLINE
  5
525
330
21D
100
AcDbEntity
  8
0
  6
Continuous
 62
     9
100
AcDbSpline
210
0.0
220
0.0
230
1.0
 70
     8
 71
     3
 72
     9
 73
     5
 74
     0
 42
0.0000000001
 43
0.0000000001
 40
0.0
 40
0.0
 40
0.0
 40
0.0
 40
0.7471235548000001
 40
1.0
 40
1.0
 40
1.0
 40
1.0
 10
810.0667058114
 20
1480.2441110697
 30
0.0
 10
810.0686228364999
 20
1480.2357927044
 30
0.0
 10
810.0743209583999
 20
1480.2288038717
 30
0.0
 10
810.0717565496001
 20
1480.2107474488
 30
0.0
 10
810.0746457694
 20
1480.2107673494
 30
0.0
  0
SPLINE
  5
527
330
21D
100
AcDbEntity
  8
0
  6
Continuous
 62
     9
100
AcDbSpline
210
0.0
220
0.0
230
1.0
 70
     8
 71
     3
 72
    14
 73
    10
 74
     0
 42
0.0000000001
 43
0.0000000001
 40
0.0
 40
0.0
 40
0.0
 40
0.0
 40
0.0200354604
 40
0.077016315
 40
0.1691692257
 40
0.293349986
 40
0.4446983159000001
 40
0.6180181307
 40
1.0
 40
1.0
 40
1.0
 40
1.0
 10
686.1984059924
 20
1502.858042541
 30
0.0
 10
686.1991029329
 20
1502.851411595
 30
0.0
 10
686.2382834209999
 20
1502.8599246364
 30
0.0
 10
686.2819913741
 20
1502.8529550039
 30
0.0
 10
686.3796762554
 20
1502.8631262331
 30
0.0
 10
686.498813108
 20
1502.8702144047
 30
0.0
 10
686.6486996136
 20
1502.8834549372
 30
0.0
 10
686.8824448626
 20
1502.9045751688
 30
0.0
 10
687.0665060313999
 20
1502.9231156884
 30
0.0
 10
687.1929278878
 20
1502.9363940559
 30
0.0
  0
SPLINE
  5
528
330
21D
100
AcDbEntity
  8
0
  6
Continuous
 62
     9
100
AcDbSpline
210
0.0
220
0.0
230
1.0
 70
     8
 71
     3
 72
    11
 73
     7
 74
     0
 42
0.0000000001
 43
0.0000000001
 40
0.0
 40
0.0
 40
0.0
 40
0.0
 40
0.2579225752
 40
0.505532766
 40
0.7523687381000001
 40
1.0
 40
1.0
 40
1.0
 40
1.0
 10
687.018685065
 20
1503.6752000114
 30
0.0
 10
686.7715619644999
 20
1503.7474804068
 30
0.0
 10
686.299854115
 20
1503.9346150284
 30
0.0
 10
685.6418328186
 20
1504.2962664227
 30
0.0
 10
684.952580198
 20
1504.5781222205
 30
0.0
 10
684.4565654432
 20
1504.6489777943
 30
0.0
 10
684.209362209
 20
1504.6489477171
 30
0.0
  0
SPLINE
  5
529
330
21D
100
AcDbEntity
  8
0
  6
Continuous
 62
     9
100
AcDbSpline
210
0.0
220
0.0
230
1.0
 70
     8
 71
     3
 72
    15
 73
    11
 74
     0
 42
0.0000000001
 43
0.0000000001
 40
0.0
 40
0.0
 40
0.0
 40
0.0
 40
0.0070059353
 40
0.0222140845
 40
0.0795911789
 40
0.1720219
 40
0.2959011384
 40
0.4467401354
 40
0.6189304521
 40
1.0
 40
1.0
 40
1.0
 40
1.0
 10
602.5635985812
 20
1502.7536575269
 30
0.0
 10
602.5638435314999
 20
1502.7583314569
 30
0.0
 10
602.5800205842999
 20
1502.767179282
 30
0.0
 10
602.6283915676999
 20
1502.777731031
 30
0.0
 10
602.7419281096999
 20
1502.788963634
 30
0.0
 10
602.9226115033999
 20
1502.7953923235
 30
0.0
 10
603.1687587093
 20
1502.7977536172
 30
0.0
 10
603.4670052991
 20
1502.794479705
 30
0.0
 10
603.9373749566999
 20
1502.7827618552
 30
0.0
 10
604.3066295367
 20
1502.766944564
 30
0.0
 10
604.5608576507
 20
1502.7536575269
 30
0.0
  0
SPLINE
  5
52A
330
21D
100
AcDbEntity
  8
0
  6
Continuous
 62
     9
100
AcDbSpline
210
0.0
220
0.0
230
1.0
 70
     8
 71
     3
 72
    15
 73
    11
 74
     0
 42
0.0000000001
 43
0.0000000001
 40
0.0
 40
0.0
 40
0.0
 40
0.0
 40
0.3812352322
 40
0.553425983
 40
0.7042498131999999
 40
0.8280893693999999
 40
0.9204723737
 40
0.9778116734000001
 40
0.9930071439
 40
1.0
 40
1.0
 40
1.0
 40
1.0
 10
684.2093622016999
 20
1502.7536575269
 30
0.0
 10
684.4619609080999
 20
1502.7801340012
 30
0.0
 10
684.8289778792
 20
1502.815140115
 30
0.0
 10
685.2968956461999
 20
1502.8513601381
 30
0.0
 10
685.5937014692
 20
1502.870198361
 30
0.0
 10
685.8388902569
 20
1502.8807176969
 30
0.0
 10
686.0190701876
 20
1502.8837754951
 30
0.0
 10
686.1326751697999
 20
1502.8785579516
 30
0.0
 10
686.1813444093
 20
1502.8706090765
 30
0.0
 10
686.197919025
 20
1502.8626757267
 30
0.0
 10
686.1984059924
 20
1502.858042541
 30
0.0
  0
SPLINE
  5
52F
330
21D
100
AcDbEntity
  8
0
  6
Continuous
 62
     9
100
AcDbSpline
210
0.0
220
0.0
230
1.0
 70
     8
 71
     3
 72
    18
 73
    14
 74
     0
 42
0.0000000001
 43
0.0000000001
 40
0.0
 40
0.0
 40
0.0
 40
0.0
 40
0.1974310903
 40
0.3865480606
 40
0.5594768986
 40
0.7101994394
 40
0.8334191858
 40
0.8833663741999998
 40
0.9248704509000001
 40
0.9574860805
 40
0.9809904905999999
 40
0.9952167598
 40
1.0
 40
1.0
 40
1.0
 40
1.0
 10
802.0014843335001
 20
1478.6127295304
 30
0.0
 10
802.006441596
 20
1478.7373697618
 30
0.0
 10
802.0161937922001
 20
1478.9814015269
 30
0.0
 10
802.0304609882
 20
1479.3345879756
 30
0.0
 10
802.0436603483998
 20
1479.6583167836
 30
0.0
 10
802.05541459
 20
1479.9403307161
 30
0.0
 10
802.0638740630001
 20
1480.144983594
 30
0.0
 10
802.0699956669
 20
1480.2801731737
 30
0.0
 10
802.072874045
 20
1480.3591655029
 30
0.0
 10
802.0771873425999
 20
1480.4189946095
 30
0.0
 10
802.0758462036999
 20
1480.4674812506
 30
0.0
 10
802.0833710597999
 20
1480.4870559235
 30
0.0
 10
802.0777295527999
 20
1480.5066060693
 30
0.0
 10
802.0807492735
 20
1480.5064862973
 30
0.0
  0
SPLINE
  5
530
330
21D
100
AcDbEntity
  8
0
  6
Continuous
 62
     9
100
AcDbSpline
210
0.0
220
0.0
230
1.0
 70
     8
 71
     3
 72
    21
 73
    17
 74
     0
 42
0.0000000001
 43
0.0000000001
 40
0.0
 40
0.0
 40
0.0
 40
0.0
 40
0.1935453297
 40
0.3796643141
 40
0.5514377979999999
 40
0.7027466165
 40
0.7689911109000001
 40
0.8280690417
 40
0.8793526324
 40
0.9222087893000001
 40
0.9560928107999998
 40
0.9805083801
 40
0.989046564
 40
0.9951172632999998
 40
0.9987236384999999
 40
1.0
 40
1.0
 40
1.0
 40
1.0
 10
709.9802844784
 20
1478.5988463088
 30
0.0
 10
709.5998251341999
 20
1478.5132873969
 30
0.0
 10
708.8452755098
 20
1478.3798629108
 30
0.0
 10
707.7367534681
 20
1478.2863234283
 30
0.0
 10
706.7096534316
 20
1478.2878310541
 30
0.0
 10
705.9268912655999
 20
1478.3484289202
 30
0.0
 10
705.3738905758
 20
1478.4184379777
 30
0.0
 10
705.0221336433999
 20
1478.4725499984
 30
0.0
 10
704.7181868885001
 20
1478.5262342472
 30
0.0
 10
704.464674242
 20
1478.5750143054
 30
0.0
 10
704.2654449600998
 20
1478.6152969502
 30
0.0
 10
704.1322163816
 20
1478.6417163895
 30
0.0
 10
704.0563562386999
 20
1478.6553820302
 30
0.0
 10
704.0174396364
 20
1478.6605757523
 30
0.0
 10
703.9999861182001
 20
1478.6625908583
 30
0.0
 10
703.9852336671999
 20
1478.6615366597
 30
0.0
 10
703.9853564288001
 20
1478.6589679391
 30
0.0
  0
SPLINE
  5
531
330
21D
100
AcDbEntity
  8
0
  6
Continuous
 62
     9
100
AcDbSpline
210
0.0
220
0.0
230
1.0
 70
     8
 71
     3
 72
    19
 73
    15
 74
     0
 42
0.0000000001
 43
0.0000000001
 40
0.0
 40
0.0
 40
0.0
 40
0.0
 40
0.0055218466
 40
0.0204162047
 40
0.0447494234
 40
0.0783298609
 40
0.120799146
 40
0.1717665053
 40
0.2306999483
 40
0.2969906774
 40
0.4489048123
 40
0.6212632387000001
 40
0.8074151998999999
 40
1.0
 40
1.0
 40
1.0
 40
1.0
 10
703.9853564288001
 20
1478.6589679391
 30
0.0
 10
703.9848369489
 20
1478.6683545175
 30
0.0
 10
703.9364272639
 20
1478.673921954
 30
0.0
 10
703.8757369122
 20
1478.6946719552
 30
0.0
 10
703.7460437214
 20
1478.7137263993
 30
0.0
 10
703.5805392577
 20
1478.7415386752
 30
0.0
 10
703.3653996024001
 20
1478.7730241053
 30
0.0
 10
703.1091027236999
 20
1478.8102962694
 30
0.0
 10
702.8120265147
 20
1478.8528216996
 30
0.0
 10
702.3451055188001
 20
1478.9202984479
 30
0.0
 10
701.6873650650999
 20
1479.0181050235
 30
0.0
 10
700.8290897483
 20
1479.1542362632
 30
0.0
 10
699.9042844795
 20
1479.3126160264
 30
0.0
 10
699.270334133
 20
1479.4305636625
 30
0.0
 10
698.9484903294999
 20
1479.4931651908
 30
0.0
  0
SPLINE
  5
532
330
21D
100
AcDbEntity
  8
0
  6
Continuous
 62
     9
100
AcDbSpline
210
0.0
220
0.0
230
1.0
 70
     8
 71
     3
 72
    22
 73
    18
 74
     0
 42
0.0000000001
 43
0.0000000001
 40
0.0
 40
0.0
 40
0.0
 40
0.0
 40
0.0013446511
 40
0.0050238538
 40
0.0110771394
 40
0.01950106
 40
0.0302865628
 40
0.0434111092
 40
0.0765258363
 40
0.1185335933
 40
0.1690354768
 40
0.2275307939
 40
0.2934710236
 40
0.4450307803000001
 40
0.6178207771000001
 40
0.8052389714
 40
1.0
 40
1.0
 40
1.0
 40
1.0
 10
812.0032983869
 20
1478.3166149837
 30
0.0
 10
812.0030177085
 20
1478.3210919397
 30
0.0
 10
811.9790338160999
 20
1478.3223725547
 30
0.0
 10
811.9494091932001
 20
1478.3298481095
 30
0.0
 10
811.8852012188
 20
1478.3342433583
 30
0.0
 10
811.8028687142999
 20
1478.3411364814
 30
0.0
 10
811.6945514180999
 20
1478.3476219385
 30
0.0
 10
811.5049052244
 20
1478.3580116992
 30
0.0
 10
811.2106071228998
 20
1478.371221703
 30
0.0
 10
810.7919284648
 20
1478.3875632455
 30
0.0
 10
810.2884481764
 20
1478.4050220178
 30
0.0
 10
809.7051618166
 20
1478.4235447511
 30
0.0
 10
808.7848395167
 20
1478.4507032219
 30
0.0
 10
807.4833064959999
 20
1478.4857163582
 30
0.0
 10
805.7765742299
 20
1478.5279841575
 30
0.0
 10
803.9256983380001
 20
1478.5709012598
 30
0.0
 10
802.6510576611999
 20
1478.5988640099
 30
0.0
 10
802.0014843335001
 20
1478.6127295304
 30
0.0
  0
SPLINE
  5
533
330
21D
100
AcDbEntity
  8
7_ALL_FEATURES
  6
Continuous
 62
     7
100
AcDbSpline
210
0.0
220
0.0
230
1.0
 70
     8
 71
     3
 72
     8
 73
     4
 74
     0
 42
0.0000000001
 43
0.0000000001
 40
0.0
 40
0.0
 40
0.0
 40
0.0
 40
1.0
 40
1.0
 40
1.0
 40
1.0
 10
1000.695157733
 20
1510.7168147713
 30
0.0
 10
909.3507364922
 20
1513.0262511254
 30
0.0
 10
818.0062262244
 20
1515.3321668104
 30
0.0
 10
726.6616682597999
 20
1517.6361890204
 30
0.0
  0
LINE
  5
534
330
21D
100
AcDbEntity
  8
0
  6
Continuous
 62
     7
100
AcDbLine
 10
719.4133852769
 20
1517.8190050453
 30
0.0
 11
725.4714230985
 21
1517.687604391
 31
0.0
1001
ACAD
1000
RTMaterial
1005
0
  0
LINE
  5
535
330
21D
100
AcDbEntity
  8
7_ALL_FEATURES
  6
Continuous
 62
     7
100
AcDbLine
 10
1185.9688645133
 20
1506.0228170155
 30
0.0
 11
1183.4577214469
 21
1506.0864683554
 31
0.0
1001
ACAD
1000
RTMaterial
1005
0
  0
SPLINE
  5
536
330
21D
100
AcDbEntity
  8
7_ALL_FEATURES
  6
Continuous
 62
     9
100
AcDbSpline
210
0.0
220
0.0
230
1.0
 70
     8
 71
     3
 72
     8
 73
     4
 74
     0
 42
0.0000000001
 43
0.0000000001
 40
0.0
 40
0.0
 40
0.0
 40
0.0
 40
1.0
 40
1.0
 40
1.0
 40
1.0
 10
1003.3432843485
 20
1510.6534511132
 30
0.0
 10
1002.4605867859
 20
1510.6750399183
 30
0.0
 10
1001.5778825708
 20
1510.6963719439
 30
0.0
 10
1000.695157733
 20
1510.7168151375
 30
0.0
  0
LINE
  5
537
330
21D
100
AcDbEntity
  8
7_ALL_FEATURES
  6
Continuous
 62
     9
100
AcDbLine
 10
1187.9069383075
 20
1504.1283648119
 30
0.0
 11
1185.3679210777
 21
1504.1920148872
 31
0.0
1001
ACAD
1000
RTMaterial
1005
0
  0
LINE
  5
538
330
21D
100
AcDbEntity
  8
7_ALL_FEATURES
  6
Continuous
 62
     9
100
AcDbLine
 10
1185.3679210777
 20
1504.1920148872
 30
0.0
 11
1003.3222995405
 21
1508.7587538712
 31
0.0
1001
ACAD
1000
RTMaterial
1005
0
  0
LINE
  5
539
330
21D
100
AcDbEntity
  8
7_ALL_FEATURES
  6
Continuous
 62
     9
100
AcDbLine
 10
1183.4577214469
 20
1506.0864683554
 30
0.0
 11
1003.3432843485
 21
1510.6534511132
 31
0.0
1001
ACAD
1000
RTMaterial
1005
0
  0
SPLINE
  5
53A
330
21D
100
AcDbEntity
  8
7_ALL_FEATURES
  6
Continuous
 62
     9
100
AcDbSpline
210
0.0
220
0.0
230
1.0
 70
     8
 71
     3
 72
     8
 73
     4
 74
     0
 42
0.0000000001
 43
0.0000000001
 40
0.0
 40
0.0
 40
0.0
 40
0.0
 40
1.0
 40
1.0
 40
1.0
 40
1.0
 10
1000.6773007412
 20
1508.820742705
 30
0.0
 10
909.3207658085001
 20
1511.0447959607
 30
0.0
 10
817.9657876628001
 20
1513.3326863114
 30
0.0
 10
726.6112375161
 20
1515.6368250434
 30
0.0
  0
LINE
  5
53B
330
21D
100
AcDbEntity
  8
7_ALL_FEATURES
  6
Continuous
 62
     9
100
AcDbLine
 10
1003.3223166574
 20
1508.7595109243
 30
0.0
 11
1000.6773091306
 21
1508.8211228743
 31
0.0
1001
ACAD
1000
RTMaterial
1005
0
  0
SPLINE
  5
53C
330
21D
100
AcDbEntity
  8
7_ALL_FEATURES
  6
Continuous
 62
     9
100
AcDbSpline
210
0.0
220
0.0
230
1.0
 70
     8
 71
     3
 72
     9
 73
     5
 74
     0
 42
0.0000000001
 43
0.0000000001
 40
0.0
 40
0.0
 40
0.0
 40
0.0
 40
0.5023902050000001
 40
1.0
 40
1.0
 40
1.0
 40
1.0
 10
1185.3678965061
 20
1504.1920135812
 30
0.0
 10
1185.3432737872
 20
1504.6751326818
 30
0.0
 10
1184.9226344264
 20
1505.655488214
 30
0.0
 10
1183.9366532916
 20
1506.0722399742
 30
0.0
 10
1183.4577214427
 20
1506.0864682134
 30
0.0
  0
SPLINE
  5
53D
330
21D
100
AcDbEntity
  8
7_ALL_FEATURES
  6
Continuous
 62
     9
100
AcDbSpline
210
0.0
220
0.0
230
1.0
 70
     8
 71
     3
 72
    16
 73
    12
 74
     0
 42
0.0000000001
 43
0.0000000001
 40
0.0
 40
0.0
 40
0.0
 40
0.0
 40
0.3846858435
 40
0.5576352717000001
 40
0.7081385502
 40
0.8313937185
 40
0.9229062723
 40
0.9557755368999998
 40
0.9797261813
 40
0.9945250704000001
 40
1.0
 40
1.0
 40
1.0
 40
1.0
 10
1003.3223001245
 20
1508.7587538564
 30
0.0
 10
1003.328078267
 20
1509.0017092162
 30
0.0
 10
1003.3356795357
 20
1509.3539396807
 30
0.0
 10
1003.3433570627
 20
1509.801175996
 30
0.0
 10
1003.3473639613
 20
1510.0835014185
 30
0.0
 10
1003.3490403813
 20
1510.3138514948
 30
0.0
 10
1003.3501318456
 20
1510.471169722
 30
0.0
 10
1003.3479914102
 20
1510.5636659203
 30
0.0
 10
1003.3488290913
 20
1510.6109606882
 30
0.0
 10
1003.3439308092
 20
1510.6350809526
 30
0.0
 10
1003.3464317008
 20
1510.652016804
 30
0.0
 10
1003.3432843486
 20
1510.6534511192
 30
0.0
  0
SPLINE
  5
53E
330
21D
100
AcDbEntity
  8
7_ALL_FEATURES
  6
Continuous
 62
     9
100
AcDbSpline
210
0.0
220
0.0
230
1.0
 70
     8
 71
     3
 72
    16
 73
    12
 74
     0
 42
0.0000000001
 43
0.0000000001
 40
0.0
 40
0.0
 40
0.0
 40
0.0
 40
0.3846915789
 40
0.5576588996999999
 40
0.7081780482
 40
0.8314407973999999
 40
0.9229472045999999
 40
0.9558076773999999
 40
0.9797461609999999
 40
0.9945309957999999
 40
1.0
 40
1.0
 40
1.0
 40
1.0
 10
1000.6773007411
 20
1508.8207427045
 30
0.0
 10
1000.6828315481
 20
1509.063883581
 30
0.0
 10
1000.6901374213
 20
1509.4163917406
 30
0.0
 10
1000.6974848206
 20
1509.8639794161
 30
0.0
 10
1000.7012793691
 20
1510.1465463107
 30
0.0
 10
1000.7027675097
 20
1510.3770540875
 30
0.0
 10
1000.7036613157
 20
1510.5345295879
 30
0.0
 10
1000.7013781971
 20
1510.6270084796
 30
0.0
 10
1000.702049528
 20
1510.6744232708
 30
0.0
 10
1000.6971256332
 20
1510.6983337777
 30
0.0
 10
1000.6994203872
 20
1510.7154813526
 30
0.0
 10
1000.6962192377
 20
1510.7167879328
 30
0.0
  0
SPLINE
  5
53F
330
21D
100
AcDbEntity
  8
7_ALL_FEATURES
  6
Continuous
 62
     9
100
AcDbSpline
210
0.0
220
0.0
230
1.0
 70
     8
 71
     3
 72
    12
 73
     8
 74
     0
 42
0.0000000001
 43
0.0000000001
 40
0.0
 40
0.0
 40
0.0
 40
0.0
 40
0.1247844795
 40
0.2498373421
 40
0.4999761353000001
 40
0.7501125728
 40
1.0
 40
1.0
 40
1.0
 40
1.0
 10
914.5042088603
 20
1481.148983002
 30
0.0
 10
918.3661964613001
 20
1480.9570950066
 30
0.0
 10
926.0985875928998
 20
1480.5748967534
 30
0.0
 10
941.5698203928998
 20
1479.7540017188
 30
0.0
 10
960.92140296
 20
1478.7556083463
 30
0.0
 10
984.1357397661999
 20
1477.5502901219
 30
0.0
 10
999.6096798397999
 20
1476.7523614861
 30
0.0
 10
1007.3439855783
 20
1476.3777611098
 30
0.0
  0
LINE
  5
540
330
21D
100
AcDbEntity
  8
7_ALL_FEATURES
  6
Continuous
 62
     9
100
AcDbLine
 10
1007.3439855783
 20
1476.3777611098
 30
0.0
 11
1008.2717106281
 21
1476.3328558817
 31
0.0
1001
ACAD
1000
RTMaterial
1005
0
  0
SPLINE
  5
541
330
21D
100
AcDbEntity
  8
7_ALL_FEATURES
  6
Continuous
 62
     9
100
AcDbSpline
210
0.0
220
0.0
230
1.0
 70
     8
 71
     3
 72
     9
 73
     5
 74
     0
 42
0.0000000001
 43
0.0000000001
 40
0.0
 40
0.0
 40
0.0
 40
0.0
 40
0.2513568759
 40
1.0
 40
1.0
 40
1.0
 40
1.0
 10
1008.2717106281
 20
1476.3328558817
 30
0.0
 10
1009.4588429504
 20
1476.2754277518
 30
0.0
 10
1014.1817703683
 20
1476.0476109152
 30
0.0
 10
1018.9046379142
 20
1475.8185502203
 30
0.0
 10
1022.4404671502
 20
1475.6488715696
 30
0.0
  0
SPLINE
  5
542
330
21D
100
AcDbEntity
  8
7_ALL_FEATURES
  6
Continuous
 62
     9
100
AcDbSpline
210
0.0
220
0.0
230
1.0
 70
     8
 71
     3
 72
     9
 73
     5
 74
     0
 42
0.0000000001
 43
0.0000000001
 40
0.0
 40
0.0
 40
0.0
 40
0.0
 40
0.2305059025
 40
1.0
 40
1.0
 40
1.0
 40
1.0
 10
886.3272037111
 20
1480.7621615256
 30
0.0
 10
886.2783342452001
 20
1480.7469305231
 30
0.0
 10
886.0647457575
 20
1480.685986069
 30
0.0
 10
885.8445273376
 20
1480.648683284
 30
0.0
 10
885.6744175938999
 20
1480.6324772266
 30
0.0
  0
SPLINE
  5
543
330
21D
100
AcDbEntity
  8
7_ALL_FEATURES
  6
Continuous
 62
     9
100
AcDbSpline
210
0.0
220
0.0
230
1.0
 70
     8
 71
     3
 72
     9
 73
     5
 74
     0
 42
0.0000000001
 43
0.0000000001
 40
0.0
 40
0.0
 40
0.0
 40
0.0
 40
0.2656347963
 40
1.0
 40
1.0
 40
1.0
 40
1.0
 10
866.9742404502001
 20
1480.6156576565
 30
0.0
 10
866.898113256
 20
1480.6156941197
 30
0.0
 10
866.6116412896
 20
1480.623603662
 30
0.0
 10
866.3256539195
 20
1480.6646735756
 30
0.0
 10
866.1216207870999
 20
1480.7162814145
 30
0.0
  0
SPLINE
  5
544
330
21D
100
AcDbEntity
  8
7_ALL_FEATURES
  6
Continuous
 62
     9
100
AcDbSpline
210
0.0
220
0.0
230
1.0
 70
     8
 71
     3
 72
     9
 73
     5
 74
     0
 42
0.0000000001
 43
0.0000000001
 40
0.0
 40
0.0
 40
0.0
 40
0.0
 40
0.3496976584
 40
1.0
 40
1.0
 40
1.0
 40
1.0
 10
1084.1543130297
 20
1480.4125731164
 30
0.0
 10
1084.1520316183
 20
1480.3998351688
 30
0.0
 10
1084.1452132067
 20
1480.3657838751
 30
0.0
 10
1084.1191688767
 20
1480.3226300852
 30
0.0
 10
1084.0951042999
 20
1480.3226462656
 30
0.0
  0
SPLINE
  5
545
330
21D
100
AcDbEntity
  8
7_ALL_FEATURES
  6
Continuous
 62
     9
100
AcDbSpline
210
0.0
220
0.0
230
1.0
 70
     8
 71
     3
 72
     8
 73
     4
 74
     0
 42
0.0000000001
 43
0.0000000001
 40
0.0
 40
0.0
 40
0.0
 40
0.0
 40
1.0
 40
1.0
 40
1.0
 40
1.0
 10
865.9589915836999
 20
1480.7621615256
 30
0.0
 10
865.8874030977999
 20
1480.8230099299
 30
0.0
 10
865.8191318007
 20
1480.8878969125
 30
0.0
 10
865.7539348681
 20
1480.9555489605
 30
0.0
  0
SPLINE
  5
546
330
21D
100
AcDbEntity
  8
7_ALL_FEATURES
  6
Continuous
 62
     9
100
AcDbSpline
210
0.0
220
0.0
230
1.0
 70
     8
 71
     3
 72
     8
 73
     4
 74
     0
 42
0.0000000001
 43
0.0000000001
 40
0.0
 40
0.0
 40
0.0
 40
0.0
 40
1.0
 40
1.0
 40
1.0
 40
1.0
 10
865.7539348681
 20
1480.9555489605
 30
0.0
 10
865.6939289641998
 20
1481.0178145017
 30
0.0
 10
865.6364123471
 20
1481.0825391115
 30
0.0
 10
865.5810718704
 20
1481.1489856144
 30
0.0
  0
SPLINE
  5
547
330
21D
100
AcDbEntity
  8
7_ALL_FEATURES
  6
Continuous
 62
     9
100
AcDbSpline
210
0.0
220
0.0
230
1.0
 70
     8
 71
     3
 72
     8
 73
     4
 74
     0
 42
0.0000000001
 43
0.0000000001
 40
0.0
 40
0.0
 40
0.0
 40
0.0
 40
1.0
 40
1.0
 40
1.0
 40
1.0
 10
886.6130362947
 20
1481.0424163807
 30
0.0
 10
886.5396055744
 20
1480.9607372314
 30
0.0
 10
886.4623154913999
 20
1480.8822585857
 30
0.0
 10
886.3806118694999
 20
1480.8088550961
 30
0.0
  0
SPLINE
  5
548
330
21D
100
AcDbEntity
  8
7_ALL_FEATURES
  6
Continuous
 62
     9
100
AcDbSpline
210
0.0
220
0.0
230
1.0
 70
     8
 71
     3
 72
     9
 73
     5
 74
     0
 42
0.0000000001
 43
0.0000000001
 40
0.0
 40
0.0
 40
0.0
 40
0.0
 40
0.2529919453
 40
1.0
 40
1.0
 40
1.0
 40
1.0
 10
1068.3403577559
 20
1480.3226374067
 30
0.0
 10
1068.2195133608
 20
1480.3226854785
 30
0.0
 10
1067.7418417761
 20
1480.3501015365
 30
0.0
 10
1067.2732244012
 20
1480.478699088
 30
0.0
 10
1066.9423772485
 20
1480.6123340315
 30
0.0
  0
SPLINE
  5
549
330
21D
100
AcDbEntity
  8
7_ALL_FEATURES
  6
Continuous
 62
     9
100
AcDbSpline
210
0.0
220
0.0
230
1.0
 70
     8
 71
     3
 72
     8
 73
     4
 74
     0
 42
0.0000000001
 43
0.0000000001
 40
0.0
 40
0.0
 40
0.0
 40
0.0
 40
1.0
 40
1.0
 40
1.0
 40
1.0
 10
1066.9423772485
 20
1480.6123340315
 30
0.0
 10
1066.5893202679
 20
1480.7549399124
 30
0.0
 10
1066.2531209168
 20
1480.941305017
 30
0.0
 10
1065.9339745343
 20
1481.1489856743
 30
0.0
  0
SPLINE
  5
54A
330
21D
100
AcDbEntity
  8
7_ALL_FEATURES
  6
Continuous
 62
     9
100
AcDbSpline
210
0.0
220
0.0
230
1.0
 70
     8
 71
     3
 72
     8
 73
     4
 74
     0
 42
0.0000000001
 43
0.0000000001
 40
0.0
 40
0.0
 40
0.0
 40
0.0
 40
1.0
 40
1.0
 40
1.0
 40
1.0
 10
886.37954655
 20
1481.0477879563
 30
0.0
 10
886.3460364465
 20
1480.9569796104
 30
0.0
 10
886.3288747707001
 20
1480.8589588917
 30
0.0
 10
886.3271015756
 20
1480.7621811128
 30
0.0
  0
SPLINE
  5
54B
330
21D
100
AcDbEntity
  8
7_ALL_FEATURES
  6
Continuous
 62
     9
100
AcDbSpline
210
0.0
220
0.0
230
1.0
 70
     8
 71
     3
 72
     9
 73
     5
 74
     0
 42
0.0000000001
 43
0.0000000001
 40
0.0
 40
0.0
 40
0.0
 40
0.0
 40
0.4775322119000001
 40
1.0
 40
1.0
 40
1.0
 40
1.0
 10
866.2385609503999
 20
1481.1489856144
 30
0.0
 10
866.3895404157001
 20
1481.1489855154
 30
0.0
 10
866.7109734098
 20
1481.0357730855
 30
0.0
 10
866.9078544834
 20
1480.7669173896
 30
0.0
 10
866.9742404449999
 20
1480.615657658
 30
0.0
  0
SPLINE
  5
54C
330
21D
100
AcDbEntity
  8
7_ALL_FEATURES
  6
Continuous
 62
     9
100
AcDbSpline
210
0.0
220
0.0
230
1.0
 70
     8
 71
     3
 72
     8
 73
     4
 74
     0
 42
0.0000000001
 43
0.0000000001
 40
0.0
 40
0.0
 40
0.0
 40
0.0
 40
1.0
 40
1.0
 40
1.0
 40
1.0
 10
885.4970052449999
 20
1480.8984756304
 30
0.0
 10
885.4198355207001
 20
1480.8164084991
 30
0.0
 10
885.3572733417999
 20
1480.7188131404
 30
0.0
 10
885.311998509
 20
1480.6156609718
 30
0.0
  0
SPLINE
  5
54D
330
21D
100
AcDbEntity
  8
7_ALL_FEATURES
  6
Continuous
 62
     9
100
AcDbSpline
210
0.0
220
0.0
230
1.0
 70
     8
 71
     3
 72
     8
 73
     4
 74
     0
 42
0.0000000001
 43
0.0000000001
 40
0.0
 40
0.0
 40
0.0
 40
0.0
 40
1.0
 40
1.0
 40
1.0
 40
1.0
 10
865.9065595766
 20
1481.0477516753
 30
0.0
 10
865.9400590037
 20
1480.9569460555
 30
0.0
 10
865.9572160075001
 20
1480.8589329773
 30
0.0
 10
865.9589914149
 20
1480.7621614933
 30
0.0
  0
SPLINE
  5
54E
330
21D
100
AcDbEntity
  8
7_ALL_FEATURES
  6
Continuous
 62
     9
100
AcDbSpline
210
0.0
220
0.0
230
1.0
 70
     8
 71
     3
 72
    10
 73
     6
 74
     0
 42
0.0000000001
 43
0.0000000001
 40
0.0
 40
0.0
 40
0.0
 40
0.0
 40
0.1849343014
 40
0.5331045066
 40
1.0
 40
1.0
 40
1.0
 40
1.0
 10
1067.9101989971
 20
1481.1489856143
 30
0.0
 10
1067.9448770945
 20
1481.1489870665
 30
0.0
 10
1068.0451706613
 20
1481.1181769254
 30
0.0
 10
1068.1737239448
 20
1480.97097267
 30
0.0
 10
1068.2335608697
 20
1480.8294295602
 30
0.0
 10
1068.2605576121
 20
1480.7461455576
 30
0.0
  0
SPLINE
  5
54F
330
21D
100
AcDbEntity
  8
7_ALL_FEATURES
  6
Continuous
 62
     9
100
AcDbSpline
210
0.0
220
0.0
230
1.0
 70
     8
 71
     3
 72
     9
 73
     5
 74
     0
 42
0.0000000001
 43
0.0000000001
 40
0.0
 40
0.0
 40
0.0
 40
0.0
 40
0.2350408821
 40
1.0
 40
1.0
 40
1.0
 40
1.0
 10
1068.2605576121
 20
1480.7461455576
 30
0.0
 10
1068.2709827608
 20
1480.7139843399
 30
0.0
 10
1068.3101918037
 20
1480.5755057847
 30
0.0
 10
1068.3319057259
 20
1480.4323453696
 30
0.0
 10
1068.3403577559
 20
1480.3226374067
 30
0.0
  0
SPLINE
  5
550
330
21D
100
AcDbEntity
  8
7_ALL_FEATURES
  6
Continuous
 62
     9
100
AcDbSpline
210
0.0
220
0.0
230
1.0
 70
     8
 71
     3
 72
     8
 73
     4
 74
     0
 42
0.0000000001
 43
0.0000000001
 40
0.0
 40
0.0
 40
0.0
 40
0.0
 40
1.0
 40
1.0
 40
1.0
 40
1.0
 10
1084.7781934518
 20
1481.102936205
 30
0.0
 10
1084.6843440059
 20
1481.073508053
 30
0.0
 10
1084.5938714422
 20
1481.0296426828
 30
0.0
 10
1084.5128406135
 20
1480.9738955805
 30
0.0
  0
SPLINE
  5
551
330
21D
100
AcDbEntity
  8
7_ALL_FEATURES
  6
Continuous
 62
     9
100
AcDbSpline
210
0.0
220
0.0
230
1.0
 70
     8
 71
     3
 72
     8
 73
     4
 74
     0
 42
0.0000000001
 43
0.0000000001
 40
0.0
 40
0.0
 40
0.0
 40
0.0
 40
1.0
 40
1.0
 40
1.0
 40
1.0
 10
1084.3866547908
 20
1480.8709079615
 30
0.0
 10
1084.3105924179
 20
1480.7976937995
 30
0.0
 10
1084.2456795221
 20
1480.711053675
 30
0.0
 10
1084.1964488298
 20
1480.6176612929
 30
0.0
  0
SPLINE
  5
552
330
21D
100
AcDbEntity
  8
0
  6
Continuous
 62
     9
100
AcDbSpline
210
0.0
220
0.0
230
1.0
 70
     8
 71
     3
 72
    33
 73
    29
 74
     0
 42
0.0000000001
 43
0.0000000001
 40
0.0
 40
0.0
 40
0.0
 40
0.0
 40
0.1939317211
 40
0.3811469518
 40
0.4700723602
 40
0.5543994119
 40
0.6330879676
 40
0.7054961499
 40
0.7710826226
 40
0.8293540944
 40
0.8798445401
 40
0.9020276801999999
 40
0.9220859868000001
 40
0.939965205
 40
0.9556163634
 40
0.9689919662999999
 40
0.9800381355999999
 40
0.9846718814
 40
0.9887055195
 40
0.9921336859
 40
0.9949509066999999
 40
0.9971516784
 40
0.9980191748999999
 40
0.9987304878999999
 40
0.9992849221
 40
0.9996817823999998
 40
0.9999203732999999
 40
1.0
 40
1.0
 40
1.0
 40
1.0
 10
998.9440849542999
 20
1468.3189257351
 30
0.0
 10
1010.9394507883
 20
1468.1845834756
 30
0.0
 10
1034.5154405417
 20
1467.9856271702
 30
0.0
 10
1063.5921374753
 20
1467.7756565938
 30
0.0
 10
1085.8889785679
 20
1467.5905822565
 30
0.0
 10
1101.4728414091
 20
1467.4584474695
 30
0.0
 10
1116.035033073
 20
1467.3352909757
 30
0.0
 10
1129.4381353313
 20
1467.2362173791
 30
0.0
 10
1141.5783511513
 20
1467.1505363042
 30
0.0
 10
1152.362821993
 20
1467.0738204261
 30
0.0
 10
1160.462559126
 20
1467.0186651537
 30
0.0
 10
1166.1985823285
 20
1466.9795321443
 30
0.0
 10
1169.9174046194
 20
1466.9540226666
 30
0.0
 10
1173.2321851335
 20
1466.931263125
 30
0.0
 10
1176.133599193
 20
1466.9113653255
 30
0.0
 10
1178.6123527862
 20
1466.8943756171
 30
0.0
 10
1180.4096014581
 20
1466.8819458054
 30
0.0
 10
1181.6290146451
 20
1466.8734153815
 30
0.0
 10
1182.3771648821
 20
1466.8681879378
 30
0.0
 10
1183.0130749706
 20
1466.8637096678
 30
0.0
 10
1183.5352652924
 20
1466.8601651136
 30
0.0
 10
1183.8999033336
 20
1466.8573331529
 30
0.0
 10
1184.1327945268
 20
1466.8560188688
 30
0.0
 10
1184.2666377499
 20
1466.854218315
 30
0.0
 10
1184.3645868018
 20
1466.8555669633
 30
0.0
 10
1184.4492862353
 20
1466.8501846332
 30
0.0
 10
1184.4740099531
 20
1466.8583162858
 30
0.0
 10
1184.5139140005
 20
1466.8493863997
 30
0.0
 10
1184.5105296267
 20
1466.8529650258
 30
0.0
  0
SPLINE
  5
554
330
21D
100
AcDbEntity
  8
0
  6
Continuous
 62
     9
100
AcDbSpline
210
0.0
220
0.0
230
1.0
 70
     8
 71
     3
 72
    12
 73
     8
 74
     0
 42
0.0000000001
 43
0.0000000001
 40
0.0
 40
0.0
 40
0.0
 40
0.0
 40
0.1250000835
 40
0.2500001269
 40
0.5000001470000001
 40
0.7500001103000001
 40
1.0
 40
1.0
 40
1.0
 40
1.0
 10
601.1431044483
 20
1469.2498366413
 30
0.0
 10
617.7181873823
 20
1469.2287700957
 30
0.0
 10
650.8683371469999
 20
1469.1737199875
 30
0.0
 10
717.1684398367999
 20
1468.9872056693
 30
0.0
 10
800.0436054511999
 20
1468.7779671715
 30
0.0
 10
899.4937734217
 20
1468.5248330491
 30
0.0
 10
965.7940716560998
 20
1468.429235401
 30
0.0
 10
998.9440526292
 20
1468.321548172
 30
0.0
  0
SPLINE
  5
55B
330
21D
100
AcDbEntity
  8
0
  6
Continuous
 62
     9
100
AcDbSpline
210
0.0
220
0.0
230
1.0
 70
     8
 71
     3
 72
    11
 73
     7
 74
     0
 42
0.0000000001
 43
0.0000000001
 40
0.0
 40
0.0
 40
0.0
 40
0.0
 40
0.2501006202
 40
0.5001628567000001
 40
0.7501308985
 40
1.0
 40
1.0
 40
1.0
 40
1.0
 10
848.7963446507
 20
1162.5018634867
 30
0.0
 10
846.2861249663999
 20
1162.6438899168
 30
0.0
 10
841.2789528331
 20
1163.4230449631
 30
0.0
 10
834.166944276
 20
1166.0806572893
 30
0.0
 10
827.7476747234
 20
1170.1303799807
 30
0.0
 10
824.1039055857001
 20
1173.6505334318
 30
0.0
 10
822.4853960600999
 20
1175.5714975867
 30
0.0
  0
SPLINE
  5
55C
330
21D
100
AcDbEntity
  8
0
  6
Continuous
 62
     9
100
AcDbSpline
210
0.0
220
0.0
230
1.0
 70
     8
 71
     3
 72
    11
 73
     7
 74
     0
 42
0.0000000001
 43
0.0000000001
 40
0.0
 40
0.0
 40
0.0
 40
0.0
 40
0.2498940414
 40
0.4998604779
 40
0.7498812049
 40
1.0
 40
1.0
 40
1.0
 40
1.0
 10
882.9570556799
 20
1175.5858653112
 30
0.0
 10
881.2492060685
 20
1173.5470390992
 30
0.0
 10
877.3804121338999
 20
1169.8247821261
 30
0.0
 10
870.5189180839999
 20
1165.6286469774
 30
0.0
 10
862.9080009467999
 20
1163.0237858785
 30
0.0
 10
857.5754018594999
 20
1162.3999175468
 30
0.0
 10
854.9136128085001
 20
1162.3656939625
 30
0.0
  0
ELLIPSE
  5
55D
330
21D
100
AcDbEntity
  8
0
  6
Continuous
 62
     7
100
AcDbEllipse
 10
198.9732988113
 20
955.8217927777
 30
0.0
 11
-14.3184649819
 21
18.4093708634
 31
0.0
210
0.0
220
0.0
230
1.0
 40
0.1277337849
 41
-4.676866536999999
 42
-4.5083793073
  0
ELLIPSE
  5
55E
330
21D
100
AcDbEntity
  8
0
  6
Continuous
 62
     7
100
AcDbEllipse
 10
189.8431326006999
 20
955.8217927777
 30
0.0
 11
-11.7156086283
 21
18.4469229395
 31
0.0
210
0.0
220
0.0
230
0.9999999999999998
 40
0.1195302186
 41
-4.6527846176
 42
-4.5514775146
  0
ELLIPSE
  5
55F
330
21D
100
AcDbEntity
  8
0
  6
Continuous
 62
     7
100
AcDbEllipse
 10
189.5987739222
 20
955.8217927777
 30
0.0
 11
11.5373711611
 21
18.4491916742
 31
0.0
210
0.0
220
0.0
230
0.9999999999999998
 40
0.1187580475
 41
-1.7327049708
 42
-1.632038454399999
  0
ELLIPSE
  5
560
330
21D
100
AcDbEntity
  8
0
  6
Continuous
 62
     7
100
AcDbEllipse
 10
185.7776177396
 20
955.8217927777
 30
0.0
 11
-7.161509441699998
 21
18.4888872868
 31
0.0
210
0.0
220
0.0
230
1.0
 40
0.0895243378
 41
1.670680196999999
 42
1.934598968999999
  0
ELLIPSE
  5
561
330
21D
100
AcDbEntity
  8
0
  6
Continuous
 62
     7
100
AcDbEllipse
 10
183.5179860251
 20
955.8217927777
 30
0.0
 11
7.161859677499999
 21
18.488885407
 31
0.0
210
0.0
220
0.0
230
0.9999999999999998
 40
0.0895275288
 41
-1.9345960371
 42
-1.670677265099999
  0
ELLIPSE
  5
562
330
21D
100
AcDbEntity
  8
0
  6
Continuous
 62
     7
100
AcDbEllipse
 10
184.4267560429
 20
955.8217927777
 30
0.0
 11
7.130430560599999
 21
18.3889063466
 31
0.0
210
0.0
220
0.0
230
1.0
 40
0.0895942173
 41
-1.843194203399999
 42
-1.7675737602
  0
ELLIPSE
  5
563
330
21D
100
AcDbEntity
  8
0
  6
Continuous
 62
     7
100
AcDbEllipse
 10
188.8679422151
 20
955.8217927777
 30
0.0
 11
-12.4625808424
 21
18.3363530453
 31
0.0
210
0.0
220
0.0
230
1.0
 40
0.1226955596
 41
-4.659936220899999
 42
-4.530428921
  0
ELLIPSE
  5
564
330
21D
100
AcDbEntity
  8
0
  6
Continuous
 62
     7
100
AcDbEllipse
 10
184.8713101197
 20
955.8217927777
 30
0.0
 11
-7.107736870399999
 21
18.3890280042
 31
0.0
210
0.0
220
0.0
230
1.0
 40
0.0893862323
 41
-4.393883817299999
 42
-4.347712184899999
  0
ELLIPSE
  5
565
330
21D
100
AcDbEntity
  8
0
  6
Continuous
 62
     7
100
AcDbEllipse
 10
184.4228523711
 20
955.8217927777
 30
0.0
 11
7.097690600299999
 21
18.3890815892
 31
0.0
210
0.0
220
0.0
230
1.0
 40
0.0892939684
 41
-1.935557566999999
 42
-1.8893859346
  0
ELLIPSE
  5
566
330
21D
100
AcDbEntity
  8
0
  6
Continuous
 62
     7
100
AcDbEllipse
 10
190.574974154
 20
955.8217927777
 30
0.0
 11
11.9107402692
 21
18.4443885111
 31
0.0
210
0.0
220
0.0
230
1.0
 40
0.1203421451
 41
-1.7584513468
 42
-1.628611934199999
  0
ELLIPSE
  5
567
330
21D
100
AcDbEntity
  8
0
  6
Continuous
 62
     7
100
AcDbEllipse
 10
188.8679422151
 20
955.8217927777
 30
0.0
 11
-12.53031226
 21
18.436007138
 31
0.0
210
0.0
220
0.0
230
1.0
 40
0.1226955596
 41
-4.6602159027
 42
-4.5304470836
  0
ELLIPSE
  5
568
330
21D
100
AcDbEntity
  8
0
  6
Continuous
 62
     7
100
AcDbEllipse
 10
197.8267687313
 20
955.8217927777
 30
0.0
 11
-14.3122780801
 21
18.4094682954
 31
0.0
210
0.0
220
0.0
230
1.0
 40
0.127720461
 41
-4.5663861232
 42
-4.397883822099999
  0
ELLIPSE
  5
569
330
21D
100
AcDbEntity
  8
0
  6
Continuous
 62
     7
100
AcDbEllipse
 10
184.8698063921
 20
955.8217927777
 30
0.0
 11
-7.159376941799997
 21
18.48889872819999
 31
0.0
210
0.0
220
0.0
230
1.0
 40
0.0895049059
 41
-4.515365638
 42
-4.440154170199999
  0
ELLIPSE
  5
56A
330
21D
100
AcDbEntity
  8
0
  6
Continuous
 62
     7
100
AcDbEllipse
 10
190.574974154
 20
955.8217927777
 30
0.0
 11
11.8463578894
 21
18.3446891137
 31
0.0
210
0.0
220
0.0
230
1.0
 40
0.1203421451
 41
-1.758469893
 42
-1.628922273999999
  0
ELLIPSE
  5
56B
330
21D
100
AcDbEntity
  8
0
  6
Continuous
 62
     7
100
AcDbEllipse
 10
184.4267560429
 20
955.8217927777
 30
0.0
 11
7.169182900599999
 21
18.488846055
 31
0.0
210
0.0
220
0.0
230
1.0
 40
0.0895942173
 41
-1.8429490351
 42
-1.7677375673
  0
ELLIPSE
  5
56C
330
21D
100
AcDbEntity
  8
0
  6
Continuous
 62
     7
100
AcDbEllipse
 10
184.8713101197
 20
955.8217927777
 30
0.0
 11
-7.146365875099999
 21
18.4889683738
 31
0.0
210
0.0
220
0.0
230
1.0
 40
0.0893862323
 41
-4.394378377499999
 42
-4.348459631599999
  0
ELLIPSE
  5
56D
330
21D
100
AcDbEntity
  8
0
  6
Continuous
 62
     7
100
AcDbEllipse
 10
184.4228523711
 20
955.8217927777
 30
0.0
 11
7.1362650057
 21
18.48902225
 31
0.0
210
0.0
220
0.0
230
1.0
 40
0.0892939684
 41
-1.934810120399999
 42
-1.888891374399999
  0
ELLIPSE
  5
56E
330
21D
100
AcDbEntity
  8
0
  6
Continuous
 62
     7
100
AcDbEllipse
 10
197.8267687313
 20
955.8217927777
 30
0.0
 11
-14.2349144148
 21
18.309957656
 31
0.0
210
0.0
220
0.0
230
1.0
 40
0.127720461
 41
1.7167077306
 42
1.8861322468
  0
ELLIPSE
  5
56F
330
21D
100
AcDbEntity
  8
0
  6
Continuous
 62
     7
100
AcDbEllipse
 10
184.8698063921
 20
955.8217927777
 30
0.0
 11
-7.120677607
 21
18.3889587351
 31
0.0
210
0.0
220
0.0
230
0.9999999999999998
 40
0.0895049059
 41
-4.5155294451
 42
-4.4399090019
  0
ELLIPSE
  5
570
330
21D
100
AcDbEntity
  8
0
  6
Continuous
 62
     7
100
AcDbEllipse
 10
272.6717274563
 20
1059.652715538
 30
0.0
 11
0.0
 21
1.001372345999999
 31
0.0
210
0.0
220
0.0
230
1.0
 40
0.9986295348
 41
-1.4894728715
 42
0.0
  0
ELLIPSE
  5
571
330
21D
100
AcDbEntity
  8
0
  6
Continuous
 62
     7
100
AcDbEllipse
 10
89.6717274563
 20
1059.652715538
 30
0.0
 11
0.0
 21
1.001372345999999
 31
0.0
210
0.0
220
0.0
230
1.0
 40
0.9986295348
 41
0.0
 42
1.489074088699999
  0
ELLIPSE
  5
572
330
21D
100
AcDbEntity
  8
0
  6
Continuous
 62
     7
100
AcDbEllipse
 10
47.6717274563
 20
1059.652715538
 30
0.0
 11
0.0
 21
1.001372345999999
 31
0.0
210
0.0
220
0.0
230
1.0
 40
0.9986295348
 41
-1.4894728715
 42
0.0
  0
ELLIPSE
  5
573
330
21D
100
AcDbEntity
  8
0
  6
Continuous
 62
     7
100
AcDbEllipse
 10
339.6717274563
 20
1059.652715538
 30
0.0
 11
0.0
 21
1.001372345999999
 31
0.0
210
0.0
220
0.0
230
1.0
 40
0.9986295348
 41
0.0
 42
1.489074088699999
  0
ELLIPSE
  5
574
330
21D
100
AcDbEntity
  8
0
  6
Continuous
 62
     7
100
AcDbEllipse
 10
15.6744721483
 20
1058.8190480857
 30
0.0
 11
1.4180924869
 21
-1.4180924869
 31
0.0
210
0.0
220
0.0
230
0.9999999999999998
 40
0.9972646885999999
 41
2.3575640181
 42
3.9256212891
  0
ELLIPSE
  5
575
330
21D
100
AcDbEntity
  8
0
  6
Continuous
 62
     7
100
AcDbEllipse
 10
371.6689827643
 20
1058.8190480857
 30
0.0
 11
1.4180924869
 21
1.4180924869
 31
0.0
210
0.0
220
0.0
230
0.9999999999999998
 40
0.9972646885999999
 41
-0.7840286355
 42
0.7840286355
  0
ELLIPSE
  5
576
330
21D
100
AcDbEntity
  8
0
  6
Continuous
 62
     7
100
AcDbEllipse
 10
273.1611019857
 20
955.8217927777
 30
0.0
 11
0.0
 21
10.15
 31
0.0
210
0.0
220
0.0
230
1.0
 40
0.0261859216
 41
3.1816208306
 42
6.243157129400001
  0
ELLIPSE
  5
577
330
21D
100
AcDbEntity
  8
0
  6
Continuous
 62
     7
100
AcDbEllipse
 10
190.574974154
 20
1499.6489856144
 30
0.0
 11
5.0088132743
 21
18.2505640413
 31
0.0
210
0.0
220
0.0
230
1.0
 40
0.6044727029
 41
6.5829562766
 42
6.670422315599999
  0
ELLIPSE
  5
578
330
21D
100
AcDbEntity
  8
0
  6
Continuous
 62
     7
100
AcDbEllipse
 10
188.8679422151
 20
1499.6489856144
 30
0.0
 11
-5.569806397699999
 21
18.1637649149
 31
0.0
210
0.0
220
0.0
230
1.0
 40
0.6303763983000001
 41
-0.4137804425000001
 42
-0.3263184973
  0
ELLIPSE
  5
579
330
21D
100
AcDbEntity
  8
0
  6
Continuous
 62
     7
100
AcDbEllipse
 10
198.9732988113
 20
1499.6489856144
 30
0.0
 11
-7.5790425835
 21
17.6258612702
 31
0.0
210
0.0
220
0.0
230
0.9999999999999998
 40
0.6967905254000001
 41
-0.4878250474000001
 42
-0.4249563186
  0
ELLIPSE
  5
57A
330
21D
100
AcDbEntity
  8
0
  6
Continuous
 62
     7
100
AcDbEllipse
 10
189.8431326006999
 20
1499.6489856144
 30
0.0
 11
-4.845347627799999
 21
18.2731583967
 31
0.0
210
0.0
220
0.0
230
0.9999999999999998
 40
0.5960763341
 41
-0.379071497
 42
-0.2921324726
  0
ELLIPSE
  5
57B
330
21D
100
AcDbEntity
  8
0
  6
Continuous
 62
     7
100
AcDbEllipse
 10
185.7776177396
 20
1499.6489856144
 30
0.0
 11
-2.2119506208
 21
18.3808838531
 31
0.0
210
0.0
220
0.0
230
1.0
 40
0.3790843297
 41
-0.2387546504
 42
-0.1794383734
  0
ELLIPSE
  5
57C
330
21D
100
AcDbEntity
  8
0
  6
Continuous
 62
     7
100
AcDbEllipse
 10
189.5987739222
 20
1499.6489856144
 30
0.0
 11
4.7011476808
 21
18.2920902306
 31
0.0
210
0.0
220
0.0
230
1.0
 40
0.5883161697000001
 41
6.568620962299999
 42
6.655574700999999
  0
ELLIPSE
  5
57D
330
21D
100
AcDbEntity
  8
0
  6
Continuous
 62
     7
100
AcDbEllipse
 10
198.9732988113
 20
1499.6489856144
 30
0.0
 11
-7.620233032299997
 21
17.7216539945
 31
0.0
210
0.0
220
0.0
230
0.9999999999999998
 40
0.6967905254000001
 41
-0.5123030915
 42
-0.425651699
  0
ELLIPSE
  5
57E
330
21D
100
AcDbEntity
  8
0
  6
Continuous
 62
     7
100
AcDbEllipse
 10
189.8431326006999
 20
1499.6489856144
 30
0.0
 11
-4.819156559599999
 21
18.1743845676
 31
0.0
210
0.0
220
0.0
230
1.0
 40
0.5960763341
 41
-0.3539015732
 42
-0.291441655
  0
ELLIPSE
  5
57F
330
21D
100
AcDbEntity
  8
0
  6
Continuous
 62
     7
100
AcDbEllipse
 10
185.7776177396
 20
1499.6489856144
 30
0.0
 11
-2.223972091599999
 21
18.480779961
 31
0.0
210
0.0
220
0.0
230
1.0
 40
0.3790843297
 41
-0.2684458178
 42
-0.1801337539
  0
ELLIPSE
  5
580
330
21D
100
AcDbEntity
  8
0
  6
Continuous
 62
     7
100
AcDbEllipse
 10
189.5987739222
 20
1499.6489856144
 30
0.0
 11
4.6757360717
 21
18.1932140671
 31
0.0
210
0.0
220
0.0
230
1.0
 40
0.5883161697000001
 41
6.5679301448
 42
6.630419636699999
  0
ELLIPSE
  5
581
330
21D
100
AcDbEntity
  8
0
  6
Continuous
 62
     7
100
AcDbEllipse
 10
183.5179860251
 20
1499.6489856144
 30
0.0
 11
2.212092595399999
 21
18.3808796054
 31
0.0
210
0.0
220
0.0
230
1.0
 40
0.37910209
 41
0.1794434389
 42
0.2387597167
  0
ELLIPSE
  5
582
330
21D
100
AcDbEntity
  8
0
  6
Continuous
 62
     7
100
AcDbEllipse
 10
183.5179860251
 20
1499.6489856144
 30
0.0
 11
2.2241148377
 21
18.4807756902
 31
0.0
210
0.0
220
0.0
230
1.0
 40
0.37910209
 41
0.1801388193
 42
0.2684508831
  0
ENDSEC
  0
SECTION
  2
OBJECTS
  0
DICTIONARY
  5
C
330
0
100
AcDbDictionary
281
     1
  3
ACAD_COLOR
350
5B1
  3
ACAD_GROUP
350
D
  3
ACAD_LAYOUT
350
1A
  3
ACAD_MATERIAL
350
587
  3
ACAD_MLEADERSTYLE
350
5D6
  3
ACAD_MLINESTYLE
350
17
  3
ACAD_PLOTSETTINGS
350
19
  3
ACAD_PLOTSTYLENAME
350
E
  3
ACAD_SCALELIST
350
5B4
  3
ACAD_TABLESTYLE
350
5B2
  3
ACAD_VISUALSTYLE
350
5A0
  3
ACDB_RECOMPOSE_DATA
350
5DB
  3
ACDBHEADERROUNDTRIPXREC
350
AD3
  3
AcDbVariableDictionary
350
5DC
  0
DICTIONARY
  5
5B1
102
{ACAD_REACTORS
330
C
102
}
330
C
100
AcDbDictionary
281
     1
  0
DICTIONARY
  5
D
102
{ACAD_REACTORS
330
C
102
}
330
C
100
AcDbDictionary
281
     1
  0
DICTIONARY
  5
1A
102
{ACAD_REACTORS
330
C
102
}
330
C
100
AcDbDictionary
281
     1
  3
Layout1
350
584
  3
Model
350
583
  0
DICTIONARY
  5
587
102
{ACAD_REACTORS
330
C
102
}
330
C
100
AcDbDictionary
281
     1
  3
ByBlock
350
590
  3
ByLayer
350
588
  3
Global
350
598
  0
DICTIONARY
  5
5D6
102
{ACAD_REACTORS
330
C
102
}
330
C
100
AcDbDictionary
281
     1
  3
Standard
350
5D7
  0
DICTIONARY
  5
17
102
{ACAD_REACTORS
330
C
102
}
330
C
100
AcDbDictionary
281
     1
  3
Standard
350
18
  0
DICTIONARY
  5
19
102
{ACAD_REACTORS
330
C
102
}
330
C
100
AcDbDictionary
281
     1
  0
ACDBDICTIONARYWDFLT
  5
E
102
{ACAD_REACTORS
330
C
102
}
330
C
100
AcDbDictionary
281
     1
  3
Normal
350
F
100
AcDbDictionaryWithDefault
340
F
  0
DICTIONARY
  5
5B4
102
{ACAD_REACTORS
330
C
102
}
330
C
100
AcDbDictionary
281
     1
  3
A0
350
5B5
  3
A1
350
5B6
  3
A2
350
5B7
  3
A3
350
5B8
  3
A4
350
5B9
  3
A5
350
5BA
  3
A6
350
5BB
  3
A7
350
5BC
  3
A8
350
5BD
  3
A9
350
5BE
  3
B0
350
5BF
  3
B1
350
5C0
  3
B2
350
5C1
  3
B3
350
5C2
  3
B4
350
5C3
  3
B5
350
5C4
  3
B6
350
5C5
  3
B7
350
5C6
  3
B8
350
5C7
  3
B9
350
5C8
  3
C0
350
5C9
  3
C1
350
5CA
  3
C2
350
5CB
  3
C3
350
5CC
  3
C4
350
5CD
  3
C5
350
5CE
  3
C6
350
5CF
  3
C7
350
5D0
  3
C8
350
5D1
  3
C9
350
5D2
  3
D0
350
5D3
  3
D1
350
5D4
  3
D2
350
5D5
  0
DICTIONARY
  5
5B2
102
{ACAD_REACTORS
330
C
102
}
330
C
100
AcDbDictionary
281
     1
  3
Standard
350
5B3
  0
DICTIONARY
  5
5A0
102
{ACAD_REACTORS
330
C
102
}
330
C
100
AcDbDictionary
281
     1
  3
2dWireframe
350
5A6
  3
3D Hidden
350
5A8
  3
3dWireframe
350
5A7
  3
Basic
350
5A5
  3
Brighten
350
5AC
  3
ColorChange
350
5B0
  3
Conceptual
350
5A9
  3
Dim
350
5AB
  3
Facepattern
350
5AF
  3
Flat
350
5A1
  3
FlatWithEdges
350
5A2
  3
Gouraud
350
5A3
  3
GouraudWithEdges
350
5A4
  3
Linepattern
350
5AE
  3
Realistic
350
5AA
  3
Thicken
350
5AD
  0
XRECORD
  5
5DB
102
{ACAD_REACTORS
330
C
102
}
330
C
100
AcDbXrecord
280
     1
 90
        1
330
5B3
  0
DICTIONARY
  5
AD3
102
{ACAD_REACTORS
330
C
102
}
330
C
100
AcDbDictionary
281
     1
  0
DICTIONARY
  5
5DC
102
{ACAD_REACTORS
330
C
102
}
330
C
100
AcDbDictionary
281
     1
  3
CANNOSCALE
350
5DF
  3
CMLEADERSTYLE
350
5DE
  3
CTABLESTYLE
350
5DD
  3
DIMASSOC
350
A61
  3
HIDETEXT
350
A60
  3
PROJECTNAME
350
A62
  0
LAYOUT
  5
584
102
{ACAD_REACTORS
330
1A
102
}
330
1A
100
AcDbPlotSettings
  1

  2
none_device
  4
ANSI_C_(22.00_x_17.00_Inches)
  6

 40
0.0
 41
0.0
 42
0.0
 43
0.0
 44
558.8
 45
431.8
 46
0.0
 47
0.0
 48
0.0
 49
0.0
140
0.0
141
0.0
142
1.0
143
1.0
 70
     0
 72
     1
 73
     0
 74
     0
  7

 75
     0
147
1.0
 76
     0
 77
     2
 78
   300
148
0.0
149
0.0
100
AcDbLayout
  1
Layout1
 70
     1
 71
     1
 10
0.0
 20
0.0
 11
12.0
 21
9.0
 12
0.0
 22
0.0
 32
0.0
 14
1.000000000000000E+20
 24
1.000000000000000E+20
 34
1.000000000000000E+20
 15
-1.000000000000000E+20
 25
-1.000000000000000E+20
 35
-1.000000000000000E+20
146
0.0
 13
0.0
 23
0.0
 33
0.0
 16
1.0
 26
0.0
 36
0.0
 17
0.0
 27
1.0
 37
0.0
 76
     0
330
21E
  0
LAYOUT
  5
583
102
{ACAD_REACTORS
330
1A
102
}
330
1A
100
AcDbPlotSettings
  1

  2
none_device
  4
ANSI_C_(22.00_x_17.00_Inches)
  6

 40
0.0
 41
0.0
 42
0.0
 43
0.0
 44
558.8
 45
431.8
 46
0.0
 47
0.0
 48
0.0
 49
0.0
140
0.0
141
0.0
142
1.0
143
1.0
 70
  1024
 72
     1
 73
     0
 74
     0
  7

 75
     0
147
1.0
 76
     0
 77
     2
 78
   300
148
0.0
149
0.0
100
AcDbLayout
  1
Model
 70
     0
 71
     0
 10
0.0
 20
0.0
 11
558.8
 21
431.8
 12
0.0
 22
0.0
 32
0.0
 14
0.0
 24
0.0
 34
0.0
 15
0.0
 25
0.0
 35
0.0
146
0.0
 13
0.0
 23
0.0
 33
0.0
 16
1.0
 26
0.0
 36
0.0
 17
0.0
 27
1.0
 37
0.0
 76
     0
330
21D
  0
MATERIAL
  5
590
102
{ACAD_XDICTIONARY
360
591
102
}
102
{ACAD_REACTORS
330
587
102
}
330
587
100
AcDbMaterial
  1
ByBlock
  2

 72
     0
 73
     2
 43
0.0008202099737533
 43
0.0
 43
0.0
 43
0.0
 43
0.0
 43
0.0008202099737533
 43
0.0
 43
0.0
 43
0.0
 43
0.0
 43
1.0
 43
0.0
 43
0.0
 43
0.0
 43
0.0
 43
1.0
 77
     0
 78
     2
 47
0.0008202099737533
 47
0.0
 47
0.0
 47
0.0
 47
0.0
 47
0.0008202099737533
 47
0.0
 47
0.0
 47
0.0
 47
0.0
 47
1.0
 47
0.0
 47
0.0
 47
0.0
 47
0.0
 47
1.0
171
     0
172
     2
 49
0.0008202099737533
 49
0.0
 49
0.0
 49
0.0
 49
0.0
 49
0.0008202099737533
 49
0.0
 49
0.0
 49
0.0
 49
0.0
 49
1.0
 49
0.0
 49
0.0
 49
0.0
 49
0.0
 49
1.0
175
     0
176
     2
142
0.0008202099737533
142
0.0
142
0.0
142
0.0
142
0.0
142
0.0008202099737533
142
0.0
142
0.0
142
0.0
142
0.0
142
1.0
142
0.0
142
0.0
142
0.0
142
0.0
142
1.0
179
     0
270
     2
144
0.0008202099737533
144
0.0
144
0.0
144
0.0
144
0.0
144
0.0008202099737533
144
0.0
144
0.0
144
0.0
144
0.0
144
1.0
144
0.0
144
0.0
144
0.0
144
0.0
144
1.0
274
     2
147
0.0008202099737533
147
0.0
147
0.0
147
0.0
147
0.0
147
0.0008202099737533
147
0.0
147
0.0
147
0.0
147
0.0
147
1.0
147
0.0
147
0.0
147
0.0
147
0.0
147
1.0
  0
MATERIAL
  5
588
102
{ACAD_XDICTIONARY
360
589
102
}
102
{ACAD_REACTORS
330
587
102
}
330
587
100
AcDbMaterial
  1
ByLayer
  2

 72
     0
 73
     2
 43
0.0008202099737533
 43
0.0
 43
0.0
 43
0.0
 43
0.0
 43
0.0008202099737533
 43
0.0
 43
0.0
 43
0.0
 43
0.0
 43
1.0
 43
0.0
 43
0.0
 43
0.0
 43
0.0
 43
1.0
 77
     0
 78
     2
 47
0.0008202099737533
 47
0.0
 47
0.0
 47
0.0
 47
0.0
 47
0.0008202099737533
 47
0.0
 47
0.0
 47
0.0
 47
0.0
 47
1.0
 47
0.0
 47
0.0
 47
0.0
 47
0.0
 47
1.0
171
     0
172
     2
 49
0.0008202099737533
 49
0.0
 49
0.0
 49
0.0
 49
0.0
 49
0.0008202099737533
 49
0.0
 49
0.0
 49
0.0
 49
0.0
 49
1.0
 49
0.0
 49
0.0
 49
0.0
 49
0.0
 49
1.0
175
     0
176
     2
142
0.0008202099737533
142
0.0
142
0.0
142
0.0
142
0.0
142
0.0008202099737533
142
0.0
142
0.0
142
0.0
142
0.0
142
1.0
142
0.0
142
0.0
142
0.0
142
0.0
142
1.0
179
     0
270
     2
144
0.0008202099737533
144
0.0
144
0.0
144
0.0
144
0.0
144
0.0008202099737533
144
0.0
144
0.0
144
0.0
144
0.0
144
1.0
144
0.0
144
0.0
144
0.0
144
0.0
144
1.0
274
     2
147
0.0008202099737533
147
0.0
147
0.0
147
0.0
147
0.0
147
0.0008202099737533
147
0.0
147
0.0
147
0.0
147
0.0
147
1.0
147
0.0
147
0.0
147
0.0
147
0.0
147
1.0
  0
MATERIAL
  5
598
102
{ACAD_XDICTIONARY
360
599
102
}
102
{ACAD_REACTORS
330
587
102
}
330
587
100
AcDbMaterial
  1
Global
  2

 72
     0
 73
     2
 43
0.0008202099737533
 43
0.0
 43
0.0
 43
0.0
 43
0.0
 43
0.0008202099737533
 43
0.0
 43
0.0
 43
0.0
 43
0.0
 43
1.0
 43
0.0
 43
0.0
 43
0.0
 43
0.0
 43
1.0
 77
     0
 78
     2
 47
0.0008202099737533
 47
0.0
 47
0.0
 47
0.0
 47
0.0
 47
0.0008202099737533
 47
0.0
 47
0.0
 47
0.0
 47
0.0
 47
1.0
 47
0.0
 47
0.0
 47
0.0
 47
0.0
 47
1.0
171
     0
172
     2
 49
0.0008202099737533
 49
0.0
 49
0.0
 49
0.0
 49
0.0
 49
0.0008202099737533
 49
0.0
 49
0.0
 49
0.0
 49
0.0
 49
1.0
 49
0.0
 49
0.0
 49
0.0
 49
0.0
 49
1.0
175
     0
176
     2
142
0.0008202099737533
142
0.0
142
0.0
142
0.0
142
0.0
142
0.0008202099737533
142
0.0
142
0.0
142
0.0
142
0.0
142
1.0
142
0.0
142
0.0
142
0.0
142
0.0
142
1.0
179
     0
270
     2
144
0.0008202099737533
144
0.0
144
0.0
144
0.0
144
0.0
144
0.0008202099737533
144
0.0
144
0.0
144
0.0
144
0.0
144
1.0
144
0.0
144
0.0
144
0.0
144
0.0
144
1.0
274
     2
147
0.0008202099737533
147
0.0
147
0.0
147
0.0
147
0.0
147
0.0008202099737533
147
0.0
147
0.0
147
0.0
147
0.0
147
1.0
147
0.0
147
0.0
147
0.0
147
0.0
147
1.0
  0
MLEADERSTYLE
  5
5D7
102
{ACAD_REACTORS
330
5D6
102
}
330
5D6
100
AcDbMLeaderStyle
170
     2
171
     1
172
     0
 90
        2
 40
0.0
 41
0.0
173
     1
 91
-1056964608
340
14
 92
       -2
290
     1
 42
2.0
291
     1
 43
0.36
  3
Standard
341
0
 44
4.0
300

342
11
174
     1
178
     6
175
     1
176
     0
 93
-1056964608
 45
4.0
292
     0
297
     0
 46
4.0
343
0
 94
-1056964608
 47
1.0
 49
1.0
140
1.0
293
     1
141
0.0
294
     1
177
     0
142
1.0
295
     0
296
     0
143
0.125
1001
ACAD_MLEADERVER
1070
     2
  0
MLINESTYLE
  5
18
102
{ACAD_REACTORS
330
17
102
}
330
17
100
AcDbMlineStyle
  2
STANDARD
 70
     0
  3

 62
   256
 51
90.0
 52
90.0
 71
     2
 49
0.5
 62
   256
  6
BYLAYER
 49
-0.5
 62
   256
  6
BYLAYER
  0
ACDBPLACEHOLDER
  5
F
102
{ACAD_REACTORS
330
E
102
}
330
E
  0
SCALE
  5
5B5
102
{ACAD_REACTORS
330
5B4
102
}
330
5B4
100
AcDbScale
 70
     0
300
1:1
140
1.0
141
1.0
290
     1
  0
SCALE
  5
5B6
102
{ACAD_REACTORS
330
5B4
102
}
330
5B4
100
AcDbScale
 70
     0
300
1:2
140
1.0
141
2.0
290
     0
  0
SCALE
  5
5B7
102
{ACAD_REACTORS
330
5B4
102
}
330
5B4
100
AcDbScale
 70
     0
300
1:4
140
1.0
141
4.0
290
     0
  0
SCALE
  5
5B8
102
{ACAD_REACTORS
330
5B4
102
}
330
5B4
100
AcDbScale
 70
     0
300
1:5
140
1.0
141
5.0
290
     0
  0
SCALE
  5
5B9
102
{ACAD_REACTORS
330
5B4
102
}
330
5B4
100
AcDbScale
 70
     0
300
1:8
140
1.0
141
8.0
290
     0
  0
SCALE
  5
5BA
102
{ACAD_REACTORS
330
5B4
102
}
330
5B4
100
AcDbScale
 70
     0
300
1:10
140
1.0
141
10.0
290
     0
  0
SCALE
  5
5BB
102
{ACAD_REACTORS
330
5B4
102
}
330
5B4
100
AcDbScale
 70
     0
300
1:16
140
1.0
141
16.0
290
     0
  0
SCALE
  5
5BC
102
{ACAD_REACTORS
330
5B4
102
}
330
5B4
100
AcDbScale
 70
     0
300
1:20
140
1.0
141
20.0
290
     0
  0
SCALE
  5
5BD
102
{ACAD_REACTORS
330
5B4
102
}
330
5B4
100
AcDbScale
 70
     0
300
1:30
140
1.0
141
30.0
290
     0
  0
SCALE
  5
5BE
102
{ACAD_REACTORS
330
5B4
102
}
330
5B4
100
AcDbScale
 70
     0
300
1:40
140
1.0
141
40.0
290
     0
  0
SCALE
  5
5BF
102
{ACAD_REACTORS
330
5B4
102
}
330
5B4
100
AcDbScale
 70
     0
300
1:50
140
1.0
141
50.0
290
     0
  0
SCALE
  5
5C0
102
{ACAD_REACTORS
330
5B4
102
}
330
5B4
100
AcDbScale
 70
     0
300
1:100
140
1.0
141
100.0
290
     0
  0
SCALE
  5
5C1
102
{ACAD_REACTORS
330
5B4
102
}
330
5B4
100
AcDbScale
 70
     0
300
2:1
140
2.0
141
1.0
290
     0
  0
SCALE
  5
5C2
102
{ACAD_REACTORS
330
5B4
102
}
330
5B4
100
AcDbScale
 70
     0
300
4:1
140
4.0
141
1.0
290
     0
  0
SCALE
  5
5C3
102
{ACAD_REACTORS
330
5B4
102
}
330
5B4
100
AcDbScale
 70
     0
300
8:1
140
8.0
141
1.0
290
     0
  0
SCALE
  5
5C4
102
{ACAD_REACTORS
330
5B4
102
}
330
5B4
100
AcDbScale
 70
     0
300
10:1
140
10.0
141
1.0
290
     0
  0
SCALE
  5
5C5
102
{ACAD_REACTORS
330
5B4
102
}
330
5B4
100
AcDbScale
 70
     0
300
100:1
140
100.0
141
1.0
290
     0
  0
SCALE
  5
5C6
102
{ACAD_REACTORS
330
5B4
102
}
330
5B4
100
AcDbScale
 70
     0
300
1/128" = 1'-0"
140
0.0078125
141
12.0
290
     0
  0
SCALE
  5
5C7
102
{ACAD_REACTORS
330
5B4
102
}
330
5B4
100
AcDbScale
 70
     0
300
1/64" = 1'-0"
140
0.015625
141
12.0
290
     0
  0
SCALE
  5
5C8
102
{ACAD_REACTORS
330
5B4
102
}
330
5B4
100
AcDbScale
 70
     0
300
1/32" = 1'-0"
140
0.03125
141
12.0
290
     0
  0
SCALE
  5
5C9
102
{ACAD_REACTORS
330
5B4
102
}
330
5B4
100
AcDbScale
 70
     0
300
1/16" = 1'-0"
140
0.0625
141
12.0
290
     0
  0
SCALE
  5
5CA
102
{ACAD_REACTORS
330
5B4
102
}
330
5B4
100
AcDbScale
 70
     0
300
3/32" = 1'-0"
140
0.09375
141
12.0
290
     0
  0
SCALE
  5
5CB
102
{ACAD_REACTORS
330
5B4
102
}
330
5B4
100
AcDbScale
 70
     0
300
1/8" = 1'-0"
140
0.125
141
12.0
290
     0
  0
SCALE
  5
5CC
102
{ACAD_REACTORS
330
5B4
102
}
330
5B4
100
AcDbScale
 70
     0
300
3/16" = 1'-0"
140
0.1875
141
12.0
290
     0
  0
SCALE
  5
5CD
102
{ACAD_REACTORS
330
5B4
102
}
330
5B4
100
AcDbScale
 70
     0
300
1/4" = 1'-0"
140
0.25
141
12.0
290
     0
  0
SCALE
  5
5CE
102
{ACAD_REACTORS
330
5B4
102
}
330
5B4
100
AcDbScale
 70
     0
300
3/8" = 1'-0"
140
0.375
141
12.0
290
     0
  0
SCALE
  5
5CF
102
{ACAD_REACTORS
330
5B4
102
}
330
5B4
100
AcDbScale
 70
     0
300
1/2" = 1'-0"
140
0.5
141
12.0
290
     0
  0
SCALE
  5
5D0
102
{ACAD_REACTORS
330
5B4
102
}
330
5B4
100
AcDbScale
 70
     0
300
3/4" = 1'-0"
140
0.75
141
12.0
290
     0
  0
SCALE
  5
5D1
102
{ACAD_REACTORS
330
5B4
102
}
330
5B4
100
AcDbScale
 70
     0
300
1" = 1'-0"
140
1.0
141
12.0
290
     0
  0
SCALE
  5
5D2
102
{ACAD_REACTORS
330
5B4
102
}
330
5B4
100
AcDbScale
 70
     0
300
1-1/2" = 1'-0"
140
1.5
141
12.0
290
     0
  0
SCALE
  5
5D3
102
{ACAD_REACTORS
330
5B4
102
}
330
5B4
100
AcDbScale
 70
     0
300
3" = 1'-0"
140
3.0
141
12.0
290
     0
  0
SCALE
  5
5D4
102
{ACAD_REACTORS
330
5B4
102
}
330
5B4
100
AcDbScale
 70
     0
300
6" = 1'-0"
140
6.0
141
12.0
290
     0
  0
SCALE
  5
5D5
102
{ACAD_REACTORS
330
5B4
102
}
330
5B4
100
AcDbScale
 70
     0
300
1'-0" = 1'-0"
140
12.0
141
12.0
290
     0
  0
TABLESTYLE
  5
5B3
102
{ACAD_XDICTIONARY
360
5D9
102
}
102
{ACAD_REACTORS
330
5B2
102
}
330
5B2
100
AcDbTableStyle
  3
Standard
 70
     0
 71
     0
 40
1.5
 41
1.5
280
     0
281
     0
  7
STANDARD
140
4.5
170
     2
 62
     0
 63
   257
283
     1
274
    -2
284
     1
 64
     0
275
    -2
285
     1
 65
     0
276
    -2
286
     1
 66
     0
277
    -2
287
     1
 67
     0
278
    -2
288
     1
 68
     0
279
    -2
289
     1
 69
     0
  7
STANDARD
140
6.0
170
     5
 62
     0
 63
   257
283
     1
274
    -2
284
     1
 64
     0
275
    -2
285
     1
 65
     0
276
    -2
286
     1
 66
     0
277
    -2
287
     1
 67
     0
278
    -2
288
     1
 68
     0
279
    -2
289
     1
 69
     0
  7
STANDARD
140
4.5
170
     5
 62
     0
 63
   257
283
     1
274
    -2
284
     1
 64
     0
275
    -2
285
     1
 65
     0
276
    -2
286
     1
 66
     0
277
    -2
287
     1
 67
     0
278
    -2
288
     1
 68
     0
279
    -2
289
     1
 69
     0
  0
VISUALSTYLE
  5
5A6
102
{ACAD_XDICTIONARY
360
ADE
102
}
102
{ACAD_REACTORS
330
5A0
102
}
330
5A0
100
AcDbVisualStyle
  2
2dWireframe
 70
     4
 71
     0
 72
     2
 73
     0
 90
        0
 40
-0.6
 41
-30.0
 62
     5
 63
     7
 74
     1
 91
        4
 64
     7
 65
   257
 75
     1
175
     1
 42
1.0
 92
        0
 66
   257
 43
1.0
 76
     1
 77
     6
 78
     2
 67
     7
 79
     5
170
     0
171
     0
290
     0
174
     0
 93
        1
 44
0.0
173
     0
291
     0
 45
0.0
1001
ACAD
1000
AcDbSavedByObjectVersion
1070
     0
  0
VISUALSTYLE
  5
5A8
102
{ACAD_XDICTIONARY
360
AE2
102
}
102
{ACAD_REACTORS
330
5A0
102
}
330
5A0
100
AcDbVisualStyle
  2
3D Hidden
 70
     6
 71
     1
 72
     2
 73
     2
 90
        0
 40
-0.6
 41
-30.0
 62
     5
 63
     7
 74
     2
 91
        2
 64
     7
 65
   257
 75
     2
175
     1
 42
40.0
 92
        0
 66
   257
 43
1.0
 76
     1
 77
     6
 78
     2
 67
     7
 79
     3
170
     0
171
     0
290
     0
174
     0
 93
        1
 44
0.0
173
     0
291
     0
 45
0.0
1001
ACAD
1000
AcDbSavedByObjectVersion
1070
     0
  0
VISUALSTYLE
  5
5A7
102
{ACAD_XDICTIONARY
360
AE0
102
}
102
{ACAD_REACTORS
330
5A0
102
}
330
5A0
100
AcDbVisualStyle
  2
3dWireframe
 70
     5
 71
     0
 72
     2
 73
     0
 90
        0
 40
-0.6
 41
-30.0
 62
     5
 63
     7
 74
     1
 91
        4
 64
     7
 65
   257
 75
     1
175
     1
 42
1.0
 92
        0
 66
   257
 43
1.0
 76
     1
 77
     6
 78
     2
 67
     7
 79
     5
170
     0
171
     0
290
     0
174
     0
 93
        1
 44
0.0
173
     0
291
     0
 45
0.0
1001
ACAD
1000
AcDbSavedByObjectVersion
1070
     0
  0
VISUALSTYLE
  5
5A5
102
{ACAD_XDICTIONARY
360
ADC
102
}
102
{ACAD_REACTORS
330
5A0
102
}
330
5A0
100
AcDbVisualStyle
  2
Basic
 70
     7
 71
     1
 72
     0
 73
     1
 90
        0
 40
-0.6
 41
-30.0
 62
     5
 63
     7
 74
     0
 91
        4
 64
     7
 65
   257
 75
     1
175
     1
 42
1.0
 92
        8
 66
     7
 43
1.0
 76
     1
 77
     6
 78
     2
 67
     7
 79
     5
170
     0
171
     0
290
     0
174
     0
 93
        1
 44
0.0
173
     0
291
     1
 45
0.0
1001
ACAD
1000
AcDbSavedByObjectVersion
1070
     0
  0
VISUALSTYLE
  5
5AC
102
{ACAD_XDICTIONARY
360
AEA
102
}
102
{ACAD_REACTORS
330
5A0
102
}
330
5A0
100
AcDbVisualStyle
  2
Brighten
 70
    12
 71
     2
 72
     2
 73
     0
 90
        0
 40
-0.6
 41
-30.0
 62
     5
 63
     7
 74
     1
 91
        4
 64
     7
 65
   257
 75
     1
175
     1
 42
1.0
 92
        8
 66
     7
 43
1.0
 76
     1
 77
     6
 78
     2
 67
     7
 79
     5
170
     0
171
     0
290
     0
174
     0
 93
        1
 44
50.0
173
     0
291
     1
 45
0.0
1001
ACAD
1000
AcDbSavedByObjectVersion
1070
     0
  0
VISUALSTYLE
  5
5B0
102
{ACAD_XDICTIONARY
360
AF2
102
}
102
{ACAD_REACTORS
330
5A0
102
}
330
5A0
100
AcDbVisualStyle
  2
ColorChange
 70
    16
 71
     2
 72
     2
 73
     3
 90
        0
 40
-0.6
 41
-30.0
 62
     5
 63
     8
 74
     1
 91
        4
 64
     7
 65
   257
 75
     1
175
     1
 42
1.0
 92
        8
 66
     8
 43
1.0
 76
     1
 77
     6
 78
     2
 67
     7
 79
     5
170
     0
171
     0
290
     0
174
     0
 93
        1
 44
0.0
173
     0
291
     1
 45
0.0
1001
ACAD
1000
AcDbSavedByObjectVersion
1070
     0
  0
VISUALSTYLE
  5
5A9
102
{ACAD_XDICTIONARY
360
AE4
102
}
102
{ACAD_REACTORS
330
5A0
102
}
330
5A0
100
AcDbVisualStyle
  2
Conceptual
 70
     9
 71
     3
 72
     2
 73
     0
 90
        0
 40
-0.6
 41
-30.0
 62
     5
 63
     7
 74
     2
 91
        2
 64
     7
 65
   257
 75
     1
175
     1
 42
40.0
 92
        8
 66
     7
 43
1.0
 76
     1
 77
     6
 78
     2
 67
     7
 79
     3
170
     0
171
     0
290
     0
174
     0
 93
        1
 44
0.0
173
     0
291
     0
 45
0.0
1001
ACAD
1000
AcDbSavedByObjectVersion
1070
     0
  0
VISUALSTYLE
  5
5AB
102
{ACAD_XDICTIONARY
360
AE8
102
}
102
{ACAD_REACTORS
330
5A0
102
}
330
5A0
100
AcDbVisualStyle
  2
Dim
 70
    11
 71
     2
 72
     2
 73
     0
 90
        0
 40
-0.6
 41
-30.0
 62
     5
 63
     7
 74
     1
 91
        4
 64
     7
 65
   257
 75
     1
175
     1
 42
1.0
 92
        8
 66
     7
 43
1.0
 76
     1
 77
     6
 78
     2
 67
     7
 79
     5
170
     0
171
     0
290
     0
174
     0
 93
        1
 44
-50.0
173
     0
291
     1
 45
0.0
1001
ACAD
1000
AcDbSavedByObjectVersion
1070
     0
  0
VISUALSTYLE
  5
5AF
102
{ACAD_XDICTIONARY
360
AF0
102
}
102
{ACAD_REACTORS
330
5A0
102
}
330
5A0
100
AcDbVisualStyle
  2
Facepattern
 70
    15
 71
     2
 72
     2
 73
     0
 90
        0
 40
-0.6
 41
-30.0
 62
     5
 63
     7
 74
     1
 91
        4
 64
     7
 65
   257
 75
     1
175
     1
 42
1.0
 92
        8
 66
     7
 43
1.0
 76
     1
 77
     6
 78
     2
 67
     7
 79
     5
170
     0
171
     0
290
     0
174
     0
 93
        1
 44
0.0
173
     0
291
     1
 45
0.0
1001
ACAD
1000
AcDbSavedByObjectVersion
1070
     0
  0
VISUALSTYLE
  5
5A1
102
{ACAD_XDICTIONARY
360
AD4
102
}
102
{ACAD_REACTORS
330
5A0
102
}
330
5A0
100
AcDbVisualStyle
  2
Flat
 70
     0
 71
     2
 72
     1
 73
     1
 90
        2
 40
-0.6
 41
30.0
 62
     5
 63
     7
 74
     0
 91
        4
 64
     7
 65
   257
 75
     1
175
     1
 42
1.0
 92
        8
 66
     7
 43
1.0
 76
     1
 77
     6
 78
     2
 67
     7
 79
     5
170
     0
171
     0
290
     0
174
     0
 93
       13
 44
0.0
173
     0
291
     1
 45
0.0
1001
ACAD
1000
AcDbSavedByObjectVersion
1070
     0
  0
VISUALSTYLE
  5
5A2
102
{ACAD_XDICTIONARY
360
AD6
102
}
102
{ACAD_REACTORS
330
5A0
102
}
330
5A0
100
AcDbVisualStyle
  2
FlatWithEdges
 70
     1
 71
     2
 72
     1
 73
     1
 90
        2
 40
-0.6
 41
30.0
 62
     5
 63
     7
 74
     1
 91
        4
 64
     7
 65
   257
 75
     1
175
     1
 42
1.0
 92
        0
 66
   257
 43
1.0
 76
     1
 77
     6
 78
     2
 67
     7
 79
     5
170
     0
171
     0
290
     0
174
     0
 93
       13
 44
0.0
173
     0
291
     1
 45
0.0
1001
ACAD
1000
AcDbSavedByObjectVersion
1070
     0
  0
VISUALSTYLE
  5
5A3
102
{ACAD_XDICTIONARY
360
AD8
102
}
102
{ACAD_REACTORS
330
5A0
102
}
330
5A0
100
AcDbVisualStyle
  2
Gouraud
 70
     2
 71
     2
 72
     2
 73
     1
 90
        2
 40
-0.6
 41
30.0
 62
     5
 63
     7
 74
     0
 91
        4
 64
     7
 65
   257
 75
     1
175
     1
 42
1.0
 92
        0
 66
     7
 43
1.0
 76
     1
 77
     6
 78
     2
 67
     7
 79
     5
170
     0
171
     0
290
     0
174
     0
 93
       13
 44
0.0
173
     0
291
     1
 45
0.0
1001
ACAD
1000
AcDbSavedByObjectVersion
1070
     0
  0
VISUALSTYLE
  5
5A4
102
{ACAD_XDICTIONARY
360
ADA
102
}
102
{ACAD_REACTORS
330
5A0
102
}
330
5A0
100
AcDbVisualStyle
  2
GouraudWithEdges
 70
     3
 71
     2
 72
     2
 73
     1
 90
        2
 40
-0.6
 41
30.0
 62
     5
 63
     7
 74
     1
 91
        4
 64
     7
 65
   257
 75
     1
175
     1
 42
1.0
 92
        0
 66
   257
 43
1.0
 76
     1
 77
     6
 78
     2
 67
     7
 79
     5
170
     0
171
     0
290
     0
174
     0
 93
       13
 44
0.0
173
     0
291
     1
 45
0.0
1001
ACAD
1000
AcDbSavedByObjectVersion
1070
     0
  0
VISUALSTYLE
  5
5AE
102
{ACAD_XDICTIONARY
360
AEE
102
}
102
{ACAD_REACTORS
330
5A0
102
}
330
5A0
100
AcDbVisualStyle
  2
Linepattern
 70
    14
 71
     2
 72
     2
 73
     0
 90
        0
 40
-0.6
 41
-30.0
 62
     5
 63
     7
 74
     1
 91
        4
 64
     7
 65
   257
 75
     7
175
     7
 42
1.0
 92
        8
 66
     7
 43
1.0
 76
     1
 77
     6
 78
     2
 67
     7
 79
     5
170
     0
171
     0
290
     0
174
     0
 93
        1
 44
0.0
173
     0
291
     1
 45
0.0
1001
ACAD
1000
AcDbSavedByObjectVersion
1070
     0
  0
VISUALSTYLE
  5
5AA
102
{ACAD_XDICTIONARY
360
AE6
102
}
102
{ACAD_REACTORS
330
5A0
102
}
330
5A0
100
AcDbVisualStyle
  2
Realistic
 70
     8
 71
     2
 72
     2
 73
     0
 90
        0
 40
-0.6
 41
-30.0
 62
     5
 63
     7
 74
     1
 91
        0
 64
     7
 65
   257
 75
     1
175
     1
 42
1.0
 92
        8
 66
     8
 43
1.0
 76
     1
 77
     6
 78
     2
 67
     7
 79
     5
170
     0
171
     0
290
     0
174
     0
 93
       13
 44
0.0
173
     0
291
     0
 45
0.0
1001
ACAD
1000
AcDbSavedByObjectVersion
1070
     0
  0
VISUALSTYLE
  5
5AD
102
{ACAD_XDICTIONARY
360
AEC
102
}
102
{ACAD_REACTORS
330
5A0
102
}
330
5A0
100
AcDbVisualStyle
  2
Thicken
 70
    13
 71
     2
 72
     2
 73
     0
 90
        0
 40
-0.6
 41
-30.0
 62
     5
 63
     7
 74
     1
 91
        4
 64
     7
 65
   257
 75
     1
175
     1
 42
1.0
 92
       12
 66
     7
 43
1.0
 76
     1
 77
     6
 78
     2
 67
     7
 79
     5
170
     0
171
     0
290
     0
174
     0
 93
        1
 44
0.0
173
     0
291
     1
 45
0.0
1001
ACAD
1000
AcDbSavedByObjectVersion
1070
     0
  0
DICTIONARYVAR
  5
5DF
102
{ACAD_REACTORS
330
5DC
102
}
330
5DC
100
DictionaryVariables
280
     0
  1
1:1
  0
DICTIONARYVAR
  5
5DE
102
{ACAD_REACTORS
330
5DC
102
}
330
5DC
100
DictionaryVariables
280
     0
  1
STANDARD
  0
DICTIONARYVAR
  5
5DD
102
{ACAD_REACTORS
330
5DC
102
}
330
5DC
100
DictionaryVariables
280
     0
  1
STANDARD
  0
DICTIONARYVAR
  5
A61
102
{ACAD_REACTORS
330
5DC
102
}
330
5DC
100
DictionaryVariables
280
     0
  1
2
  0
DICTIONARYVAR
  5
A60
102
{ACAD_REACTORS
330
5DC
102
}
330
5DC
100
DictionaryVariables
280
     0
  1
1
  0
DICTIONARYVAR
  5
A62
102
{ACAD_REACTORS
330
5DC
102
}
330
5DC
100
DictionaryVariables
280
     0
  1

  0
DICTIONARY
  5
591
330
590
100
AcDbDictionary
280
     1
281
     1
  3
BUMPTILE
360
593
  3
DIFFUSETILE
360
592
  3
OPACITYTILE
360
596
  3
REFLECTIONTILE
360
595
  3
REFRACTIONTILE
360
597
  3
SPECULARTILE
360
594
  0
DICTIONARY
  5
589
330
588
100
AcDbDictionary
280
     1
281
     1
  3
BUMPTILE
360
58B
  3
DIFFUSETILE
360
58A
  3
OPACITYTILE
360
58E
  3
REFLECTIONTILE
360
58D
  3
REFRACTIONTILE
360
58F
  3
SPECULARTILE
360
58C
  0
DICTIONARY
  5
599
330
598
100
AcDbDictionary
280
     1
281
     1
  3
BUMPTILE
360
59B
  3
DIFFUSETILE
360
59A
  3
OPACITYTILE
360
59E
  3
REFLECTIONTILE
360
59D
  3
REFRACTIONTILE
360
59F
  3
SPECULARTILE
360
59C
  0
DICTIONARY
  5
5D9
330
5B3
100
AcDbDictionary
280
     1
281
     1
  3
ACAD_ROUNDTRIP_2008_TABLESTYLE_CELLSTYLEMAP
360
AF5
  3
ACAD_XREC_ROUNDTRIP
360
AF4
  0
DICTIONARY
  5
ADE
330
5A6
100
AcDbDictionary
280
     1
281
     1
  3
ACAD_XREC_ROUNDTRIP
360
ADF
  0
DICTIONARY
  5
AE2
330
5A8
100
AcDbDictionary
280
     1
281
     1
  3
ACAD_XREC_ROUNDTRIP
360
AE3
  0
DICTIONARY
  5
AE0
330
5A7
100
AcDbDictionary
280
     1
281
     1
  3
ACAD_XREC_ROUNDTRIP
360
AE1
  0
DICTIONARY
  5
ADC
330
5A5
100
AcDbDictionary
280
     1
281
     1
  3
ACAD_XREC_ROUNDTRIP
360
ADD
  0
DICTIONARY
  5
AEA
330
5AC
100
AcDbDictionary
280
     1
281
     1
  3
ACAD_XREC_ROUNDTRIP
360
AEB
  0
DICTIONARY
  5
AF2
330
5B0
100
AcDbDictionary
280
     1
281
     1
  3
ACAD_XREC_ROUNDTRIP
360
AF3
  0
DICTIONARY
  5
AE4
330
5A9
100
AcDbDictionary
280
     1
281
     1
  3
ACAD_XREC_ROUNDTRIP
360
AE5
  0
DICTIONARY
  5
AE8
330
5AB
100
AcDbDictionary
280
     1
281
     1
  3
ACAD_XREC_ROUNDTRIP
360
AE9
  0
DICTIONARY
  5
AF0
330
5AF
100
AcDbDictionary
280
     1
281
     1
  3
ACAD_XREC_ROUNDTRIP
360
AF1
  0
DICTIONARY
  5
AD4
330
5A1
100
AcDbDictionary
280
     1
281
     1
  3
ACAD_XREC_ROUNDTRIP
360
AD5
  0
DICTIONARY
  5
AD6
330
5A2
100
AcDbDictionary
280
     1
281
     1
  3
ACAD_XREC_ROUNDTRIP
360
AD7
  0
DICTIONARY
  5
AD8
330
5A3
100
AcDbDictionary
280
     1
281
     1
  3
ACAD_XREC_ROUNDTRIP
360
AD9
  0
DICTIONARY
  5
ADA
330
5A4
100
AcDbDictionary
280
     1
281
     1
  3
ACAD_XREC_ROUNDTRIP
360
ADB
  0
DICTIONARY
  5
AEE
330
5AE
100
AcDbDictionary
280
     1
281
     1
  3
ACAD_XREC_ROUNDTRIP
360
AEF
  0
DICTIONARY
  5
AE6
330
5AA
100
AcDbDictionary
280
     1
281
     1
  3
ACAD_XREC_ROUNDTRIP
360
AE7
  0
DICTIONARY
  5
AEC
330
5AD
100
AcDbDictionary
280
     1
281
     1
  3
ACAD_XREC_ROUNDTRIP
360
AED
  0
XRECORD
  5
593
102
{ACAD_REACTORS
330
591
102
}
330
591
100
AcDbXrecord
280
     1
270
     1
271
     1
  0
XRECORD
  5
592
102
{ACAD_REACTORS
330
591
102
}
330
591
100
AcDbXrecord
280
     1
270
     1
271
     1
  0
XRECORD
  5
596
102
{ACAD_REACTORS
330
591
102
}
330
591
100
AcDbXrecord
280
     1
270
     1
271
     1
  0
XRECORD
  5
595
102
{ACAD_REACTORS
330
591
102
}
330
591
100
AcDbXrecord
280
     1
270
     1
271
     1
  0
XRECORD
  5
597
102
{ACAD_REACTORS
330
591
102
}
330
591
100
AcDbXrecord
280
     1
270
     1
271
     1
  0
XRECORD
  5
594
102
{ACAD_REACTORS
330
591
102
}
330
591
100
AcDbXrecord
280
     1
270
     1
271
     1
  0
XRECORD
  5
58B
102
{ACAD_REACTORS
330
589
102
}
330
589
100
AcDbXrecord
280
     1
270
     1
271
     1
  0
XRECORD
  5
58A
102
{ACAD_REACTORS
330
589
102
}
330
589
100
AcDbXrecord
280
     1
270
     1
271
     1
  0
XRECORD
  5
58E
102
{ACAD_REACTORS
330
589
102
}
330
589
100
AcDbXrecord
280
     1
270
     1
271
     1
  0
XRECORD
  5
58D
102
{ACAD_REACTORS
330
589
102
}
330
589
100
AcDbXrecord
280
     1
270
     1
271
     1
  0
XRECORD
  5
58F
102
{ACAD_REACTORS
330
589
102
}
330
589
100
AcDbXrecord
280
     1
270
     1
271
     1
  0
XRECORD
  5
58C
102
{ACAD_REACTORS
330
589
102
}
330
589
100
AcDbXrecord
280
     1
270
     1
271
     1
  0
XRECORD
  5
59B
102
{ACAD_REACTORS
330
599
102
}
330
599
100
AcDbXrecord
280
     1
270
     1
271
     1
  0
XRECORD
  5
59A
102
{ACAD_REACTORS
330
599
102
}
330
599
100
AcDbXrecord
280
     1
270
     1
271
     1
  0
XRECORD
  5
59E
102
{ACAD_REACTORS
330
599
102
}
330
599
100
AcDbXrecord
280
     1
270
     1
271
     1
  0
XRECORD
  5
59D
102
{ACAD_REACTORS
330
599
102
}
330
599
100
AcDbXrecord
280
     1
270
     1
271
     1
  0
XRECORD
  5
59F
102
{ACAD_REACTORS
330
599
102
}
330
599
100
AcDbXrecord
280
     1
270
     1
271
     1
  0
XRECORD
  5
59C
102
{ACAD_REACTORS
330
599
102
}
330
599
100
AcDbXrecord
280
     1
270
     1
271
     1
  0
CELLSTYLEMAP
  5
AF5
102
{ACAD_REACTORS
330
5D9
102
}
330
5D9
100
AcDbCellStyleMap
 90
        3
300
CELLSTYLE
  1
TABLEFORMAT_BEGIN
 90
        5
170
     1
 91
        0
 92
        0
 62
   257
 93
        1
300
CONTENTFORMAT
  1
CONTENTFORMAT_BEGIN
 90
        0
 91
        0
 92
        4
 93
        0
300

 40
0.0
140
1.0
 94
        5
 62
     0
340
11
144
6.0
309
CONTENTFORMAT_END
171
     1
301
MARGIN
  1
CELLMARGIN_BEGIN
 40
1.5
 40
1.5
 40
1.5
 40
1.5
 40
4.5
 40
4.5
309
CELLMARGIN_END
 94
        6
 95
        1
302
GRIDFORMAT
  1
GRIDFORMAT_BEGIN
 90
        0
 91
        1
 62
     0
 92
       -2
340
0
 93
        0
 40
0.045
309
GRIDFORMAT_END
 95
        2
302
GRIDFORMAT
  1
GRIDFORMAT_BEGIN
 90
        0
 91
        1
 62
     0
 92
       -2
340
0
 93
        0
 40
0.045
309
GRIDFORMAT_END
 95
        4
302
GRIDFORMAT
  1
GRIDFORMAT_BEGIN
 90
        0
 91
        1
 62
     0
 92
       -2
340
0
 93
        0
 40
0.045
309
GRIDFORMAT_END
 95
        8
302
GRIDFORMAT
  1
GRIDFORMAT_BEGIN
 90
        0
 91
        1
 62
     0
 92
       -2
340
0
 93
        0
 40
0.045
309
GRIDFORMAT_END
 95
       16
302
GRIDFORMAT
  1
GRIDFORMAT_BEGIN
 90
        0
 91
        1
 62
     0
 92
       -2
340
0
 93
        0
 40
0.045
309
GRIDFORMAT_END
 95
       32
302
GRIDFORMAT
  1
GRIDFORMAT_BEGIN
 90
        0
 91
        1
 62
     0
 92
       -2
340
0
 93
        0
 40
0.045
309
GRIDFORMAT_END
309
TABLEFORMAT_END
  1
CELLSTYLE_BEGIN
 90
        1
 91
        1
300
_TITLE
309
CELLSTYLE_END
300
CELLSTYLE
  1
TABLEFORMAT_BEGIN
 90
        5
170
     1
 91
        0
 92
        0
 62
   257
 93
        1
300
CONTENTFORMAT
  1
CONTENTFORMAT_BEGIN
 90
        0
 91
        0
 92
        4
 93
        0
300

 40
0.0
140
1.0
 94
        5
 62
     0
340
11
144
4.5
309
CONTENTFORMAT_END
171
     1
301
MARGIN
  1
CELLMARGIN_BEGIN
 40
1.5
 40
1.5
 40
1.5
 40
1.5
 40
4.5
 40
4.5
309
CELLMARGIN_END
 94
        6
 95
        1
302
GRIDFORMAT
  1
GRIDFORMAT_BEGIN
 90
        0
 91
        1
 62
     0
 92
       -2
340
0
 93
        0
 40
0.045
309
GRIDFORMAT_END
 95
        2
302
GRIDFORMAT
  1
GRIDFORMAT_BEGIN
 90
        0
 91
        1
 62
     0
 92
       -2
340
0
 93
        0
 40
0.045
309
GRIDFORMAT_END
 95
        4
302
GRIDFORMAT
  1
GRIDFORMAT_BEGIN
 90
        0
 91
        1
 62
     0
 92
       -2
340
0
 93
        0
 40
0.045
309
GRIDFORMAT_END
 95
        8
302
GRIDFORMAT
  1
GRIDFORMAT_BEGIN
 90
        0
 91
        1
 62
     0
 92
       -2
340
0
 93
        0
 40
0.045
309
GRIDFORMAT_END
 95
       16
302
GRIDFORMAT
  1
GRIDFORMAT_BEGIN
 90
        0
 91
        1
 62
     0
 92
       -2
340
0
 93
        0
 40
0.045
309
GRIDFORMAT_END
 95
       32
302
GRIDFORMAT
  1
GRIDFORMAT_BEGIN
 90
        0
 91
        1
 62
     0
 92
       -2
340
0
 93
        0
 40
0.045
309
GRIDFORMAT_END
309
TABLEFORMAT_END
  1
CELLSTYLE_BEGIN
 90
        2
 91
        1
300
_HEADER
309
CELLSTYLE_END
300
CELLSTYLE
  1
TABLEFORMAT_BEGIN
 90
        5
170
     1
 91
        0
 92
        0
 62
   257
 93
        1
300
CONTENTFORMAT
  1
CONTENTFORMAT_BEGIN
 90
        0
 91
        0
 92
        4
 93
        0
300

 40
0.0
140
1.0
 94
        2
 62
     0
340
11
144
4.5
309
CONTENTFORMAT_END
171
     1
301
MARGIN
  1
CELLMARGIN_BEGIN
 40
1.5
 40
1.5
 40
1.5
 40
1.5
 40
4.5
 40
4.5
309
CELLMARGIN_END
 94
        6
 95
        1
302
GRIDFORMAT
  1
GRIDFORMAT_BEGIN
 90
        0
 91
        1
 62
     0
 92
       -2
340
0
 93
        0
 40
0.045
309
GRIDFORMAT_END
 95
        2
302
GRIDFORMAT
  1
GRIDFORMAT_BEGIN
 90
        0
 91
        1
 62
     0
 92
       -2
340
0
 93
        0
 40
0.045
309
GRIDFORMAT_END
 95
        4
302
GRIDFORMAT
  1
GRIDFORMAT_BEGIN
 90
        0
 91
        1
 62
     0
 92
       -2
340
0
 93
        0
 40
0.045
309
GRIDFORMAT_END
 95
        8
302
GRIDFORMAT
  1
GRIDFORMAT_BEGIN
 90
        0
 91
        1
 62
     0
 92
       -2
340
0
 93
        0
 40
0.045
309
GRIDFORMAT_END
 95
       16
302
GRIDFORMAT
  1
GRIDFORMAT_BEGIN
 90
        0
 91
        1
 62
     0
 92
       -2
340
0
 93
        0
 40
0.045
309
GRIDFORMAT_END
 95
       32
302
GRIDFORMAT
  1
GRIDFORMAT_BEGIN
 90
        0
 91
        1
 62
     0
 92
       -2
340
0
 93
        0
 40
0.045
309
GRIDFORMAT_END
309
TABLEFORMAT_END
  1
CELLSTYLE_BEGIN
 90
        3
 91
        2
300
_DATA
309
CELLSTYLE_END
  0
XRECORD
  5
AF4
102
{ACAD_REACTORS
330
5D9
102
}
330
5D9
100
AcDbXrecord
280
     1
102
ACAD_ROUNDTRIP_PRE2007_TABLESTYLE
 90
        4
 91
        0
  1

 92
        4
 93
        0
  2

 94
        4
 95
        0
  3

  0
XRECORD
  5
ADF
102
{ACAD_REACTORS
330
ADE
102
}
330
ADE
100
AcDbXrecord
280
     1
102
RTVSPropertyOp0
 70
     1
102
RTVSPropertyOp1
 70
     1
102
RTVSPropertyOp2
 70
     1
102
RTVSPropertyOp3
 70
     1
102
RTVSPropertyOp4
 70
     1
102
RTVSPropertyOp5
 70
     1
102
RTVSPropertyOp6
 70
     1
102
RTVSPropertyOp7
 70
     1
102
RTVSPropertyOp8
 70
     1
102
RTVSPropertyOp9
 70
     1
102
RTVSPropertyOp10
 70
     1
102
RTVSPropertyOp11
 70
     1
102
RTVSPropertyOp12
 70
     1
102
RTVSPropertyOp13
 70
     1
102
RTVSPropertyOp14
 70
     1
102
RTVSPropertyOp15
 70
     1
102
RTVSPropertyOp16
 70
     1
102
RTVSPropertyOp17
 70
     1
102
RTVSPropertyOp18
 70
     1
102
RTVSPropertyOp19
 70
     1
102
RTVSPropertyOp20
 70
     1
102
RTVSPropertyOp21
 70
     1
102
RTVSPropertyOp22
 70
     1
102
RTVSPropertyOp23
 70
     1
102
RTVSPropertyOp24
 70
     1
102
RTVSPropertyOp25
 70
     1
102
RTVSPropertyOp26
 70
     1
102
RTVSPropertyOp27
 70
     1
  0
XRECORD
  5
AE3
102
{ACAD_REACTORS
330
AE2
102
}
330
AE2
100
AcDbXrecord
280
     1
102
RTVSPropertyOp0
 70
     1
102
RTVSPropertyOp1
 70
     1
102
RTVSPropertyOp2
 70
     1
102
RTVSPropertyOp3
 70
     1
102
RTVSPropertyOp4
 70
     1
102
RTVSPropertyOp5
 70
     1
102
RTVSPropertyOp6
 70
     1
102
RTVSPropertyOp7
 70
     1
102
RTVSPropertyOp8
 70
     1
102
RTVSPropertyOp9
 70
     1
102
RTVSPropertyOp10
 70
     1
102
RTVSPropertyOp11
 70
     1
102
RTVSPropertyOp12
 70
     1
102
RTVSPropertyOp13
 70
     1
102
RTVSPropertyOp14
 70
     1
102
RTVSPropertyOp15
 70
     1
102
RTVSPropertyOp16
 70
     1
102
RTVSPropertyOp17
 70
     1
102
RTVSPropertyOp18
 70
     1
102
RTVSPropertyOp19
 70
     1
102
RTVSPropertyOp20
 70
     1
102
RTVSPropertyOp21
 70
     1
102
RTVSPropertyOp22
 70
     1
102
RTVSPropertyOp23
 70
     1
102
RTVSPropertyOp24
 70
     1
102
RTVSPropertyOp25
 70
     1
102
RTVSPropertyOp26
 70
     1
102
RTVSPropertyOp27
 70
     1
  0
XRECORD
  5
AE1
102
{ACAD_REACTORS
330
AE0
102
}
330
AE0
100
AcDbXrecord
280
     1
102
RTVSPropertyOp0
 70
     1
102
RTVSPropertyOp1
 70
     1
102
RTVSPropertyOp2
 70
     1
102
RTVSPropertyOp3
 70
     1
102
RTVSPropertyOp4
 70
     1
102
RTVSPropertyOp5
 70
     1
102
RTVSPropertyOp6
 70
     1
102
RTVSPropertyOp7
 70
     1
102
RTVSPropertyOp8
 70
     1
102
RTVSPropertyOp9
 70
     1
102
RTVSPropertyOp10
 70
     1
102
RTVSPropertyOp11
 70
     1
102
RTVSPropertyOp12
 70
     1
102
RTVSPropertyOp13
 70
     1
102
RTVSPropertyOp14
 70
     1
102
RTVSPropertyOp15
 70
     1
102
RTVSPropertyOp16
 70
     1
102
RTVSPropertyOp17
 70
     1
102
RTVSPropertyOp18
 70
     1
102
RTVSPropertyOp19
 70
     1
102
RTVSPropertyOp20
 70
     1
102
RTVSPropertyOp21
 70
     1
102
RTVSPropertyOp22
 70
     1
102
RTVSPropertyOp23
 70
     1
102
RTVSPropertyOp24
 70
     1
102
RTVSPropertyOp25
 70
     1
102
RTVSPropertyOp26
 70
     1
102
RTVSPropertyOp27
 70
     1
  0
XRECORD
  5
ADD
102
{ACAD_REACTORS
330
ADC
102
}
330
ADC
100
AcDbXrecord
280
     1
102
RTVSPropertyOp0
 70
     1
102
RTVSPropertyOp1
 70
     1
102
RTVSPropertyOp2
 70
     1
102
RTVSPropertyOp3
 70
     1
102
RTVSPropertyOp4
 70
     1
102
RTVSPropertyOp5
 70
     1
102
RTVSPropertyOp6
 70
     1
102
RTVSPropertyOp7
 70
     1
102
RTVSPropertyOp8
 70
     1
102
RTVSPropertyOp9
 70
     1
102
RTVSPropertyOp10
 70
     1
102
RTVSPropertyOp11
 70
     1
102
RTVSPropertyOp12
 70
     1
102
RTVSPropertyOp13
 70
     1
102
RTVSPropertyOp14
 70
     1
102
RTVSPropertyOp15
 70
     1
102
RTVSPropertyOp16
 70
     1
102
RTVSPropertyOp17
 70
     1
102
RTVSPropertyOp18
 70
     1
102
RTVSPropertyOp19
 70
     1
102
RTVSPropertyOp20
 70
     1
102
RTVSPropertyOp21
 70
     1
102
RTVSPropertyOp22
 70
     1
102
RTVSPropertyOp23
 70
     1
102
RTVSPropertyOp24
 70
     1
102
RTVSPropertyOp25
 70
     1
102
RTVSPropertyOp26
 70
     1
102
RTVSPropertyOp27
 70
     1
  0
XRECORD
  5
AEB
102
{ACAD_REACTORS
330
AEA
102
}
330
AEA
100
AcDbXrecord
280
     1
102
RTVSPropertyOp0
 70
     1
102
RTVSPropertyOp1
 70
     1
102
RTVSPropertyOp2
 70
     1
102
RTVSPropertyOp3
 70
     1
102
RTVSPropertyOp4
 70
     1
102
RTVSPropertyOp5
 70
     1
102
RTVSPropertyOp6
 70
     1
102
RTVSPropertyOp7
 70
     1
102
RTVSPropertyOp8
 70
     1
102
RTVSPropertyOp9
 70
     1
102
RTVSPropertyOp10
 70
     1
102
RTVSPropertyOp11
 70
     1
102
RTVSPropertyOp12
 70
     1
102
RTVSPropertyOp13
 70
     1
102
RTVSPropertyOp14
 70
     1
102
RTVSPropertyOp15
 70
     1
102
RTVSPropertyOp16
 70
     1
102
RTVSPropertyOp17
 70
     1
102
RTVSPropertyOp18
 70
     1
102
RTVSPropertyOp19
 70
     1
102
RTVSPropertyOp20
 70
     1
102
RTVSPropertyOp21
 70
     1
102
RTVSPropertyOp22
 70
     1
102
RTVSPropertyOp23
 70
     1
102
RTVSPropertyOp24
 70
     1
102
RTVSPropertyOp25
 70
     1
102
RTVSPropertyOp26
 70
     1
102
RTVSPropertyOp27
 70
     1
  0
XRECORD
  5
AF3
102
{ACAD_REACTORS
330
AF2
102
}
330
AF2
100
AcDbXrecord
280
     1
102
RTVSPropertyOp0
 70
     1
102
RTVSPropertyOp1
 70
     1
102
RTVSPropertyOp2
 70
     1
102
RTVSPropertyOp3
 70
     1
102
RTVSPropertyOp4
 70
     1
102
RTVSPropertyOp5
 70
     1
102
RTVSPropertyOp6
 70
     1
102
RTVSPropertyOp7
 70
     1
102
RTVSPropertyOp8
 70
     1
102
RTVSPropertyOp9
 70
     1
102
RTVSPropertyOp10
 70
     1
102
RTVSPropertyOp11
 70
     1
102
RTVSPropertyOp12
 70
     1
102
RTVSPropertyOp13
 70
     1
102
RTVSPropertyOp14
 70
     1
102
RTVSPropertyOp15
 70
     1
102
RTVSPropertyOp16
 70
     1
102
RTVSPropertyOp17
 70
     1
102
RTVSPropertyOp18
 70
     1
102
RTVSPropertyOp19
 70
     1
102
RTVSPropertyOp20
 70
     1
102
RTVSPropertyOp21
 70
     1
102
RTVSPropertyOp22
 70
     1
102
RTVSPropertyOp23
 70
     1
102
RTVSPropertyOp24
 70
     1
102
RTVSPropertyOp25
 70
     1
102
RTVSPropertyOp26
 70
     1
102
RTVSPropertyOp27
 70
     1
  0
XRECORD
  5
AE5
102
{ACAD_REACTORS
330
AE4
102
}
330
AE4
100
AcDbXrecord
280
     1
102
RTVSPropertyOp0
 70
     1
102
RTVSPropertyOp1
 70
     1
102
RTVSPropertyOp2
 70
     1
102
RTVSPropertyOp3
 70
     1
102
RTVSPropertyOp4
 70
     1
102
RTVSPropertyOp5
 70
     1
102
RTVSPropertyOp6
 70
     1
102
RTVSPropertyOp7
 70
     1
102
RTVSPropertyOp8
 70
     1
102
RTVSPropertyOp9
 70
     1
102
RTVSPropertyOp10
 70
     1
102
RTVSPropertyOp11
 70
     1
102
RTVSPropertyOp12
 70
     1
102
RTVSPropertyOp13
 70
     1
102
RTVSPropertyOp14
 70
     1
102
RTVSPropertyOp15
 70
     1
102
RTVSPropertyOp16
 70
     1
102
RTVSPropertyOp17
 70
     1
102
RTVSPropertyOp18
 70
     1
102
RTVSPropertyOp19
 70
     1
102
RTVSPropertyOp20
 70
     1
102
RTVSPropertyOp21
 70
     1
102
RTVSPropertyOp22
 70
     1
102
RTVSPropertyOp23
 70
     1
102
RTVSPropertyOp24
 70
     1
102
RTVSPropertyOp25
 70
     1
102
RTVSPropertyOp26
 70
     1
102
RTVSPropertyOp27
 70
     1
  0
XRECORD
  5
AE9
102
{ACAD_REACTORS
330
AE8
102
}
330
AE8
100
AcDbXrecord
280
     1
102
RTVSPropertyOp0
 70
     1
102
RTVSPropertyOp1
 70
     1
102
RTVSPropertyOp2
 70
     1
102
RTVSPropertyOp3
 70
     1
102
RTVSPropertyOp4
 70
     1
102
RTVSPropertyOp5
 70
     1
102
RTVSPropertyOp6
 70
     1
102
RTVSPropertyOp7
 70
     1
102
RTVSPropertyOp8
 70
     1
102
RTVSPropertyOp9
 70
     1
102
RTVSPropertyOp10
 70
     1
102
RTVSPropertyOp11
 70
     1
102
RTVSPropertyOp12
 70
     1
102
RTVSPropertyOp13
 70
     1
102
RTVSPropertyOp14
 70
     1
102
RTVSPropertyOp15
 70
     1
102
RTVSPropertyOp16
 70
     1
102
RTVSPropertyOp17
 70
     1
102
RTVSPropertyOp18
 70
     1
102
RTVSPropertyOp19
 70
     1
102
RTVSPropertyOp20
 70
     1
102
RTVSPropertyOp21
 70
     1
102
RTVSPropertyOp22
 70
     1
102
RTVSPropertyOp23
 70
     1
102
RTVSPropertyOp24
 70
     1
102
RTVSPropertyOp25
 70
     1
102
RTVSPropertyOp26
 70
     1
102
RTVSPropertyOp27
 70
     1
  0
XRECORD
  5
AF1
102
{ACAD_REACTORS
330
AF0
102
}
330
AF0
100
AcDbXrecord
280
     1
102
RTVSPropertyOp0
 70
     1
102
RTVSPropertyOp1
 70
     1
102
RTVSPropertyOp2
 70
     1
102
RTVSPropertyOp3
 70
     1
102
RTVSPropertyOp4
 70
     1
102
RTVSPropertyOp5
 70
     1
102
RTVSPropertyOp6
 70
     1
102
RTVSPropertyOp7
 70
     1
102
RTVSPropertyOp8
 70
     1
102
RTVSPropertyOp9
 70
     1
102
RTVSPropertyOp10
 70
     1
102
RTVSPropertyOp11
 70
     1
102
RTVSPropertyOp12
 70
     1
102
RTVSPropertyOp13
 70
     1
102
RTVSPropertyOp14
 70
     1
102
RTVSPropertyOp15
 70
     1
102
RTVSPropertyOp16
 70
     1
102
RTVSPropertyOp17
 70
     1
102
RTVSPropertyOp18
 70
     1
102
RTVSPropertyOp19
 70
     1
102
RTVSPropertyOp20
 70
     1
102
RTVSPropertyOp21
 70
     1
102
RTVSPropertyOp22
 70
     1
102
RTVSPropertyOp23
 70
     1
102
RTVSPropertyOp24
 70
     1
102
RTVSPropertyOp25
 70
     1
102
RTVSPropertyOp26
 70
     1
102
RTVSPropertyOp27
 70
     1
  0
XRECORD
  5
AD5
102
{ACAD_REACTORS
330
AD4
102
}
330
AD4
100
AcDbXrecord
280
     1
102
RTVSPropertyOp0
 70
     1
102
RTVSPropertyOp1
 70
     1
102
RTVSPropertyOp2
 70
     1
102
RTVSPropertyOp3
 70
     1
102
RTVSPropertyOp4
 70
     1
102
RTVSPropertyOp5
 70
     1
102
RTVSPropertyOp6
 70
     1
102
RTVSPropertyOp7
 70
     1
102
RTVSPropertyOp8
 70
     1
102
RTVSPropertyOp9
 70
     1
102
RTVSPropertyOp10
 70
     1
102
RTVSPropertyOp11
 70
     1
102
RTVSPropertyOp12
 70
     1
102
RTVSPropertyOp13
 70
     1
102
RTVSPropertyOp14
 70
     1
102
RTVSPropertyOp15
 70
     1
102
RTVSPropertyOp16
 70
     1
102
RTVSPropertyOp17
 70
     1
102
RTVSPropertyOp18
 70
     1
102
RTVSPropertyOp19
 70
     1
102
RTVSPropertyOp20
 70
     1
102
RTVSPropertyOp21
 70
     1
102
RTVSPropertyOp22
 70
     1
102
RTVSPropertyOp23
 70
     1
102
RTVSPropertyOp24
 70
     1
102
RTVSPropertyOp25
 70
     1
102
RTVSPropertyOp26
 70
     1
102
RTVSPropertyOp27
 70
     1
  0
XRECORD
  5
AD7
102
{ACAD_REACTORS
330
AD6
102
}
330
AD6
100
AcDbXrecord
280
     1
102
RTVSPropertyOp0
 70
     1
102
RTVSPropertyOp1
 70
     1
102
RTVSPropertyOp2
 70
     1
102
RTVSPropertyOp3
 70
     1
102
RTVSPropertyOp4
 70
     1
102
RTVSPropertyOp5
 70
     1
102
RTVSPropertyOp6
 70
     1
102
RTVSPropertyOp7
 70
     1
102
RTVSPropertyOp8
 70
     1
102
RTVSPropertyOp9
 70
     1
102
RTVSPropertyOp10
 70
     1
102
RTVSPropertyOp11
 70
     1
102
RTVSPropertyOp12
 70
     1
102
RTVSPropertyOp13
 70
     1
102
RTVSPropertyOp14
 70
     1
102
RTVSPropertyOp15
 70
     1
102
RTVSPropertyOp16
 70
     1
102
RTVSPropertyOp17
 70
     1
102
RTVSPropertyOp18
 70
     1
102
RTVSPropertyOp19
 70
     1
102
RTVSPropertyOp20
 70
     1
102
RTVSPropertyOp21
 70
     1
102
RTVSPropertyOp22
 70
     1
102
RTVSPropertyOp23
 70
     1
102
RTVSPropertyOp24
 70
     1
102
RTVSPropertyOp25
 70
     1
102
RTVSPropertyOp26
 70
     1
102
RTVSPropertyOp27
 70
     1
  0
XRECORD
  5
AD9
102
{ACAD_REACTORS
330
AD8
102
}
330
AD8
100
AcDbXrecord
280
     1
102
RTVSPropertyOp0
 70
     1
102
RTVSPropertyOp1
 70
     1
102
RTVSPropertyOp2
 70
     1
102
RTVSPropertyOp3
 70
     1
102
RTVSPropertyOp4
 70
     1
102
RTVSPropertyOp5
 70
     1
102
RTVSPropertyOp6
 70
     1
102
RTVSPropertyOp7
 70
     1
102
RTVSPropertyOp8
 70
     1
102
RTVSPropertyOp9
 70
     1
102
RTVSPropertyOp10
 70
     1
102
RTVSPropertyOp11
 70
     1
102
RTVSPropertyOp12
 70
     1
102
RTVSPropertyOp13
 70
     1
102
RTVSPropertyOp14
 70
     1
102
RTVSPropertyOp15
 70
     1
102
RTVSPropertyOp16
 70
     1
102
RTVSPropertyOp17
 70
     1
102
RTVSPropertyOp18
 70
     1
102
RTVSPropertyOp19
 70
     1
102
RTVSPropertyOp20
 70
     1
102
RTVSPropertyOp21
 70
     1
102
RTVSPropertyOp22
 70
     1
102
RTVSPropertyOp23
 70
     1
102
RTVSPropertyOp24
 70
     1
102
RTVSPropertyOp25
 70
     1
102
RTVSPropertyOp26
 70
     1
102
RTVSPropertyOp27
 70
     1
  0
XRECORD
  5
ADB
102
{ACAD_REACTORS
330
ADA
102
}
330
ADA
100
AcDbXrecord
280
     1
102
RTVSPropertyOp0
 70
     1
102
RTVSPropertyOp1
 70
     1
102
RTVSPropertyOp2
 70
     1
102
RTVSPropertyOp3
 70
     1
102
RTVSPropertyOp4
 70
     1
102
RTVSPropertyOp5
 70
     1
102
RTVSPropertyOp6
 70
     1
102
RTVSPropertyOp7
 70
     1
102
RTVSPropertyOp8
 70
     1
102
RTVSPropertyOp9
 70
     1
102
RTVSPropertyOp10
 70
     1
102
RTVSPropertyOp11
 70
     1
102
RTVSPropertyOp12
 70
     1
102
RTVSPropertyOp13
 70
     1
102
RTVSPropertyOp14
 70
     1
102
RTVSPropertyOp15
 70
     1
102
RTVSPropertyOp16
 70
     1
102
RTVSPropertyOp17
 70
     1
102
RTVSPropertyOp18
 70
     1
102
RTVSPropertyOp19
 70
     1
102
RTVSPropertyOp20
 70
     1
102
RTVSPropertyOp21
 70
     1
102
RTVSPropertyOp22
 70
     1
102
RTVSPropertyOp23
 70
     1
102
RTVSPropertyOp24
 70
     1
102
RTVSPropertyOp25
 70
     1
102
RTVSPropertyOp26
 70
     1
102
RTVSPropertyOp27
 70
     1
  0
XRECORD
  5
AEF
102
{ACAD_REACTORS
330
AEE
102
}
330
AEE
100
AcDbXrecord
280
     1
102
RTVSPropertyOp0
 70
     1
102
RTVSPropertyOp1
 70
     1
102
RTVSPropertyOp2
 70
     1
102
RTVSPropertyOp3
 70
     1
102
RTVSPropertyOp4
 70
     1
102
RTVSPropertyOp5
 70
     1
102
RTVSPropertyOp6
 70
     1
102
RTVSPropertyOp7
 70
     1
102
RTVSPropertyOp8
 70
     1
102
RTVSPropertyOp9
 70
     1
102
RTVSPropertyOp10
 70
     1
102
RTVSPropertyOp11
 70
     1
102
RTVSPropertyOp12
 70
     1
102
RTVSPropertyOp13
 70
     1
102
RTVSPropertyOp14
 70
     1
102
RTVSPropertyOp15
 70
     1
102
RTVSPropertyOp16
 70
     1
102
RTVSPropertyOp17
 70
     1
102
RTVSPropertyOp18
 70
     1
102
RTVSPropertyOp19
 70
     1
102
RTVSPropertyOp20
 70
     1
102
RTVSPropertyOp21
 70
     1
102
RTVSPropertyOp22
 70
     1
102
RTVSPropertyOp23
 70
     1
102
RTVSPropertyOp24
 70
     1
102
RTVSPropertyOp25
 70
     1
102
RTVSPropertyOp26
 70
     1
102
RTVSPropertyOp27
 70
     1
  0
XRECORD
  5
AE7
102
{ACAD_REACTORS
330
AE6
102
}
330
AE6
100
AcDbXrecord
280
     1
102
RTVSPropertyOp0
 70
     1
102
RTVSPropertyOp1
 70
     1
102
RTVSPropertyOp2
 70
     1
102
RTVSPropertyOp3
 70
     1
102
RTVSPropertyOp4
 70
     1
102
RTVSPropertyOp5
 70
     1
102
RTVSPropertyOp6
 70
     1
102
RTVSPropertyOp7
 70
     1
102
RTVSPropertyOp8
 70
     1
102
RTVSPropertyOp9
 70
     1
102
RTVSPropertyOp10
 70
     1
102
RTVSPropertyOp11
 70
     1
102
RTVSPropertyOp12
 70
     1
102
RTVSPropertyOp13
 70
     1
102
RTVSPropertyOp14
 70
     1
102
RTVSPropertyOp15
 70
     1
102
RTVSPropertyOp16
 70
     1
102
RTVSPropertyOp17
 70
     1
102
RTVSPropertyOp18
 70
     1
102
RTVSPropertyOp19
 70
     1
102
RTVSPropertyOp20
 70
     1
102
RTVSPropertyOp21
 70
     1
102
RTVSPropertyOp22
 70
     1
102
RTVSPropertyOp23
 70
     1
102
RTVSPropertyOp24
 70
     1
102
RTVSPropertyOp25
 70
     1
102
RTVSPropertyOp26
 70
     1
102
RTVSPropertyOp27
 70
     1
  0
XRECORD
  5
AED
102
{ACAD_REACTORS
330
AEC
102
}
330
AEC
100
AcDbXrecord
280
     1
102
RTVSPropertyOp0
 70
     1
102
RTVSPropertyOp1
 70
     1
102
RTVSPropertyOp2
 70
     1
102
RTVSPropertyOp3
 70
     1
102
RTVSPropertyOp4
 70
     1
102
RTVSPropertyOp5
 70
     1
102
RTVSPropertyOp6
 70
     1
102
RTVSPropertyOp7
 70
     1
102
RTVSPropertyOp8
 70
     1
102
RTVSPropertyOp9
 70
     1
102
RTVSPropertyOp10
 70
     1
102
RTVSPropertyOp11
 70
     1
102
RTVSPropertyOp12
 70
     1
102
RTVSPropertyOp13
 70
     1
102
RTVSPropertyOp14
 70
     1
102
RTVSPropertyOp15
 70
     1
102
RTVSPropertyOp16
 70
     1
102
RTVSPropertyOp17
 70
     1
102
RTVSPropertyOp18
 70
     1
102
RTVSPropertyOp19
 70
     1
102
RTVSPropertyOp20
 70
     1
102
RTVSPropertyOp21
 70
     1
102
RTVSPropertyOp22
 70
     1
102
RTVSPropertyOp23
 70
     1
102
RTVSPropertyOp24
 70
     1
102
RTVSPropertyOp25
 70
     1
102
RTVSPropertyOp26
 70
     1
102
RTVSPropertyOp27
 70
     1
  0
ENDSEC
  0
EOF
