  0
SECTION
  2
HEADER
  9
$ACADVER
  1
AC1018
  9
$ACADMAINTVER
 70
   104
  9
$DWGCODEPAGE
  3
ANSI_936
  9
$LASTSAVEDBY
  1
yuqin.cai
  9
$INSBASE
 10
0.0
 20
0.0
 30
0.0
  9
$EXTMIN
 10
51697.99115971964
 20
10180.79146635591
 30
-0.00000001
  9
$EXTMAX
 10
52951.14923975725
 20
11662.66666666666
 30
0.00000001
  9
$LIMMIN
 10
0.0
 20
0.0
  9
$LIMMAX
 10
297.0
 20
210.0
  9
$ORTHOMODE
 70
     0
  9
$REGENMODE
 70
     1
  9
$FILLMODE
 70
     1
  9
$QTEXTMODE
 70
     0
  9
$MIRRTEXT
 70
     0
  9
$LTSCALE
 40
16.335
  9
$ATTMODE
 70
     1
  9
$TEXTSIZE
 40
0.2
  9
$TRACEWID
 40
0.05
  9
$TEXTSTYLE
  7
STANDARD
  9
$CLAYER
  8
0
  9
$CELTYPE
  6
BYLAYER
  9
$CECOLOR
 62
   256
  9
$CELTSCALE
 40
1.0
  9
$DISPSILH
 70
     0
  9
$DIMSCALE
 40
1.0
  9
$DIMASZ
 40
3.5
  9
$DIMEXO
 40
1.0
  9
$DIMDLI
 40
11.286
  9
$DIMRND
 40
0.0
  9
$DIMDLE
 40
0.0
  9
$DIMEXE
 40
1.5
  9
$DIMTP
 40
0.01
  9
$DIMTM
 40
0.01
  9
$DIMTXT
 40
3.5
  9
$DIMCEN
 40
2.673
  9
$DIMTSZ
 40
0.0
  9
$DIMTOL
 70
     1
  9
$DIMLIM
 70
     0
  9
$DIMTIH
 70
     1
  9
$DIMTOH
 70
     1
  9
$DIMSE1
 70
     0
  9
$DIMSE2
 70
     0
  9
$DIMTAD
 70
     0
  9
$DIMZIN
 70
     0
  9
$DIMBLK
  1

  9
$DIMASO
 70
     1
  9
$DIMSHO
 70
     1
  9
$DIMPOST
  1

  9
$DIMAPOST
  1

  9
$DIMALT
 70
     0
  9
$DIMALTD
 70
     2
  9
$DIMALTF
 40
25.4
  9
$DIMLFAC
 40
1.0
  9
$DIMTOFL
 70
     0
  9
$DIMTVP
 40
0.0
  9
$DIMTIX
 70
     0
  9
$DIMSOXD
 70
     0
  9
$DIMSAH
 70
     0
  9
$DIMBLK1
  1

  9
$DIMBLK2
  1

  9
$DIMSTYLE
  2
STANDARD
  9
$DIMCLRD
 70
     0
  9
$DIMCLRE
 70
     0
  9
$DIMCLRT
 70
     0
  9
$DIMTFAC
 40
1.0
  9
$DIMGAP
 40
0.625
  9
$DIMJUST
 70
     0
  9
$DIMSD1
 70
     0
  9
$DIMSD2
 70
     0
  9
$DIMTOLJ
 70
     1
  9
$DIMTZIN
 70
     0
  9
$DIMALTZ
 70
     0
  9
$DIMALTTZ
 70
     0
  9
$DIMUPT
 70
     0
  9
$DIMDEC
 70
     4
  9
$DIMTDEC
 70
     4
  9
$DIMALTU
 70
     2
  9
$DIMALTTD
 70
     2
  9
$DIMTXSTY
  7
STANDARD
  9
$DIMAUNIT
 70
     0
  9
$DIMADEC
 70
     0
  9
$DIMALTRND
 40
0.0
  9
$DIMAZIN
 70
     0
  9
$DIMDSEP
 70
    44
  9
$DIMATFIT
 70
     3
  9
$DIMFRAC
 70
     0
  9
$DIMLDRBLK
  1

  9
$DIMLUNIT
 70
     2
  9
$DIMLWD
 70
    -2
  9
$DIMLWE
 70
    -2
  9
$DIMTMOVE
 70
     0
  9
$LUNITS
 70
     2
  9
$LUPREC
 70
     4
  9
$SKETCHINC
 40
0.1
  9
$FILLETRAD
 40
0.0
  9
$AUNITS
 70
     0
  9
$AUPREC
 70
     0
  9
$MENU
  1
.
  9
$ELEVATION
 40
0.0
  9
$PELEVATION
 40
0.0
  9
$THICKNESS
 40
0.0
  9
$LIMCHECK
 70
     0
  9
$CHAMFERA
 40
0.0
  9
$CHAMFERB
 40
0.0
  9
$CHAMFERC
 40
0.0
  9
$CHAMFERD
 40
0.0
  9
$SKPOLY
 70
     0
  9
$TDCREATE
 40
2458249.037099549
  9
$TDUCREATE
 40
2458248.703766215
  9
$TDUPDATE
 40
2458507.421041366
  9
$TDUUPDATE
 40
2458507.087708032
  9
$TDINDWG
 40
0.0980671412
  9
$TDUSRTIMER
 40
0.0980671412
  9
$USRTIMER
 70
     1
  9
$ANGBASE
 50
0.0
  9
$ANGDIR
 70
     0
  9
$PDMODE
 70
     3
  9
$PDSIZE
 40
8.0
  9
$PLINEWID
 40
0.0
  9
$SPLFRAME
 70
     0
  9
$SPLINETYPE
 70
     6
  9
$SPLINESEGS
 70
     8
  9
$HANDSEED
  5
6914
  9
$SURFTAB1
 70
     6
  9
$SURFTAB2
 70
     6
  9
$SURFTYPE
 70
     6
  9
$SURFU
 70
     6
  9
$SURFV
 70
     6
  9
$UCSBASE
  2

  9
$UCSNAME
  2

  9
$UCSORG
 10
0.0
 20
0.0
 30
0.0
  9
$UCSXDIR
 10
1.0
 20
0.0
 30
0.0
  9
$UCSYDIR
 10
0.0
 20
1.0
 30
0.0
  9
$UCSORTHOREF
  2

  9
$UCSORTHOVIEW
 70
     0
  9
$UCSORGTOP
 10
0.0
 20
0.0
 30
0.0
  9
$UCSORGBOTTOM
 10
0.0
 20
0.0
 30
0.0
  9
$UCSORGLEFT
 10
0.0
 20
0.0
 30
0.0
  9
$UCSORGRIGHT
 10
0.0
 20
0.0
 30
0.0
  9
$UCSORGFRONT
 10
0.0
 20
0.0
 30
0.0
  9
$UCSORGBACK
 10
0.0
 20
0.0
 30
0.0
  9
$PUCSBASE
  2

  9
$PUCSNAME
  2

  9
$PUCSORG
 10
0.0
 20
0.0
 30
0.0
  9
$PUCSXDIR
 10
1.0
 20
0.0
 30
0.0
  9
$PUCSYDIR
 10
0.0
 20
1.0
 30
0.0
  9
$PUCSORTHOREF
  2

  9
$PUCSORTHOVIEW
 70
     0
  9
$PUCSORGTOP
 10
0.0
 20
0.0
 30
0.0
  9
$PUCSORGBOTTOM
 10
0.0
 20
0.0
 30
0.0
  9
$PUCSORGLEFT
 10
0.0
 20
0.0
 30
0.0
  9
$PUCSORGRIGHT
 10
0.0
 20
0.0
 30
0.0
  9
$PUCSORGFRONT
 10
0.0
 20
0.0
 30
0.0
  9
$PUCSORGBACK
 10
0.0
 20
0.0
 30
0.0
  9
$USERI1
 70
     0
  9
$USERI2
 70
     0
  9
$USERI3
 70
     0
  9
$USERI4
 70
     0
  9
$USERI5
 70
     0
  9
$USERR1
 40
0.0
  9
$USERR2
 40
0.0
  9
$USERR3
 40
0.0
  9
$USERR4
 40
0.0
  9
$USERR5
 40
0.0
  9
$WORLDVIEW
 70
     1
  9
$SHADEDGE
 70
     3
  9
$SHADEDIF
 70
    70
  9
$TILEMODE
 70
     1
  9
$MAXACTVP
 70
    64
  9
$PINSBASE
 10
0.0
 20
0.0
 30
0.0
  9
$PLIMCHECK
 70
     0
  9
$PEXTMIN
 10
1.000000000000000E+20
 20
1.000000000000000E+20
 30
1.000000000000000E+20
  9
$PEXTMAX
 10
-1.000000000000000E+20
 20
-1.000000000000000E+20
 30
-1.000000000000000E+20
  9
$PLIMMIN
 10
0.0
 20
0.0
  9
$PLIMMAX
 10
12.0
 20
9.0
  9
$UNITMODE
 70
     0
  9
$VISRETAIN
 70
     1
  9
$PLINEGEN
 70
     0
  9
$PSLTSCALE
 70
     1
  9
$TREEDEPTH
 70
  3020
  9
$CMLSTYLE
  2
Standard
  9
$CMLJUST
 70
     0
  9
$CMLSCALE
 40
1.0
  9
$PROXYGRAPHICS
 70
     1
  9
$MEASUREMENT
 70
     1
  9
$CELWEIGHT
370
    -1
  9
$ENDCAPS
280
     0
  9
$JOINSTYLE
280
     0
  9
$LWDISPLAY
290
     0
  9
$INSUNITS
 70
     4
  9
$HYPERLINKBASE
  1

  9
$STYLESHEET
  1

  9
$XEDIT
290
     1
  9
$CEPSNTYPE
380
     0
  9
$PSTYLEMODE
290
     1
  9
$FINGERPRINTGUID
  2
{F2F7998C-03D6-45F9-A96A-CF8146DB7140}
  9
$VERSIONGUID
  2
{4E45999F-A3A5-4A70-9346-7C6414006525}
  9
$EXTNAMES
290
     1
  9
$PSVPSCALE
 40
0.0
  9
$OLESTARTUP
290
     0
  9
$SORTENTS
280
   127
  9
$INDEXCTL
280
     0
  9
$HIDETEXT
280
     1
  9
$XCLIPFRAME
290
     0
  9
$HALOGAP
280
     0
  9
$OBSCOLOR
 70
   257
  9
$OBSLTYPE
280
     0
  9
$INTERSECTIONDISPLAY
280
     0
  9
$INTERSECTIONCOLOR
 70
   257
  9
$DIMASSOC
280
     2
  9
$PROJECTNAME
  1

  0
ENDSEC
  0
SECTION
  2
CLASSES
  0
CLASS
  1
ACDBDICTIONARYWDFLT
  2
AcDbDictionaryWithDefault
  3
ObjectDBX Classes
 90
        0
 91
        1
280
     0
281
     0
  0
CLASS
  1
MATERIAL
  2
AcDbMaterial
  3
ObjectDBX Classes
 90
        0
 91
        3
280
     0
281
     0
  0
CLASS
  1
VISUALSTYLE
  2
AcDbVisualStyle
  3
ObjectDBX Classes
 90
     4095
 91
       26
280
     0
281
     0
  0
CLASS
  1
TABLESTYLE
  2
AcDbTableStyle
  3
ObjectDBX Classes
 90
     4095
 91
        1
280
     0
281
     0
  0
CLASS
  1
SCALE
  2
AcDbScale
  3
ObjectDBX Classes
 90
     1153
 91
       33
280
     0
281
     0
  0
CLASS
  1
MLEADERSTYLE
  2
AcDbMLeaderStyle
  3
ACDB_MLEADERSTYLE_CLASS
 90
     4095
 91
        1
280
     0
281
     0
  0
CLASS
  1
CELLSTYLEMAP
  2
AcDbCellStyleMap
  3
ObjectDBX Classes
 90
     1152
 91
        2
280
     0
281
     0
  0
CLASS
  1
DICTIONARYVAR
  2
AcDbDictionaryVar
  3
ObjectDBX Classes
 90
        0
 91
        4
280
     0
281
     0
  0
CLASS
  1
DIMASSOC
  2
AcDbDimAssoc
  3
"ZcDbDimAssoc|Product Desc:     ZwDim ZRX App For Dimension|Company:          ZwSoft.|WEB Address:      www.zwsoft.com"
 90
        0
 91
        0
280
     0
281
     0
  0
CLASS
  1
SORTENTSTABLE
  2
AcDbSortentsTable
  3
ObjectDBX Classes
 90
        0
 91
        1
280
     0
281
     0
  0
CLASS
  1
SUN
  2
AcDbSun
  3
SCENEOE
 90
     1024
 91
        1
280
     0
281
     0
  0
ENDSEC
  0
SECTION
  2
TABLES
  0
TABLE
  2
VPORT
  5
8
330
0
100
AcDbSymbolTable
 70
     3
  0
VPORT
  5
6910
330
8
100
AcDbSymbolTableRecord
100
AcDbViewportTableRecord
  2
*Active
 70
     0
 10
0.0
 20
0.0
 11
1.0
 21
1.0
 12
53349.39118419381
 22
10625.14276336306
 13
0.0
 23
0.0
 14
1.0
 24
1.0
 15
0.0
 25
0.0
 16
0.0
 26
0.0
 36
1.0
 17
0.0
 27
0.0
 37
0.0
 40
2381.926606369859
 41
3.584
 42
50.0
 43
0.0
 44
0.0
 50
0.0
 51
0.0
 71
     0
 72
   100
 73
     1
 74
     1
 75
     1
 76
     0
 77
     0
 78
     0
281
     0
 65
     1
110
0.0
120
0.0
130
0.0
111
1.0
121
0.0
131
0.0
112
0.0
122
1.0
132
0.0
 79
     0
146
0.0
  0
ENDTAB
  0
TABLE
  2
LTYPE
  5
5
330
0
100
AcDbSymbolTable
 70
     1
  0
LTYPE
  5
14
330
5
100
AcDbSymbolTableRecord
100
AcDbLinetypeTableRecord
  2
BYBLOCK
 70
     0
  3

 72
    65
 73
     0
 40
0.0
  0
LTYPE
  5
15
330
5
100
AcDbSymbolTableRecord
100
AcDbLinetypeTableRecord
  2
BYLAYER
 70
     0
  3

 72
    65
 73
     0
 40
0.0
  0
LTYPE
  5
16
330
5
100
AcDbSymbolTableRecord
100
AcDbLinetypeTableRecord
  2
CONTINUOUS
 70
     0
  3
Solid line
 72
    65
 73
     0
 40
0.0
  0
ENDTAB
  0
TABLE
  2
LAYER
  5
2
102
{ACAD_XDICTIONARY
360
38E
102
}
330
0
100
AcDbSymbolTable
 70
     4
  0
LAYER
  5
10
330
2
100
AcDbSymbolTableRecord
100
AcDbLayerTableRecord
  2
0
 70
     0
 62
     7
  6
CONTINUOUS
370
    -3
390
F
  0
LAYER
  5
351
330
2
100
AcDbSymbolTableRecord
100
AcDbLayerTableRecord
  2
Defpoints
 70
     0
 62
     7
  6
CONTINUOUS
290
     0
370
    -3
390
F
  0
LAYER
  5
5D2B
330
2
100
AcDbSymbolTableRecord
100
AcDbLayerTableRecord
  2
02___PRT_ALL_AXES
 70
     0
 62
     7
  6
CONTINUOUS
370
    -3
390
F
  0
LAYER
  5
5D2C
330
2
100
AcDbSymbolTableRecord
100
AcDbLayerTableRecord
  2
06___PRT_ALL_SURFS
 70
     0
 62
     7
  6
CONTINUOUS
370
    -3
390
F
  0
ENDTAB
  0
TABLE
  2
STYLE
  5
3
330
0
100
AcDbSymbolTable
 70
     1
  0
STYLE
  5
11
330
3
100
AcDbSymbolTableRecord
100
AcDbTextStyleTableRecord
  2
STANDARD
 70
     0
 40
0.0
 41
0.85
 50
0.0
 71
     0
 42
0.2
  3
txt
  4

  0
ENDTAB
  0
TABLE
  2
VIEW
  5
6
330
0
100
AcDbSymbolTable
 70
     0
  0
ENDTAB
  0
TABLE
  2
UCS
  5
7
330
0
100
AcDbSymbolTable
 70
     0
  0
ENDTAB
  0
TABLE
  2
APPID
  5
9
330
0
100
AcDbSymbolTable
 70
    10
  0
APPID
  5
1FF
330
9
100
AcDbSymbolTableRecord
100
AcDbRegAppTableRecord
  2
ACAD
 70
     0
  0
APPID
  5
343
330
9
100
AcDbSymbolTableRecord
100
AcDbRegAppTableRecord
  2
ACAD_MLEADERVER
 70
     0
  0
APPID
  5
389
330
9
100
AcDbSymbolTableRecord
100
AcDbRegAppTableRecord
  2
ACAD_DSTYLE_DIMJAG
 70
     0
  0
APPID
  5
38A
330
9
100
AcDbSymbolTableRecord
100
AcDbRegAppTableRecord
  2
ACAD_DSTYLE_DIMTALN
 70
     0
  0
APPID
  5
38B
330
9
100
AcDbSymbolTableRecord
100
AcDbRegAppTableRecord
  2
ACAD_PSEXT
 70
     0
  0
APPID
  5
38C
330
9
100
AcDbSymbolTableRecord
100
AcDbRegAppTableRecord
  2
AcAecLayerStandard
 70
     0
  0
APPID
  5
38D
330
9
100
AcDbSymbolTableRecord
100
AcDbRegAppTableRecord
  2
ACAD_DSTYLE_DIMBREAK
 70
     0
  0
APPID
  5
12E1
330
9
100
AcDbSymbolTableRecord
100
AcDbRegAppTableRecord
  2
ACAD_EXEMPT_FROM_CAD_STANDARDS
 70
     0
  0
APPID
  5
617A
330
9
100
AcDbSymbolTableRecord
100
AcDbRegAppTableRecord
  2
ACAD_SPLINE_DATA
 70
     0
  0
APPID
  5
617B
330
9
100
AcDbSymbolTableRecord
100
AcDbRegAppTableRecord
  2
ACAD_SPLINE_DATA2
 70
     0
  0
ENDTAB
  0
TABLE
  2
DIMSTYLE
  5
A
330
0
100
AcDbSymbolTable
 70
     1
100
AcDbDimStyleTable
 71
     1
340
202
  0
DIMSTYLE
105
202
330
A
100
AcDbSymbolTableRecord
100
AcDbDimStyleTableRecord
  2
STANDARD
 70
     0
 41
3.5
 42
1.0
 44
1.5
 47
0.01
 48
0.01
 71
     1
 73
     0
 74
     0
 77
     1
 78
     8
140
3.5
147
0.625
271
     2
272
     2
278
    44
284
     8
340
11
  0
ENDTAB
  0
TABLE
  2
BLOCK_RECORD
  5
1
330
0
100
AcDbSymbolTable
 70
     0
  0
BLOCK_RECORD
  5
200
102
{ACAD_XDICTIONARY
360
467B
102
}
330
1
100
AcDbSymbolTableRecord
100
AcDbBlockTableRecord
  2
*Model_Space
340
2EE
  0
BLOCK_RECORD
  5
201
330
1
100
AcDbSymbolTableRecord
100
AcDbBlockTableRecord
  2
*Paper_Space
340
2EF
  0
ENDTAB
  0
ENDSEC
  0
SECTION
  2
BLOCKS
  0
BLOCK
  5
20
330
200
100
AcDbEntity
  8
0
100
AcDbBlockBegin
  2
*Model_Space
 70
     0
 10
0.0
 20
0.0
 30
0.0
  3
*Model_Space
  1

  0
ENDBLK
  5
21
330
200
100
AcDbEntity
  8
0
100
AcDbBlockEnd
  0
BLOCK
  5
1C
330
201
100
AcDbEntity
 67
     1
  8
0
100
AcDbBlockBegin
  2
*Paper_Space
 70
     0
 10
0.0
 20
0.0
 30
0.0
  3
*Paper_Space
  1

  0
ENDBLK
  5
1D
330
201
100
AcDbEntity
 67
     1
  8
0
100
AcDbBlockEnd
  0
ENDSEC
  0
SECTION
  2
ENTITIES
  0
MTEXT
  5
399
330
200
100
AcDbEntity
  8
0
100
AcDbMText
 10
52063.07764527027
 20
11646.0
 30
0.0
 40
75.0
 41
29.92235472972973
 71
     1
 72
     5
  1
{\fSimSun|b0|i0|c134|p2;SCALE  1:1}
 73
     1
 44
1.0
  0
LINE
  5
6786
330
200
100
AcDbEntity
  8
0
  6
Continuous
 62
     7
100
AcDbLine
 10
51718.74461273434
 20
11021.33162609233
 30
0.0
 11
51718.69308527063
 21
11021.26944337798
 31
0.0
  0
LINE
  5
6787
330
200
100
AcDbEntity
  8
0
  6
Continuous
 62
     7
100
AcDbLine
 10
52029.65865735355
 20
11016.78895537967
 30
0.0
 11
51723.66602274771
 21
11016.78895537967
 31
0.0
  0
LWPOLYLINE
  5
6788
330
200
100
AcDbEntity
  8
06___PRT_ALL_SURFS
  6
Continuous
 62
     7
100
AcDbPolyline
 90
       14
 70
     0
 43
0.0
 10
51831.73939546959
 20
10972.98088576816
 10
51833.93532432819
 20
10963.05364932971
 10
51838.293470872
 20
10953.8681007872
 10
51844.59757304303
 20
10945.8884959437
 10
51852.52772856612
 20
10939.52336150901
 10
51861.67848503506
 20
10935.09055116848
 10
51871.58987204641
 20
10932.82014587628
 10
51881.75706847188
 20
10932.82261593403
 10
51891.6657913319
 20
10935.09747755107
 10
51900.81242658914
 20
10939.53314921709
 10
51908.73836010268
 20
10945.89974580663
 10
51915.03872841467
 20
10953.88030326368
 10
51919.3940719851
 20
10963.06728192269
 10
51921.58546434951
 20
10972.98259845948
  0
LINE
  5
6789
330
200
100
AcDbEntity
  8
0
  6
Continuous
 62
     7
100
AcDbLine
 10
51825.15756951749
 20
11006.90245995026
 30
0.0
 11
51824.11845697592
 21
11016.78895537967
 31
0.0
  0
LINE
  5
678A
330
200
100
AcDbEntity
  8
0
  6
Continuous
 62
     7
100
AcDbLine
 10
51831.7394600045
 20
10972.98027175954
 30
0.0
 11
51828.62020377993
 21
11002.6580123061
 31
0.0
  0
LINE
  5
678B
330
200
100
AcDbEntity
  8
0
  6
Continuous
 62
     7
100
AcDbLine
 10
51876.66225169252
 20
11004.39341079694
 30
0.0
 11
51876.6625926994
 21
11006.79577775579
 31
0.0
  0
LINE
  5
678C
330
200
100
AcDbEntity
  8
0
  6
Continuous
 62
     7
100
AcDbLine
 10
52055.2148969624
 20
11272.36949250821
 30
0.0
 11
52055.3246903649
 21
11272.46409287512
 31
0.0
  0
LINE
  5
678D
330
200
100
AcDbEntity
  8
0
  6
Continuous
 62
     7
100
AcDbLine
 10
51697.99998973567
 20
11272.46409287512
 30
0.0
 11
51698.10978313816
 21
11272.36949250821
 31
0.0
  0
LINE
  5
678E
330
200
100
AcDbEntity
  8
0
  6
Continuous
 62
     7
100
AcDbLine
 10
51921.58541233943
 20
10972.98210083281
 30
0.0
 11
51924.7044842556
 21
11002.65808780244
 31
0.0
  0
LINE
  5
678F
330
200
100
AcDbEntity
  8
06___PRT_ALL_SURFS
  6
Continuous
 62
     7
100
AcDbLine
 10
51924.06000859505
 20
10996.52631148603
 30
0.0
 11
51921.85189278445
 21
10975.51749290689
 31
0.0
  0
LINE
  5
6790
330
200
100
AcDbEntity
  8
0
  6
Continuous
 62
     7
100
AcDbLine
 10
51928.16705160191
 20
11006.9018987819
 30
0.0
 11
51929.20622312465
 21
11016.78895537967
 31
0.0
  0
LINE
  5
6791
330
200
100
AcDbEntity
  8
0
  6
Continuous
 62
     7
100
AcDbLine
 10
52034.63159482994
 20
11021.26944337805
 30
0.0
 11
52034.58006736623
 21
11021.33162609233
 31
0.0
  0
LINE
  5
6792
330
200
100
AcDbEntity
  8
0
  6
Continuous
 62
     7
100
AcDbLine
 10
51926.08950643315
 20
11004.35556689663
 30
0.0
 11
51926.0894909835
 21
11004.35556200211
 31
0.0
  0
LINE
  5
6793
330
200
100
AcDbEntity
  8
0
  6
Continuous
 62
     7
100
AcDbLine
 10
51703.99118864395
 20
11278.78895537967
 30
0.0
 11
52049.3334914567
 21
11278.78895537967
 31
0.0
  0
LINE
  5
6794
330
200
100
AcDbEntity
  8
0
  6
Continuous
 62
     7
100
AcDbLine
 10
52396.93920462221
 20
11270.36710696116
 30
0.0
 11
52396.93867415138
 21
11270.29859410364
 31
0.0
  0
LINE
  5
6795
330
200
100
AcDbEntity
  8
0
  6
Continuous
 62
     7
100
AcDbLine
 10
52396.94069164588
 20
11270.47227357137
 30
0.0
 11
52396.93920462221
 21
11270.36710696116
 31
0.0
  0
LWPOLYLINE
  5
6796
330
200
100
AcDbEntity
  8
0
  6
Continuous
 62
     7
100
AcDbPolyline
 90
        4
 70
     0
 43
0.0
 10
52396.93872515347
 20
11270.22645397113
 10
52396.93945435679
 20
11270.15526853087
 10
52396.94067933711
 20
11270.09104322224
 10
52396.94069164588
 20
11270.0905447527
  0
LINE
  5
6797
330
200
100
AcDbEntity
  8
0
  6
Continuous
 62
     7
100
AcDbLine
 10
52399.94152009917
 20
11272.46409287514
 30
0.0
 11
52399.94069164588
 21
11278.78895537967
 31
0.0
  0
LINE
  5
6798
330
200
100
AcDbEntity
  8
0
  6
Continuous
 62
     7
100
AcDbLine
 10
52396.94069164588
 20
11019.78895537967
 30
0.0
 11
52396.94069164588
 21
11275.78895537967
 31
0.0
  0
LINE
  5
6799
330
200
100
AcDbEntity
  8
0
  6
Continuous
 62
     7
100
AcDbLine
 10
52399.94069164588
 20
11016.78895537967
 30
0.0
 11
52399.9411693144
 21
11021.26944337795
 31
0.0
  0
LWPOLYLINE
  5
679A
330
200
100
AcDbEntity
  8
06___PRT_ALL_SURFS
  6
Continuous
 62
     7
100
AcDbPolyline
 90
        9
 70
     0
 43
0.0
 10
52624.30618266577
 20
10932.66785750155
 10
52637.16564923494
 20
10934.128725734
 10
52651.21300271296
 20
10938.1217596847
 10
52664.38711707315
 20
10944.51098236536
 10
52676.26606450532
 20
10953.0971492346
 10
52686.46738224435
 20
10963.6197854988
 10
52694.67458408171
 20
10975.72776516594
 10
52700.63673326152
 20
10989.03599823836
 10
52703.94261259595
 20
11001.59306212199
  0
LWPOLYLINE
  5
679B
330
200
100
AcDbEntity
  8
06___PRT_ALL_SURFS
  6
Continuous
 62
     7
100
AcDbPolyline
 90
        4
 70
     0
 43
0.0
 10
52581.81021268192
 20
10935.45335446023
 10
52595.41759040465
 20
10933.62324652336
 10
52610.63948357468
 20
10932.62451062012
 10
52624.30624882901
 20
10932.66627126912
  0
LWPOLYLINE
  5
679C
330
200
100
AcDbEntity
  8
06___PRT_ALL_SURFS
  6
Continuous
 62
     7
100
AcDbPolyline
 90
        7
 70
     0
 43
0.0
 10
52522.64535937664
 20
10988.97234806666
 10
52527.08096918039
 20
10976.93579788807
 10
52534.53403257128
 20
10964.44821258379
 10
52544.31244877313
 20
10953.63515779006
 10
52556.02692728405
 20
10944.94831009058
 10
52569.19492729874
 20
10938.73338685831
 10
52581.81044971688
 20
10935.45457643066
  0
LWPOLYLINE
  5
679D
330
200
100
AcDbEntity
  8
06___PRT_ALL_SURFS
  6
Continuous
 62
     7
100
AcDbPolyline
 90
        3
 70
     0
 43
0.0
 10
52515.55337685919
 20
11016.78895537967
 10
52516.04523893478
 20
11014.61687565384
 10
52522.64516223582
 20
10988.97229501928
  0
LINE
  5
679E
330
200
100
AcDbEntity
  8
0
  6
Continuous
 62
     7
100
AcDbLine
 10
52655.85956953217
 20
11002.6580123061
 30
0.0
 11
52604.85075307385
 21
11002.65801230621
 31
0.0
  0
LINE
  5
679F
330
200
100
AcDbEntity
  8
0
  6
Continuous
 62
     7
100
AcDbLine
 10
52655.85982948929
 20
11004.35556687471
 30
0.0
 11
52616.94831657307
 21
11004.35556689663
 31
0.0
  0
LINE
  5
67A0
330
200
100
AcDbEntity
  8
0
  6
Continuous
 62
     7
100
AcDbLine
 10
52655.85982446104
 20
11006.90189996277
 30
0.0
 11
52616.94831657307
 21
11006.90189878222
 31
0.0
  0
LINE
  5
67A1
330
200
100
AcDbEntity
  8
0
  6
Continuous
 62
     7
100
AcDbLine
 10
52905.81610975877
 20
11016.78895537967
 30
0.0
 11
52399.94069164588
 21
11016.78895537967
 31
0.0
  0
LINE
  5
67A2
330
200
100
AcDbEntity
  8
0
  6
Continuous
 62
     7
100
AcDbLine
 10
52616.94831657307
 20
11004.35556689663
 30
0.0
 11
52616.94831657309
 21
11006.90189878222
 31
0.0
  0
LINE
  5
67A3
330
200
100
AcDbEntity
  8
06___PRT_ALL_SURFS
  6
Continuous
 62
     7
100
AcDbLine
 10
52581.81021268192
 20
10935.45335446023
 30
0.0
 11
52581.81021369242
 21
10935.45336003483
 31
0.0
  0
LINE
  5
67A4
330
200
100
AcDbEntity
  8
0
  6
Continuous
 62
     7
100
AcDbLine
 10
52656.29504782736
 20
11004.35579912677
 30
0.0
 11
52656.28715650661
 21
11006.90246101808
 31
0.0
  0
LINE
  5
67A5
330
200
100
AcDbEntity
  8
0
  6
Continuous
 62
     7
100
AcDbLine
 10
52655.85982446101
 20
11006.90189996277
 30
0.0
 11
52655.85982949021
 21
11002.6580123061
 31
0.0
  0
LINE
  5
67A6
330
200
100
AcDbEntity
  8
06___PRT_ALL_SURFS
  6
Continuous
 62
     7
100
AcDbLine
 10
52703.94268040147
 20
11001.59305047529
 30
0.0
 11
52704.16163320873
 21
11002.80340620781
 31
0.0
  0
LWPOLYLINE
  5
67A7
330
200
100
AcDbEntity
  8
0
  6
Continuous
 62
     7
100
AcDbPolyline
 90
        4
 70
     0
 43
0.0
 10
52704.16163156395
 20
11002.80340678319
 10
52704.46643635033
 20
11003.55920261401
 10
52705.14162546461
 20
11004.18768207371
 10
52705.66175173559
 20
11004.39337537049
  0
LINE
  5
67A8
330
200
100
AcDbEntity
  8
0
  6
Continuous
 62
     7
100
AcDbLine
 10
52399.94069164588
 20
11278.78895537967
 30
0.0
 11
52945.14923975944
 21
11278.78895537967
 31
0.0
  0
LWPOLYLINE
  5
67A9
330
200
100
AcDbEntity
  8
06___PRT_ALL_SURFS
  6
Continuous
 62
     7
100
AcDbPolyline
 90
        4
 70
     0
 43
0.0
 10
52910.7255541446
 20
11020.84167637324
 10
52926.47518271198
 20
11108.50782418094
 10
52940.09930698006
 20
11193.3921699089
 10
52951.10243199263
 20
11272.04095645665
  0
LINE
  5
67AA
330
200
100
AcDbEntity
  8
0
  6
Continuous
 62
     7
100
AcDbLine
 10
51700.99214037934
 20
10736.0
 30
0.0
 11
52052.33253972131
 21
10736.0
 31
0.0
  0
LINE
  5
67AB
330
200
100
AcDbEntity
  8
0
  6
Continuous
 62
     7
100
AcDbLine
 10
51697.99118864403
 20
10732.99917009548
 30
0.0
 11
52049.33349145671
 21
10733.0
 31
0.0
  0
LINE
  5
67AC
330
200
100
AcDbEntity
  8
0
  6
Continuous
 62
     7
100
AcDbLine
 10
52049.33349145671
 20
10733.0
 30
0.0
 11
52055.33349145665
 21
10732.99917009553
 31
0.0
  0
LWPOLYLINE
  5
67AD
330
200
100
AcDbEntity
  8
0
  6
Continuous
 62
     7
100
AcDbPolyline
 90
       21
 70
     0
 43
0.0
 10
51698.09511214141
 20
10359.3130319905
 10
51700.03438332
 20
10333.19049306997
 10
51706.29254279195
 20
10305.89568080773
 10
51716.81305006863
 20
10279.78358648931
 10
51731.36606351764
 20
10255.57800783265
 10
51749.57920995892
 20
10233.91618561586
 10
51771.01330241268
 20
10215.4184914444
 10
51795.05908862338
 20
10200.53874855085
 10
51821.10683519946
 20
10189.65214011331
 10
51848.50691755785
 20
10183.02542967463
 10
51876.59047957805
 20
10180.79146635591
 10
51904.67555020917
 20
10183.00278659854
 10
51932.08035236828
 20
10189.60720340501
 10
51958.13638698753
 20
10200.47230786788
 10
51982.19394387015
 20
10215.33244727717
 10
52003.64325533964
 20
10233.81272531912
 10
52021.87455466582
 20
10255.46033841804
 10
52036.44762861852
 20
10279.65533440439
 10
52046.98978776529
 20
10305.76064743012
 10
52053.26981951166
 20
10333.05294562615
 10
52055.22956906352
 20
10359.31303201293
  0
LINE
  5
67AE
330
200
100
AcDbEntity
  8
0
  6
Continuous
 62
     7
100
AcDbLine
 10
51697.99115972964
 20
10733.0
 30
0.0
 11
51698.0951027542
 21
10359.31303198817
 31
0.0
  0
LINE
  5
67AF
330
200
100
AcDbEntity
  8
0
  6
Continuous
 62
     7
100
AcDbLine
 10
51703.99118864397
 20
10736.0
 30
0.0
 11
51703.99118864397
 21
10733.0
 31
0.0
  0
LINE
  5
67B0
330
200
100
AcDbEntity
  8
0
  6
Continuous
 62
     7
100
AcDbLine
 10
51976.52870590904
 20
10548.9971091808
 30
0.0
 11
51985.85981851823
 21
10540.5183006683
 31
0.0
  0
LWPOLYLINE
  5
67B1
330
200
100
AcDbEntity
  8
0
  6
Continuous
 62
     7
100
AcDbPolyline
 90
        4
 70
     0
 43
0.0
 10
51985.85981851823
 20
10540.5183006683
 10
51994.68639788318
 20
10529.33085613764
 10
52001.43975839359
 20
10516.7469907295
 10
52005.55250003588
 20
10504.58639479933
  0
LINE
  5
67B2
330
200
100
AcDbEntity
  8
0
  6
Continuous
 62
     7
100
AcDbLine
 10
51747.77867717387
 20
10504.64986685844
 30
0.0
 11
51747.7819717778
 21
10504.63685798993
 31
0.0
  0
LINE
  5
67B3
330
200
100
AcDbEntity
  8
0
  6
Continuous
 62
     7
100
AcDbLine
 10
51748.50215927485
 20
10506.77605739962
 30
0.0
 11
51749.97162154567
 21
10407.50412342241
 31
0.0
  0
LINE
  5
67B4
330
200
100
AcDbEntity
  8
0
  6
Continuous
 62
     7
100
AcDbLine
 10
51745.19642009189
 20
10486.46698361303
 30
0.0
 11
51745.12415505422
 21
10483.95787892043
 31
0.0
  0
LINE
  5
67B5
330
200
100
AcDbEntity
  8
0
  6
Continuous
 62
     7
100
AcDbLine
 10
51745.19653310925
 20
10486.47003333566
 30
0.0
 11
51745.19642009189
 21
10486.46698361303
 31
0.0
  0
LWPOLYLINE
  5
67B6
330
200
100
AcDbEntity
  8
0
  6
Continuous
 62
     7
100
AcDbPolyline
 90
        3
 70
     0
 43
0.0
 10
51745.19653235831
 20
10486.47001307215
 10
51745.46344489074
 20
10490.81639465162
 10
51746.51231899233
 20
10498.75494576615
  0
LINE
  5
67B7
330
200
100
AcDbEntity
  8
0
  6
Continuous
 62
     7
100
AcDbLine
 10
51746.51231899233
 20
10498.75494576615
 30
0.0
 11
51747.78195680231
 21
10504.63677332679
 31
0.0
  0
LINE
  5
67B8
330
200
100
AcDbEntity
  8
0
  6
Continuous
 62
     7
100
AcDbLine
 10
51747.7819717778
 20
10504.63685798993
 30
0.0
 11
51747.7819513958
 21
10504.63677464239
 31
0.0
  0
LWPOLYLINE
  5
67B9
330
200
100
AcDbEntity
  8
0
  6
Continuous
 62
     7
100
AcDbPolyline
 90
        3
 70
     0
 43
0.0
 10
51747.7819717778
 20
10504.63685798993
 10
51751.77681245097
 20
10516.50288016443
 10
51758.4428892988
 20
10529.03691920397
  0
LINE
  5
67BA
330
200
100
AcDbEntity
  8
0
  6
Continuous
 62
     7
100
AcDbLine
 10
51758.4428892988
 20
10529.03691920397
 30
0.0
 11
51767.23066470031
 21
10540.27081465537
 31
0.0
  0
LINE
  5
67BB
330
200
100
AcDbEntity
  8
0
  6
Continuous
 62
     7
100
AcDbLine
 10
51767.23066470031
 20
10540.27081465537
 30
0.0
 11
51776.72038790012
 21
10548.93838368601
 31
0.0
  0
LINE
  5
67BC
330
200
100
AcDbEntity
  8
0
  6
Continuous
 62
     7
100
AcDbLine
 10
51827.93072073528
 20
10474.58645001889
 30
0.0
 11
51827.93072073528
 21
10519.92933387055
 31
0.0
  0
LINE
  5
67BD
330
200
100
AcDbEntity
  8
0
  6
Continuous
 62
     7
100
AcDbLine
 10
51735.22532085692
 20
10478.35276249119
 30
0.0
 11
51743.2031699968
 21
10478.36636011408
 31
0.0
  0
LINE
  5
67BE
330
200
100
AcDbEntity
  8
0
  6
Continuous
 62
     7
100
AcDbLine
 10
51739.30953575282
 20
10505.93256637143
 30
0.0
 11
51747.01655695027
 21
10503.78733238238
 31
0.0
  0
LINE
  5
67BF
330
200
100
AcDbEntity
  8
0
  6
Continuous
 62
     7
100
AcDbLine
 10
51738.94954588542
 20
10504.665634154
 30
0.0
 11
51746.63354054221
 21
10502.4393804369
 31
0.0
  0
LINE
  5
67C0
330
200
100
AcDbEntity
  8
0
  6
Continuous
 62
     7
100
AcDbLine
 10
51735.41805142196
 20
10363.73560634424
 30
0.0
 11
51743.37795681897
 21
10363.74880658173
 31
0.0
  0
LINE
  5
67C1
330
200
100
AcDbEntity
  8
0
  6
Continuous
 62
     7
100
AcDbLine
 10
51704.0951025244
 20
10359.31469265101
 30
0.0
 11
51698.09511214141
 21
10359.3130319905
 31
0.0
  0
LINE
  5
67C2
330
200
100
AcDbEntity
  8
0
  6
Continuous
 62
     7
100
AcDbLine
 10
52049.22957757618
 20
10359.31469265101
 30
0.0
 11
52055.22957734642
 21
10359.31303201086
 31
0.0
  0
LINE
  5
67C3
330
200
100
AcDbEntity
  8
0
  6
Continuous
 62
     7
100
AcDbLine
 10
52005.55567506842
 20
10504.60013841696
 30
0.0
 11
52005.55249274401
 21
10504.58642198797
 31
0.0
  0
LINE
  5
67C4
330
200
100
AcDbEntity
  8
0
  6
Continuous
 62
     7
100
AcDbLine
 10
52005.55249274401
 20
10504.58642198797
 30
0.0
 11
52005.5524994014
 21
10504.58639461406
 31
0.0
  0
LINE
  5
67C5
330
200
100
AcDbEntity
  8
0
  6
Continuous
 62
     7
100
AcDbLine
 10
52003.35305855491
 20
10407.50412342241
 30
0.0
 11
52004.8221344057
 21
10506.7459472542
 31
0.0
  0
LINE
  5
67C6
330
200
100
AcDbEntity
  8
0
  6
Continuous
 62
     7
100
AcDbLine
 10
52049.33349145671
 20
10736.0
 30
0.0
 11
52049.33349179201
 21
10733.0
 31
0.0
  0
LINE
  5
67C7
330
200
100
AcDbEntity
  8
0
  6
Continuous
 62
     7
100
AcDbLine
 10
52055.22957734642
 20
10359.31303201086
 30
0.0
 11
52055.33349145672
 21
10731.9991703449
 31
0.0
  0
ARC
  5
67C8
330
200
100
AcDbEntity
  8
0
  6
Continuous
 62
     7
100
AcDbCircle
 10
51876.65099791716
 20
-2994.931713589002
 30
0.0
 40
13997.73587164838
100
AcDbArc
 50
89.85485779629804
 51
90.14502844050017
  0
ARC
  5
67C9
330
200
100
AcDbEntity
  8
0
  6
Continuous
 62
     7
100
AcDbCircle
 10
40531.84210895826
 20
12093.20155865076
 30
0.0
 40
11552.57052313996
100
AcDbArc
 50
354.6763294472908
 51
355.9255929960091
  0
ARC
  5
67CA
330
200
100
AcDbEntity
  8
06___PRT_ALL_SURFS
  6
Continuous
 62
     7
100
AcDbCircle
 10
51876.66207929347
 20
10977.85554978023
 30
0.0
 40
45.19050135651
100
AcDbArc
 50
186.0449339668555
 51
353.9555933093185
  0
ARC
  5
67CB
330
200
100
AcDbEntity
  8
0
  6
Continuous
 62
     7
100
AcDbCircle
 10
51703.99118848818
 20
11272.78895537967
 30
0.0
 40
6.0
100
AcDbArc
 50
89.99999851256623
 51
183.1037261999119
  0
ARC
  5
67CC
330
200
100
AcDbEntity
  8
0
  6
Continuous
 62
     7
100
AcDbCircle
 10
51704.0951124565
 20
11272.78895537967
 30
0.0
 40
6.0
100
AcDbArc
 50
90.0000948447472
 51
184.0088389439586
  0
ARC
  5
67CD
330
200
100
AcDbEntity
  8
0
  6
Continuous
 62
     7
100
AcDbCircle
 10
51723.72365372765
 20
11021.78895537967
 30
0.0
 40
5.0
100
AcDbArc
 50
185.2479424810685
 51
270.0
  0
ARC
  5
67CE
330
200
100
AcDbEntity
  8
0
  6
Continuous
 62
     7
100
AcDbCircle
 10
51723.66602271815
 20
11021.78895537967
 30
0.0
 40
5.0
100
AcDbArc
 50
185.9639328914026
 51
270.0000003385079
  0
ARC
  5
67CF
330
200
100
AcDbEntity
  8
0
  6
Continuous
 62
     7
100
AcDbCircle
 10
51828.14119393125
 20
11007.21548424102
 30
0.0
 40
2.99999999353
100
AcDbArc
 50
186.0000018169018
 51
252.4218265346876
  0
ARC
  5
67D0
330
200
100
AcDbEntity
  8
0
  6
Continuous
 62
     7
100
AcDbCircle
 10
51826.63115998919
 20
11002.44895537967
 30
0.0
 40
2.0
100
AcDbArc
 50
6.000000000207267
 51
72.42182152193314
  0
ARC
  5
67D1
330
200
100
AcDbEntity
  8
0
  6
Continuous
 62
     7
100
AcDbCircle
 10
51874.28590390315
 20
28747.62376612686
 30
0.0
 40
17740.828166136
100
AcDbArc
 50
269.8844304486649
 51
270.007674931098
  0
ARC
  5
67D2
330
200
100
AcDbEntity
  8
0
  6
Continuous
 62
     7
100
AcDbCircle
 10
63221.48257114095
 20
12093.20155865066
 30
0.0
 40
11552.57052313861
100
AcDbArc
 50
184.0744070039908
 51
185.3236705527091
  0
ARC
  5
67D3
330
200
100
AcDbEntity
  8
0
  6
Continuous
 62
     7
100
AcDbCircle
 10
52049.22957757623
 20
11272.78895537967
 30
0.0
 40
6.0
100
AcDbArc
 50
355.9911544255716
 51
90.0
  0
ARC
  5
67D4
330
200
100
AcDbEntity
  8
0
  6
Continuous
 62
     7
100
AcDbCircle
 10
52049.33349161247
 20
11272.78895537967
 30
0.0
 40
6.0
100
AcDbArc
 50
356.8962738000881
 51
90.00000148743378
  0
ARC
  5
67D5
330
200
100
AcDbEntity
  8
0
  6
Continuous
 62
     7
100
AcDbCircle
 10
52029.65865738755
 20
11021.78895537967
 30
0.0
 40
5.0
100
AcDbArc
 50
269.9999996102156
 51
354.0360671035352
  0
ARC
  5
67D6
330
200
100
AcDbEntity
  8
0
  6
Continuous
 62
     7
100
AcDbCircle
 10
52029.60101474967
 20
11021.78895537967
 30
0.0
 40
5.0
100
AcDbArc
 50
270.0001331924407
 51
354.7520697012588
  0
ARC
  5
67D7
330
200
100
AcDbEntity
  8
0
  6
Continuous
 62
     7
100
AcDbCircle
 10
51925.18352048352
 20
11007.21581306163
 30
0.0
 40
3.0
100
AcDbArc
 50
287.5753428737611
 51
353.9968043805429
  0
ARC
  5
67D8
330
200
100
AcDbEntity
  8
0
  6
Continuous
 62
     7
100
AcDbCircle
 10
51926.69244408317
 20
11002.44895537967
 30
0.0
 40
1.99997287775
100
AcDbArc
 50
107.5492515167883
 51
173.9946000965203
  0
ARC
  5
67D9
330
200
100
AcDbEntity
  8
0
  6
Continuous
 62
     7
100
AcDbCircle
 10
51876.66257390759
 20
51556.44017363368
 30
0.0
 40
40535.60485128076
100
AcDbArc
 50
269.8208130071556
 51
270.1791827197866
  0
ARC
  5
67DA
330
200
100
AcDbEntity
  8
0
  6
Continuous
 62
     7
100
AcDbCircle
 10
51879.16765400081
 20
28609.97190243958
 30
0.0
 40
17603.17632108705
100
AcDbArc
 50
269.9918455599357
 51
270.1160690962333
  0
ARC
  5
67DB
330
200
100
AcDbEntity
  8
0
  6
Continuous
 62
     7
100
AcDbCircle
 10
52693.19004810665
 20
4149.842449081218
 30
0.0
 40
6852.91666068208
100
AcDbArc
 50
90.03918429889862
 51
90.31211370952133
  0
ARC
  5
67DC
330
200
100
AcDbEntity
  8
0
  6
Continuous
 62
     7
100
AcDbCircle
 10
53412.07476760998
 20
11136.58730526487
 30
0.0
 40
854.99911398595
100
AcDbArc
 50
188.0546362952019
 51
189.4283557144236
  0
ARC
  5
67DD
330
200
100
AcDbEntity
  8
0
  6
Continuous
 62
     7
100
AcDbCircle
 10
51939.86587798645
 20
11140.43402989702
 30
0.0
 40
779.58888027133
100
AcDbArc
 50
350.1295235074528
 51
350.8727063242759
  0
ARC
  5
67DE
330
200
100
AcDbEntity
  8
0
  6
Continuous
 62
     7
100
AcDbCircle
 10
51945.82802334123
 20
11059.16310712033
 30
0.0
 40
712.37809582288
100
AcDbArc
 50
355.79295479935
 51
356.5892477490781
  0
ARC
  5
67DF
330
200
100
AcDbEntity
  8
0
  6
Continuous
 62
     7
100
AcDbCircle
 10
52616.82354531512
 20
11123.47768706552
 30
0.0
 40
150.49489809296
100
AcDbArc
 50
259.4693868787599
 51
272.2333471971017
  0
ARC
  5
67E0
330
200
100
AcDbEntity
  8
0
  6
Continuous
 62
     7
100
AcDbCircle
 10
52655.87620741688
 20
11157.03604590373
 30
0.0
 40
150.13414683483
100
AcDbArc
 50
269.993747763049
 51
270.1566150619925
  0
ARC
  5
67E1
330
200
100
AcDbEntity
  8
0
  6
Continuous
 62
     7
100
AcDbCircle
 10
52945.14923974724
 20
11272.78895537967
 30
0.0
 40
6.0
100
AcDbArc
 50
352.8385037793936
 51
90.0
  0
ARC
  5
67E2
330
200
100
AcDbEntity
  8
0
  6
Continuous
 62
     7
100
AcDbCircle
 10
52905.81610786366
 20
11021.78895537967
 30
0.0
 40
5.0
100
AcDbArc
 50
270.0
 51
349.0789729715771
  0
ARC
  5
67E3
330
200
100
AcDbEntity
  8
0
  6
Continuous
 62
     7
100
AcDbCircle
 10
52399.94069164588
 20
11019.78895537967
 30
0.0
 40
3.0
100
AcDbArc
 50
180.0
 51
270.0
  0
ARC
  5
67E4
330
200
100
AcDbEntity
  8
0
  6
Continuous
 62
     7
100
AcDbCircle
 10
52399.94069164588
 20
11275.78865849317
 30
0.0
 40
3.0
100
AcDbArc
 50
90.0
 51
179.9943298849339
  0
ARC
  5
67E5
330
200
100
AcDbEntity
  8
0
  6
Continuous
 62
     7
100
AcDbCircle
 10
52704.95942971559
 20
11007.31003298549
 30
0.0
 40
2.9999985222
100
AcDbArc
 50
283.5397148495987
 51
350.1296899870645
  0
ARC
  5
67E6
330
200
100
AcDbEntity
  8
0
  6
Continuous
 62
     7
100
AcDbCircle
 10
29897.25922232123
 20
10560.07615448869
 30
0.0
 40
22092.46680759896
100
AcDbArc
 50
359.4787430489394
 51
359.7795489140878
  0
ARC
  5
67E7
330
200
100
AcDbEntity
  8
0
  6
Continuous
 62
     7
100
AcDbCircle
 10
51860.36632661246
 20
10562.35935523454
 30
0.0
 40
53.51414051244001
100
AcDbArc
 50
231.1983192320606
 51
231.396937601817
  0
ARC
  5
67E8
330
200
100
AcDbEntity
  8
0
  6
Continuous
 62
     7
100
AcDbCircle
 10
51845.7477144477
 20
10546.29931161758
 30
0.0
 40
32.2177771698
100
AcDbArc
 50
225.5865572246075
 51
226.1891610994745
  0
CIRCLE
  5
67E9
330
200
100
AcDbEntity
  8
02___PRT_ALL_AXES
  6
Continuous
 62
     7
100
AcDbCircle
 10
51786.66234005029
 20
10661.0
 30
0.0
 40
8.0
  0
ARC
  5
67EA
330
200
100
AcDbEntity
  8
0
  6
Continuous
 62
     7
100
AcDbCircle
 10
51700.99115972965
 20
10733.0
 30
0.0
 40
3.0
100
AcDbArc
 50
89.99999999749871
 51
180.0158453962449
  0
ARC
  5
67EB
330
200
100
AcDbEntity
  8
0
  6
Continuous
 62
     7
100
AcDbCircle
 10
50419.34903806176
 20
10515.17130488868
 30
0.0
 40
1421.34116541937
100
AcDbArc
 50
359.7614039865262
 51
0.2344846889729003
  0
ARC
  5
67EC
330
200
100
AcDbEntity
  8
0
  6
Continuous
 62
     7
100
AcDbCircle
 10
51594.79001121692
 20
10527.57548668184
 30
0.0
 40
156.35886177976
100
AcDbArc
 50
341.6557580917488
 51
343.0300828770658
  0
ARC
  5
67ED
330
200
100
AcDbEntity
  8
0
  6
Continuous
 62
     7
100
AcDbCircle
 10
51618.79980944992
 20
10539.49009734029
 30
0.0
 40
133.09477216553
100
AcDbArc
 50
343.8367928699639
 51
344.4395350805718
  0
ARC
  5
67EE
330
200
100
AcDbEntity
  8
0
  6
Continuous
 62
     7
100
AcDbCircle
 10
51618.79811190405
 20
10539.4904283715
 30
0.0
 40
125.09649627417
100
AcDbArc
 50
343.8362523759644
 51
344.4394962592079
  0
ARC
  5
67EF
330
200
100
AcDbEntity
  8
0
  6
Continuous
 62
     7
100
AcDbCircle
 10
51819.39475398804
 20
10512.28606787285
 30
0.0
 40
11.1746658172
100
AcDbArc
 50
57.8723633129109
 51
62.3189372572553
  0
ARC
  5
67F0
330
200
100
AcDbEntity
  8
0
  6
Continuous
 62
     7
100
AcDbCircle
 10
51835.89860611555
 20
10519.92925165941
 30
0.0
 40
7.967885395599999
100
AcDbArc
 50
176.8609280598783
 51
179.9994088326198
  0
ARC
  5
67F1
330
200
100
AcDbEntity
  8
0
  6
Continuous
 62
     7
100
AcDbCircle
 10
51845.42956924913
 20
10514.75797876802
 30
0.0
 40
7.947924823600001
100
AcDbArc
 50
125.1416153799757
 51
180.033952542181
  0
ARC
  5
67F2
330
200
100
AcDbEntity
  8
0
  6
Continuous
 62
     7
100
AcDbCircle
 10
51828.18956023239
 20
10524.2548726032
 30
0.0
 40
3.91069715252
100
AcDbArc
 50
248.743216963636
 51
252.0726307408776
  0
ARC
  5
67F3
330
200
100
AcDbEntity
  8
0
  6
Continuous
 62
     7
100
AcDbCircle
 10
51723.67017123645
 20
10475.82544129492
 30
0.0
 40
265.8933937764599
100
AcDbArc
 50
359.8379573979095
 51
0.0974537055015439
  0
ARC
  5
67F4
330
200
100
AcDbEntity
  8
0
  6
Continuous
 62
     7
100
AcDbCircle
 10
51863.66437822067
 20
10501.25586983131
 30
0.0
 40
96.38098489255
100
AcDbArc
 50
147.164125887281
 51
151.3132555357653
  0
ARC
  5
67F6
330
200
100
AcDbEntity
  8
0
  6
Continuous
 62
     7
100
AcDbCircle
 10
51829.22806877281
 20
10478.46795885224
 30
0.0
 40
94.00281849999002
100
AcDbArc
 50
163.8179457075275
 51
180.0702135001302
  0
ARC
  5
67F7
330
200
100
AcDbEntity
  8
0
  6
Continuous
 62
     7
100
AcDbCircle
 10
51836.50218503382
 20
10479.36618580334
 30
0.0
 40
92.74203826542001
100
AcDbArc
 50
158.6228496621608
 51
158.8890300895413
  0
ARC
  5
67F8
330
200
100
AcDbEntity
  8
0
  6
Continuous
 62
     7
100
AcDbCircle
 10
51836.0967406685
 20
10483.04848803498
 30
0.0
 40
90.97713113073
100
AcDbArc
 50
178.0976363325869
 51
179.4272591206343
  0
ARC
  5
67F9
330
200
100
AcDbEntity
  8
0
  6
Continuous
 62
     7
100
AcDbCircle
 10
51835.36449707074
 20
10483.07262621123
 30
0.0
 40
90.24448981038
100
AcDbArc
 50
176.7854130779585
 51
178.0975201565789
  0
ARC
  5
67FA
330
200
100
AcDbEntity
  8
0
  6
Continuous
 62
     7
100
AcDbCircle
 10
51833.2114188975
 20
10483.21700847617
 30
0.0
 40
88.08670623939001
100
AcDbArc
 50
168.6599443931454
 51
176.8006463798595
  0
ARC
  5
67FB
330
200
100
AcDbEntity
  8
0
  6
Continuous
 62
     7
100
AcDbCircle
 10
51829.73052340376
 20
10478.3171395766
 30
0.0
 40
86.52739825827001
100
AcDbArc
 50
163.8121299777913
 51
179.9680688006112
  0
ARC
  5
67FC
330
200
100
AcDbEntity
  8
0
  6
Continuous
 62
     7
100
AcDbCircle
 10
51830.93311976134
 20
10483.59614780957
 30
0.0
 40
85.77836844895001
100
AcDbArc
 50
167.2407507333312
 51
168.6090143291809
  0
ARC
  5
67FD
330
200
100
AcDbEntity
  8
0
  6
Continuous
 62
     7
100
AcDbCircle
 10
51830.8154659419
 20
10483.62520209181
 30
0.0
 40
85.65720314509
100
AcDbArc
 50
166.4721127436181
 51
167.2423242554737
  0
ARC
  5
67FE
330
200
100
AcDbEntity
  8
0
  6
Continuous
 62
     7
100
AcDbCircle
 10
51829.92194469457
 20
10483.84001831005
 30
0.0
 40
84.73822207738001
100
AcDbArc
 50
165.7840018211502
 51
166.4720080382503
  0
ARC
  5
67FF
330
200
100
AcDbEntity
  8
0
  6
Continuous
 62
     7
100
AcDbCircle
 10
51828.22457701531
 20
10482.46020959816
 30
0.0
 40
84.0913200848
100
AcDbArc
 50
132.0152966100497
 51
132.6979069147021
  0
ARC
  5
6800
330
200
100
AcDbEntity
  8
0
  6
Continuous
 62
     7
100
AcDbCircle
 10
51827.22771097066
 20
10483.86725863121
 30
0.0
 40
82.41888435967
100
AcDbArc
 50
146.9790763459791
 51
148.8734214322978
  0
ARC
  5
6801
330
200
100
AcDbEntity
  8
0
  6
Continuous
 62
     7
100
AcDbCircle
 10
51826.88784617111
 20
10484.59476298655
 30
0.0
 40
81.61179935028
100
AcDbArc
 50
156.9896150666958
 51
164.807926899262
  0
ARC
  5
6802
330
200
100
AcDbEntity
  8
0
  6
Continuous
 62
     7
100
AcDbCircle
 10
51826.76060162298
 20
10484.64835169555
 30
0.0
 40
81.47373142335002
100
AcDbArc
 50
147.1435142356936
 51
156.9893233867347
  0
ARC
  5
6803
330
200
100
AcDbEntity
  8
0
  6
Continuous
 62
     7
100
AcDbCircle
 10
51826.66523416942
 20
10484.72414077196
 30
0.0
 40
81.35084679976001
100
AcDbArc
 50
127.8752268498637
 51
147.1419867204909
  0
ARC
  5
6804
330
200
100
AcDbEntity
  8
0
  6
Continuous
 62
     7
100
AcDbCircle
 10
51826.27890385528
 20
10484.7612844579
 30
0.0
 40
80.98050000097002
100
AcDbArc
 50
164.8087230217298
 51
165.7828719895301
  0
ARC
  5
6805
330
200
100
AcDbEntity
  8
0
  6
Continuous
 62
     7
100
AcDbCircle
 10
51818.26515065148
 20
10483.97425662106
 30
0.0
 40
73.95244344968999
100
AcDbArc
 50
165.5426944163764
 51
181.5769720257003
  0
ARC
  5
6806
330
200
100
AcDbEntity
  8
0
  6
Continuous
 62
     7
100
AcDbCircle
 10
51817.96439615062
 20
10484.03933527567
 30
0.0
 40
73.64496620636001
100
AcDbArc
 50
164.4457064266175
 51
165.5333054739918
  0
ARC
  5
6807
330
200
100
AcDbEntity
  8
0
  6
Continuous
 62
     7
100
AcDbCircle
 10
51871.33735542052
 20
10476.15614566788
 30
0.0
 40
60.51462706611001
100
AcDbArc
 50
358.9912013670801
 51
359.5158171651566
  0
ARC
  5
6808
330
200
100
AcDbEntity
  8
0
  6
Continuous
 62
     7
100
AcDbCircle
 10
51876.76480309886
 20
10474.58737881765
 30
0.0
 40
48.83316058425
100
AcDbArc
 50
180.5768073010316
 51
222.6754303381453
  0
ARC
  5
6809
330
200
100
AcDbEntity
  8
0
  6
Continuous
 62
     7
100
AcDbCircle
 10
51876.5602026666
 20
10474.58716447319
 30
0.0
 40
48.83271269878
100
AcDbArc
 50
317.5186883012635
 51
359.4261618790286
  0
ARC
  5
680A
330
200
100
AcDbEntity
  8
0
  6
Continuous
 62
     7
100
AcDbCircle
 10
51876.66227417244
 20
10474.49970734381
 30
0.0
 40
48.69699968228999
100
AcDbArc
 50
222.681364641513
 51
317.5134708295449
  0
ARC
  5
680B
330
200
100
AcDbEntity
  8
0
  6
Continuous
 62
     7
100
AcDbCircle
 10
51876.37406152879
 20
10474.58582929026
 30
0.0
 40
48.44334079750001
100
AcDbArc
 50
179.9992658413755
 51
180.5796139921882
  0
ARC
  5
680C
330
200
100
AcDbEntity
  8
0
  6
Continuous
 62
     7
100
AcDbCircle
 10
51877.6841069543
 20
10474.58938075156
 30
0.0
 40
47.70977748032001
100
AcDbArc
 50
359.4099954885998
 51
359.9964666360849
  0
ARC
  5
680D
330
200
100
AcDbEntity
  8
0
  6
Continuous
 62
     7
100
AcDbCircle
 10
50981.66043177791
 20
10422.75265451614
 30
0.0
 40
1021.80641087783
100
AcDbArc
 50
355.8027346717981
 51
359.1449369494825
  0
ARC
  5
680E
330
200
100
AcDbEntity
  8
0
  6
Continuous
 62
     7
100
AcDbCircle
 10
51876.66234005206
 20
10358.13596645989
 30
0.0
 40
140.30021818165
100
AcDbArc
 50
200.0570075315021
 51
339.942992468498
  0
ARC
  5
680F
330
200
100
AcDbEntity
  8
0
  6
Continuous
 62
     7
100
AcDbCircle
 10
51876.66234005087
 20
10358.26158298995
 30
0.0
 40
132.47211726579
100
AcDbArc
 50
200.1100653920237
 51
339.889934607193
  0
ARC
  5
6810
330
200
100
AcDbEntity
  8
0
  6
Continuous
 62
     7
100
AcDbCircle
 10
73880.95617059674
 20
10560.45647991674
 30
0.0
 40
22117.35880733295
100
AcDbArc
 50
180.2211884133113
 51
180.5220567746006
  0
ARC
  5
6811
330
200
100
AcDbEntity
  8
0
  6
Continuous
 62
     7
100
AcDbCircle
 10
53334.29978056218
 20
10515.17125465798
 30
0.0
 40
1421.66530092375
100
AcDbArc
 50
179.7655506774791
 51
180.2385395888845
  0
ARC
  5
6812
330
200
100
AcDbEntity
  8
0
  6
Continuous
 62
     7
100
AcDbCircle
 10
52771.66426270164
 20
10422.75265515052
 30
0.0
 40
1021.80642526466
100
AcDbArc
 50
180.8550630734494
 51
184.1972653052123
  0
ARC
  5
6813
330
200
100
AcDbEntity
  8
0
  6
Continuous
 62
     7
100
AcDbCircle
 10
52029.64265564403
 20
10475.82780380312
 30
0.0
 40
265.8815532158
100
AcDbArc
 50
179.9030716332678
 51
180.1625740616432
  0
ARC
  5
6814
330
200
100
AcDbEntity
  8
0
  6
Continuous
 62
     7
100
AcDbCircle
 10
52134.52537687876
 20
10539.490241931
 30
0.0
 40
133.09529863517
100
AcDbArc
 50
195.5605036096015
 51
196.1632107442229
  0
ARC
  5
6815
330
200
100
AcDbEntity
  8
0
  6
Continuous
 62
     7
100
AcDbCircle
 10
52134.52757216133
 20
10539.49071931502
 30
0.0
 40
125.09754148865
100
AcDbArc
 50
195.5605087605893
 51
196.1637474925012
  0
ARC
  5
6816
330
200
100
AcDbEntity
  8
0
  6
Continuous
 62
     7
100
AcDbCircle
 10
51889.6885171426
 20
10501.27085671008
 30
0.0
 40
96.34864155056
100
AcDbArc
 50
28.74007692346177
 51
32.83605332791838
  0
ARC
  5
6817
330
200
100
AcDbEntity
  8
0
  6
Continuous
 62
     7
100
AcDbCircle
 10
51924.09657478721
 20
10478.46795076975
 30
0.0
 40
94.00285590292
100
AcDbArc
 50
359.9297857161317
 51
16.18205296286978
  0
ARC
  5
6818
330
200
100
AcDbEntity
  8
0
  6
Continuous
 62
     7
100
AcDbCircle
 10
51923.59406733137
 20
10478.31712067055
 30
0.0
 40
86.52748946076
100
AcDbArc
 50
0.0319339653989982
 51
16.18785853827668
  0
ARC
  5
6819
330
200
100
AcDbEntity
  8
0
  6
Continuous
 62
     7
100
AcDbCircle
 10
51922.49732347492
 20
10483.602215672
 30
0.0
 40
85.67155142166001
100
AcDbArc
 50
12.39783694023788
 51
13.06068205993519
  0
ARC
  5
681A
330
200
100
AcDbEntity
  8
0
  6
Continuous
 62
     7
100
AcDbCircle
 10
51922.59058873429
 20
10483.62269422869
 30
0.0
 40
85.5760643578
100
AcDbArc
 50
11.66019351275218
 51
12.39785227477494
  0
ARC
  5
681B
330
200
100
AcDbEntity
  8
0
  6
Continuous
 62
     7
100
AcDbCircle
 10
51922.96183088703
 20
10483.71110102858
 30
0.0
 40
85.19445400537
100
AcDbArc
 50
13.0599436859404
 51
14.1932075560816
  0
ARC
  5
681C
330
200
100
AcDbEntity
  8
0
  6
Continuous
 62
     7
100
AcDbCircle
 10
51926.53174509252
 20
10484.62851055258
 30
0.0
 40
81.50822556722999
100
AcDbArc
 50
14.18330378187235
 51
43.62130192455221
  0
ARC
  5
681D
330
200
100
AcDbEntity
  8
0
  6
Continuous
 62
     7
100
AcDbCircle
 10
51926.61299620636
 20
10484.68968438794
 30
0.0
 40
81.40694814443
100
AcDbArc
 50
43.62958555742937
 51
46.10324842537698
  0
ARC
  5
681E
330
200
100
AcDbEntity
  8
0
  6
Continuous
 62
     7
100
AcDbCircle
 10
51926.64178267364
 20
10484.71926422278
 30
0.0
 40
81.36567378603002
100
AcDbArc
 50
46.10341302677054
 51
47.9193076705449
  0
ARC
  5
681F
330
200
100
AcDbEntity
  8
0
  6
Continuous
 62
     7
100
AcDbCircle
 10
51926.66867781316
 20
10484.7484163991
 30
0.0
 40
81.32601249996001
100
AcDbArc
 50
47.91960674882102
 51
52.18683717520096
  0
ARC
  5
6820
330
200
100
AcDbEntity
  8
0
  6
Continuous
 62
     7
100
AcDbCircle
 10
51935.36026501838
 20
10484.03932854675
 30
0.0
 40
73.64498641341
100
AcDbArc
 50
14.4666877938025
 51
15.55429466736161
  0
ARC
  5
6821
330
200
100
AcDbEntity
  8
0
  6
Continuous
 62
     7
100
AcDbCircle
 10
51881.40946060736
 20
10476.14045679315
 30
0.0
 40
59.93673079178
100
AcDbArc
 50
180.4738657203072
 51
181.0035275046396
  0
ARC
  5
6822
330
200
100
AcDbEntity
  8
0
  6
Continuous
 62
     7
100
AcDbCircle
 10
51891.46875927517
 20
10519.83806616636
 30
0.0
 40
38.80861252209
100
AcDbArc
 50
5.096913991931008
 51
5.797455657694495
  0
CIRCLE
  5
6823
330
200
100
AcDbEntity
  8
02___PRT_ALL_AXES
  6
Continuous
 62
     7
100
AcDbCircle
 10
51966.66234005029
 20
10661.0
 30
0.0
 40
8.0
  0
ARC
  5
6824
330
200
100
AcDbEntity
  8
0
  6
Continuous
 62
     7
100
AcDbCircle
 10
51917.42950446512
 20
10519.92934458277
 30
0.0
 40
7.96445490363
100
AcDbArc
 50
359.9999422764805
 51
3.13978376788902
  0
ARC
  5
6825
330
200
100
AcDbEntity
  8
0
  6
Continuous
 62
     7
100
AcDbCircle
 10
51907.89509889911
 20
10514.75796852785
 30
0.0
 40
7.94793619838
100
AcDbArc
 50
359.9660654937904
 51
54.85850423994247
  0
ARC
  5
6826
330
200
100
AcDbEntity
  8
0
  6
Continuous
 62
     7
100
AcDbCircle
 10
52052.33352037105
 20
10733.0
 30
0.0
 40
3.0
100
AcDbArc
 50
359.9841546050058
 51
90.0000000025013
  0
ARC
  5
6827
330
200
100
AcDbEntity
  8
0
  6
Continuous
 62
     7
100
AcDbCircle
 10
51876.76885801552
 20
10012.68293445885
 30
0.0
 40
515.3321740905799
100
AcDbArc
 50
88.65814679669622
 51
90.01184289693595
  0
ARC
  5
6828
330
200
100
AcDbEntity
  8
0
  6
Continuous
 62
     7
100
AcDbCircle
 10
51876.2514563284
 20
10039.15737096941
 30
0.0
 40
488.85789924493
100
AcDbArc
 50
89.95184304105684
 51
91.39365037682642
  0
ARC
  5
6829
330
200
100
AcDbEntity
  8
0
  6
Continuous
 62
     7
100
AcDbCircle
 10
51876.66538140422
 20
10238.68682060307
 30
0.0
 40
336.31317941068
100
AcDbArc
 50
89.69684977648725
 51
90.00051813805038
  0
ARC
  5
682A
330
200
100
AcDbEntity
  8
0
  6
Continuous
 62
     7
100
AcDbCircle
 10
51876.72738158577
 20
10248.76953856928
 30
0.0
 40
326.2302746489601
100
AcDbArc
 50
89.08942414933166
 51
89.69836936299609
  0
LINE
  5
682B
330
200
100
AcDbEntity
  8
0
  6
Continuous
 62
     7
100
AcDbLine
 10
51876.66239997118
 20
11016.76907898659
 30
0.0
 11
51876.66233789191
 21
11006.79575963309
 31
0.0
  0
SPLINE
  5
682C
330
200
100
AcDbEntity
  8
0
  6
Continuous
 62
     7
100
AcDbSpline
210
0.0
220
0.0
230
1.0
 70
     8
 71
     3
 72
    29
 73
    25
 74
     0
 42
0.0000000001
 43
0.0000000001
 40
0.0
 40
0.0
 40
0.0
 40
0.0
 40
0.0002726411
 40
0.0010461956
 40
0.0023251264
 40
0.0041093965
 40
0.0063984384
 40
0.0091915382
 40
0.0162867946
 40
0.0253887519
 40
0.0364907148
 40
0.0495858717
 40
0.0646673851
 40
0.0817284053
 40
0.1007623576
 40
0.1447258491
 40
0.1965120286
 40
0.2560712064
 40
0.3233396614
 40
0.3982503876
 40
0.4807037284000001
 40
0.5705274586
 40
0.7715630518000001
 40
1.0
 40
1.0
 40
1.0
 40
1.0
 10
51928.16692624252
 20
11006.90285054642
 30
0.0
 10
51928.16683126393
 20
11006.90195849479
 30
0.0
 10
51928.16174331528
 20
11006.90238920081
 30
0.0
 10
51928.15569526364
 20
11006.90081305466
 30
0.0
 10
51928.1422060078
 20
11006.90057941853
 30
0.0
 10
51928.12500225118
 20
11006.89956380207
 30
0.0
 10
51928.10227342063
 20
11006.89882826779
 30
0.0
 10
51928.06229550233
 20
11006.89755465947
 30
0.0
 10
51927.99978168826
 20
11006.89604690845
 30
0.0
 10
51927.9099956585
 20
11006.89421500043
 30
0.0
 10
51927.80043772926
 20
11006.892329665
 30
0.0
 10
51927.67121309396
 20
11006.89038128425
 30
0.0
 10
51927.52237614949
 20
11006.8883927375
 30
0.0
 10
51927.35399822155
 20
11006.88637398607
 30
0.0
 10
51927.09059050696
 20
11006.88351938153
 30
0.0
 10
51926.71292489622
 20
11006.87997593553
 30
0.0
 10
51926.20191574557
 20
11006.87585642855
 30
0.0
 10
51925.61422232681
 20
11006.87172042037
 30
0.0
 10
51924.95043864335
 20
11006.86758348666
 30
0.0
 10
51924.21132299926
 20
11006.8634627305
 30
0.0
 10
51923.39799062012
 20
11006.8593803994
 30
0.0
 10
51922.16966138151
 20
11006.85382881666
 30
0.0
 10
51920.46098968265
 20
11006.84735194924
 30
0.0
 10
51919.04786717515
 20
11006.84296252305
 30
0.0
 10
51918.29622523883
 20
11006.84077912812
 30
0.0
  0
SPLINE
  5
682D
330
200
100
AcDbEntity
  8
0
  6
Continuous
 62
     7
100
AcDbSpline
210
0.0
220
0.0
230
1.0
 70
     8
 71
     3
 72
     9
 73
     5
 74
     0
 42
0.0000000001
 43
0.0000000001
 40
0.0
 40
0.0
 40
0.0
 40
0.0
 40
0.2415791654
 40
1.0
 40
1.0
 40
1.0
 40
1.0
 10
51918.29622523883
 20
11006.84077912812
 30
0.0
 10
51918.11696433576
 20
11006.84025840499
 30
0.0
 10
51917.3749262998
 20
11006.83814056772
 30
0.0
 10
51916.63288785189
 20
11006.83616783902
 30
0.0
 10
51916.07011026218
 20
11006.83474115343
 30
0.0
  0
SPLINE
  5
682E
330
200
100
AcDbEntity
  8
0
  6
Continuous
 62
     7
100
AcDbSpline
210
0.0
220
0.0
230
1.0
 70
     8
 71
     3
 72
     9
 73
     5
 74
     0
 42
0.0000000001
 43
0.0000000001
 40
0.0
 40
0.0
 40
0.0
 40
0.0
 40
0.2460593973
 40
1.0
 40
1.0
 40
1.0
 40
1.0
 10
51916.07011026218
 20
11006.83474115343
 30
0.0
 10
51915.96822700733
 20
11006.83448287134
 30
0.0
 10
51915.55416738696
 20
11006.83344251637
 30
0.0
 10
51915.1401076744
 20
11006.83243890133
 30
0.0
 10
51914.8279312004
 20
11006.83170144391
 30
0.0
  0
SPLINE
  5
682F
330
200
100
AcDbEntity
  8
0
  6
Continuous
 62
     7
100
AcDbSpline
210
0.0
220
0.0
230
1.0
 70
     8
 71
     3
 72
    31
 73
    27
 74
     0
 42
0.0000000001
 43
0.0000000001
 40
0.0
 40
0.0
 40
0.0
 40
0.0
 40
0.000321092
 40
0.0011242169
 40
0.0024289223
 40
0.0042378469
 40
0.006551337
 40
0.0093690875
 40
0.0126905379
 40
0.0165150073
 40
0.0256699691
 40
0.0368276476
 40
0.0499809745
 40
0.0651223227
 40
0.0822439821
 40
0.1013382044
 40
0.1454126411
 40
0.197279603
 40
0.256872483
 40
0.3241300103
 40
0.3989908888
 40
0.4813474905
 40
0.5710541172
 40
0.6679507306
 40
0.7718588953
 40
1.0
 40
1.0
 40
1.0
 40
1.0
 10
52034.58006736623
 20
11021.33162609233
 30
0.0
 10
52034.57959243931
 20
11021.3284180239
 30
0.0
 10
52034.56494920358
 20
11021.32543112083
 30
0.0
 10
52034.54404598502
 20
11021.3206909009
 30
0.0
 10
52034.50294407469
 20
11021.31644331211
 30
0.0
 10
52034.44910499884
 20
11021.31166713756
 30
0.0
 10
52034.37886292736
 20
11021.3070069277
 30
0.0
 10
52034.293729454
 20
11021.30225601322
 30
0.0
 10
52034.19317045799
 20
11021.29751474877
 30
0.0
 10
52034.02868477463
 20
11021.2907652465
 30
0.0
 10
52033.7850251531
 20
11021.2825696817
 30
0.0
 10
52033.44715187087
 20
11021.27318479516
 30
0.0
 10
52033.04879104989
 20
11021.26379722802
 30
0.0
 10
52032.59018164564
 20
11021.25441215858
 30
0.0
 10
52032.07155729716
 20
11021.24504125894
 30
0.0
 10
52031.26072994684
 20
11021.23193861654
 30
0.0
 10
52030.09897784979
 20
11021.21593814071
 30
0.0
 10
52028.52818684494
 20
11021.19758733685
 30
0.0
 10
52026.7232317317
 20
11021.17932063405
 30
0.0
 10
52024.6860264109
 20
11021.16118223918
 30
0.0
 10
52022.41889771393
 20
11021.14323005936
 30
0.0
 10
52019.92502465385
 20
11021.12553972674
 30
0.0
 10
52017.20858296432
 20
11021.10822516681
 30
0.0
 10
52014.27446375721
 20
11021.09133939906
 30
0.0
 10
52009.94216609728
 20
11021.06863303286
 30
0.0
 10
52006.58850025272
 20
11021.05330432733
 30
0.0
 10
52004.28429403914
 20
11021.04349827212
 30
0.0
  0
LINE
  5
6830
330
200
100
AcDbEntity
  8
0
  6
Continuous
 62
     7
100
AcDbLine
 10
52004.28429403914
 20
11021.04349827212
 30
0.0
 11
52003.43049632801
 21
11021.0398983445
 31
0.0
  0
LINE
  5
6831
330
200
100
AcDbEntity
  8
0
  6
Continuous
 62
     7
100
AcDbLine
 10
51749.8916280427
 20
11021.03990905855
 30
0.0
 11
51748.98012566933
 21
11021.04375489845
 31
0.0
  0
SPLINE
  5
6832
330
200
100
AcDbEntity
  8
0
  6
Continuous
 62
     7
100
AcDbSpline
210
0.0
220
0.0
230
1.0
 70
     8
 71
     3
 72
    31
 73
    27
 74
     0
 42
0.0000000001
 43
0.0000000001
 40
0.0
 40
0.0
 40
0.0
 40
0.0
 40
0.2281540558
 40
0.3320655265
 40
0.4289635999000001
 40
0.5186700404
 40
0.6010252085
 40
0.6758838453
 40
0.7431390406000001
 40
0.8027296746999999
 40
0.8545944879999998
 40
0.8986669130999999
 40
0.9177602051
 40
0.9348810003
 40
0.9500215602999999
 40
0.9631741848
 40
0.9743312570999998
 40
0.9834857196999999
 40
0.9873099814999999
 40
0.9906312532999999
 40
0.9934488548999999
 40
0.9957622270999999
 40
0.9975710662
 40
0.9988757214999999
 40
0.9996788385999998
 40
1.0
 40
1.0
 40
1.0
 40
1.0
 10
51748.98012566933
 20
11021.04375489845
 30
0.0
 10
51746.68037155105
 20
11021.05355489328
 30
0.0
 10
51743.33321167011
 20
11021.06887365371
 30
0.0
 10
51739.00935161158
 20
11021.09156444497
 30
0.0
 10
51736.08102171416
 20
11021.10843798928
 30
0.0
 10
51733.36998420737
 20
11021.12573960953
 30
0.0
 10
51730.88111001384
 20
11021.14341558543
 30
0.0
 10
51728.61855087406
 20
11021.16135183847
 30
0.0
 10
51726.58546604266
 20
11021.17947312678
 30
0.0
 10
51724.78416860115
 20
11021.19772194575
 30
0.0
 10
51723.21656636364
 20
11021.21605472571
 30
0.0
 10
51722.05717628433
 20
11021.23203943763
 30
0.0
 10
51721.24800008047
 20
11021.2451290756
 30
0.0
 10
51720.73043337346
 20
11021.25449062073
 30
0.0
 10
51720.27275997718
 20
11021.26386628258
 30
0.0
 10
51719.8752127713
 20
11021.27324440701
 30
0.0
 10
51719.53802992795
 20
11021.28261981749
 30
0.0
 10
51719.29486840895
 20
11021.29080709812
 30
0.0
 10
51719.13071904008
 20
11021.29754972746
 30
0.0
 10
51719.03036568286
 20
11021.30228621104
 30
0.0
 10
51718.94540617811
 20
11021.30703215491
 30
0.0
 10
51718.87530792379
 20
11021.31168795639
 30
0.0
 10
51718.82157819695
 20
11021.31645833527
 30
0.0
 10
51718.7805614716
 20
11021.32070366974
 30
0.0
 10
51718.75969781736
 20
11021.32543536251
 30
0.0
 10
51718.74508652549
 20
11021.32842366911
 30
0.0
 10
51718.74461273434
 20
11021.33162609233
 30
0.0
  0
SPLINE
  5
6833
330
200
100
AcDbEntity
  8
0
  6
Continuous
 62
     7
100
AcDbSpline
210
0.0
220
0.0
230
1.0
 70
     8
 71
     3
 72
    11
 73
     7
 74
     0
 42
0.0000000001
 43
0.0000000001
 40
0.0
 40
0.0
 40
0.0
 40
0.0
 40
0.2214861132
 40
0.4627755705
 40
0.7242771441000001
 40
1.0
 40
1.0
 40
1.0
 40
1.0
 10
51913.19292581055
 20
11004.38260456476
 30
0.0
 10
51913.4075731563
 20
11004.45898503861
 30
0.0
 10
51913.8267594454
 20
11004.70776164744
 30
0.0
 10
51914.32262855391
 20
11005.27698003062
 30
0.0
 10
51914.67394406272
 20
11006.00552366655
 30
0.0
 10
51914.79575838214
 20
11006.54991623813
 30
0.0
 10
51914.82785509587
 20
11006.83171705257
 30
0.0
  0
SPLINE
  5
6834
330
200
100
AcDbEntity
  8
0
  6
Continuous
 62
     7
100
AcDbSpline
210
0.0
220
0.0
230
1.0
 70
     8
 71
     3
 72
    11
 73
     7
 74
     0
 42
0.0000000001
 43
0.0000000001
 40
0.0
 40
0.0
 40
0.0
 40
0.0
 40
0.2214725774
 40
0.4627556361
 40
0.7242619245000001
 40
1.0
 40
1.0
 40
1.0
 40
1.0
 10
51840.1362824484
 20
11004.38265742759
 30
0.0
 10
51839.92164800192
 20
11004.45901012422
 30
0.0
 10
51839.5024769064
 20
11004.70774895609
 30
0.0
 10
51839.00663767493
 20
11005.27694262238
 30
0.0
 10
51838.65534966439
 20
11006.00548612077
 30
0.0
 10
51838.53355119074
 20
11006.54988408573
 30
0.0
 10
51838.50145984679
 20
11006.83169181992
 30
0.0
  0
LINE
  5
6835
330
200
100
AcDbEntity
  8
0
  6
Continuous
 62
     7
100
AcDbLine
 10
51926.08763470236
 20
11004.35593571063
 30
0.0
 11
51913.19209541747
 21
11004.38254202358
 31
0.0
  0
LINE
  5
6836
330
200
100
AcDbEntity
  8
0
  6
Continuous
 62
     7
100
AcDbLine
 10
51876.66225192183
 20
11004.39338541958
 30
0.0
 11
51840.13627164711
 21
11004.38268617097
 31
0.0
  0
SPLINE
  5
6837
330
200
100
AcDbEntity
  8
0
  6
Continuous
 62
     7
100
AcDbSpline
210
0.0
220
0.0
230
1.0
 70
     8
 71
     3
 72
    11
 73
     7
 74
     0
 42
0.0000000001
 43
0.0000000001
 40
0.0
 40
0.0
 40
0.0
 40
0.0
 40
0.2211178776
 40
0.4622535941
 40
0.7238722005
 40
1.0
 40
1.0
 40
1.0
 40
1.0
 10
51913.19296168702
 20
11004.38257976826
 30
0.0
 10
51913.05106056634
 20
11004.33182521729
 30
0.0
 10
51912.77393015396
 20
11004.1666844973
 30
0.0
 10
51912.44609792689
 20
11003.78933246847
 30
0.0
 10
51912.2133960809
 20
11003.3063574109
 30
0.0
 10
51912.13225801137
 20
11002.94543376511
 30
0.0
 10
51912.11061064137
 20
11002.75848555035
 30
0.0
  0
LINE
  5
6838
330
200
100
AcDbEntity
  8
0
  6
Continuous
 62
     7
100
AcDbLine
 10
51913.19296168702
 20
11004.38257976826
 30
0.0
 11
51876.66225192183
 21
11004.39338541958
 31
0.0
  0
LINE
  5
6839
330
200
100
AcDbEntity
  8
0
  6
Continuous
 62
     7
100
AcDbLine
 10
51840.13628373984
 20
11004.38265365214
 30
0.0
 11
51827.2363523399
 21
11004.35579765207
 31
0.0
  0
SPLINE
  5
683A
330
200
100
AcDbEntity
  8
0
  6
Continuous
 62
     7
100
AcDbSpline
210
0.0
220
0.0
230
1.0
 70
     8
 71
     3
 72
    11
 73
     7
 74
     0
 42
0.0000000001
 43
0.0000000001
 40
0.0
 40
0.0
 40
0.0
 40
0.0
 40
0.2211168892
 40
0.4622503311
 40
0.7238697792000001
 40
1.0
 40
1.0
 40
1.0
 40
1.0
 10
51840.13628373984
 20
11004.38265365214
 30
0.0
 10
51840.27820302556
 20
11004.33192308133
 30
0.0
 10
51840.55538003834
 20
11004.16682032693
 30
0.0
 10
51840.88327716622
 20
11003.78948112765
 30
0.0
 10
51841.11603415413
 20
11003.3064922645
 30
0.0
 10
51841.19719678138
 20
11002.94554650804
 30
0.0
 10
51841.21885324313
 20
11002.75858548537
 30
0.0
  0
SPLINE
  5
683B
330
200
100
AcDbEntity
  8
0
  6
Continuous
 62
     7
100
AcDbSpline
210
0.0
220
0.0
230
1.0
 70
     8
 71
     3
 72
    81
 73
    77
 74
     0
 42
0.0000000001
 43
0.0000000001
 40
0.0
 40
0.0
 40
0.0
 40
0.0
 40
0.0000123467
 40
0.0000428269
 40
0.000092129
 40
0.000160352
 40
0.0002475132
 40
0.0003536063
 40
0.0006225208
 40
0.0009669327
 40
0.0013866508
 40
0.0018814747
 40
0.0024511991
 40
0.0030956166
 40
0.0038145301
 40
0.0054751323
 40
0.0074315872
 40
0.0096824727
 40
0.0122263746
 40
0.0150619263
 40
0.0181877762
 40
0.021602579
 40
0.0292945053
 40
0.0381289777
 40
0.048086333
 40
0.0591361358
 40
0.0712449879
 40
0.0843787893
 40
0.0985054987
 40
0.1135939025
 40
0.1465305706
 40
0.1829008644
 40
0.2223178893
 40
0.264386344
 40
0.3087183334
 40
0.3549029764
 40
0.4024864009000001
 40
0.451007492
 40
0.4999999119
 40
0.5489923340999999
 40
0.5975134245
 40
0.6450968539000001
 40
0.6912815054000001
 40
0.735613475
 40
0.7776819272
 40
0.8170989891999999
 40
0.8534693275
 40
0.8864060754
 40
0.9014944921999999
 40
0.915621207
 40
0.9287550110999999
 40
0.9408638623000001
 40
0.9519136640000001
 40
0.9618710207999999
 40
0.970705494
 40
0.978397421
 40
0.981812224
 40
0.984938074
 40
0.9877736256999998
 40
0.9903175272
 40
0.9925684122999999
 40
0.9945248668999999
 40
0.9961854693000001
 40
0.9969043831
 40
0.9975488011999999
 40
0.9981185262
 40
0.9986133507999999
 40
0.9990330696999999
 40
0.999377482
 40
0.9996463966
 40
0.9997524895999999
 40
0.9998396505
 40
0.9999078731
 40
0.9999571747
 40
0.9999876541
 40
1.0
 40
1.0
 40
1.0
 40
1.0
 10
51698.10978313816
 20
11272.36949250821
 30
0.0
 10
51698.11009197256
 20
11272.36805561121
 30
0.0
 10
51698.11655838754
 20
11272.36683721605
 30
0.0
 10
51698.12601779048
 20
11272.36468578776
 30
0.0
 10
51698.14426602674
 20
11272.36286747442
 30
0.0
 10
51698.16822744716
 20
11272.36076224781
 30
0.0
 10
51698.19940862832
 20
11272.35873159292
 30
0.0
 10
51698.25428430103
 20
11272.35571921125
 30
0.0
 10
51698.33988688739
 20
11272.35214142008
 30
0.0
 10
51698.46277297454
 20
11272.34805369821
 30
0.0
 10
51698.61258512447
 20
11272.34396289277
 30
0.0
 10
51698.78921753281
 20
11272.33986302963
 30
0.0
 10
51698.99260632957
 20
11272.33576648943
 30
0.0
 10
51699.22267381245
 20
11272.33167380102
 30
0.0
 10
51699.58258662142
 20
11272.32594727764
 30
0.0
 10
51700.09867804282
 20
11272.31894731131
 30
0.0
 10
51700.79713085839
 20
11272.310911181
 30
0.0
 10
51701.60073473261
 20
11272.30290348999
 30
0.0
 10
51702.50898791453
 20
11272.29492767626
 30
0.0
 10
51703.52139755286
 20
11272.28698924652
 30
0.0
 10
51704.63747923268
 20
11272.27908993698
 30
0.0
 10
51706.33163900148
 20
11272.26817241173
 30
0.0
 10
51708.70533064019
 20
11272.25483924721
 30
0.0
 10
51711.85782494048
 20
11272.23967424032
 30
0.0
 10
51715.41003439808
 20
11272.22488362759
 30
0.0
 10
51719.35201902174
 20
11272.21059026252
 30
0.0
 10
51723.67212007902
 20
11272.19676854271
 30
0.0
 10
51728.35848789598
 20
11272.1833587439
 30
0.0
 10
51733.39953324609
 20
11272.17037280512
 30
0.0
 10
51740.79783705037
 20
11272.15313489923
 30
0.0
 10
51750.84393693463
 20
11272.13293854367
 30
0.0
 10
51763.78603144795
 20
11272.11201833989
 30
0.0
 10
51777.81514578097
 20
11272.09372914502
 30
0.0
 10
51792.79199504567
 20
11272.07781336186
 30
0.0
 10
51808.57443991102
 20
11272.06438995582
 30
0.0
 10
51825.01336929347
 20
11272.05397192461
 30
0.0
 10
51841.95095585461
 20
11272.04648670857
 30
0.0
 10
51859.22277110496
 20
11272.04192879266
 30
0.0
 10
51876.66230888816
 20
11272.04046794586
 30
0.0
 10
51894.10184658112
 20
11272.04192878477
 30
0.0
 10
51911.3736625932
 20
11272.04648676156
 30
0.0
 10
51928.31125065744
 20
11272.0539717598
 30
0.0
 10
51944.75017927784
 20
11272.06439001854
 30
0.0
 10
51960.53262250731
 20
11272.07781335563
 30
0.0
 10
51975.50947354338
 20
11272.09372898577
 30
0.0
 10
51989.53859729509
 20
11272.11201838709
 30
0.0
 10
52002.48071101593
 20
11272.1329384853
 30
0.0
 10
52012.52682723826
 20
11272.15313475819
 30
0.0
 10
52019.92514273084
 20
11272.17037280135
 30
0.0
 10
52024.9661905941
 20
11272.18335878491
 30
0.0
 10
52029.65255926911
 20
11272.19676852481
 30
0.0
 10
52033.97266040914
 20
11272.21059024689
 30
0.0
 10
52037.91464497007
 20
11272.22488364937
 30
0.0
 10
52041.46685456804
 20
11272.23967423693
 30
0.0
 10
52044.6193492199
 20
11272.25483923043
 30
0.0
 10
52046.99304106201
 20
11272.26817241321
 30
0.0
 10
52048.68720095385
 20
11272.27908994283
 30
0.0
 10
52049.80328267092
 20
11272.28698924836
 30
0.0
 10
52050.81569228497
 20
11272.29492767123
 30
0.0
 10
52051.72394537617
 20
11272.30290347853
 30
0.0
 10
52052.52754912699
 20
11272.31091116748
 30
0.0
 10
52053.22600186483
 20
11272.31894730178
 30
0.0
 10
52053.74209330008
 20
11272.32594727789
 30
0.0
 10
52054.10200622791
 20
11272.331673814
 30
0.0
 10
52054.3320739002
 20
11272.33576651464
 30
0.0
 10
52054.5354629358
 20
11272.33986306854
 30
0.0
 10
52054.71209559396
 20
11272.34396294452
 30
0.0
 10
52054.86190796348
 20
11272.34805376049
 30
0.0
 10
52054.98479418811
 20
11272.35214148648
 30
0.0
 10
52055.0703968347
 20
11272.35571927941
 30
0.0
 10
52055.125272462
 20
11272.35873165251
 30
0.0
 10
52055.15645358458
 20
11272.36076230897
 30
0.0
 10
52055.18041478528
 20
11272.3628675021
 30
0.0
 10
52055.19866299857
 20
11272.36468585378
 30
0.0
 10
52055.20812185227
 20
11272.36683715221
 30
0.0
 10
52055.21458838206
 20
11272.36805565808
 30
0.0
 10
52055.2148969624
 20
11272.36949250821
 30
0.0
  0
SPLINE
  5
683C
330
200
100
AcDbEntity
  8
0
  6
Continuous
 62
     7
100
AcDbSpline
210
0.0
220
0.0
230
1.0
 70
     8
 71
     3
 72
     9
 73
     5
 74
     0
 42
0.0000000001
 43
0.0000000001
 40
0.0
 40
0.0
 40
0.0
 40
0.0
 40
0.2539195239
 40
1.0
 40
1.0
 40
1.0
 40
1.0
 10
51838.50145030538
 20
11006.83168986247
 30
0.0
 10
51838.3963284945
 20
11006.83194009097
 30
0.0
 10
51837.98233194486
 20
11006.83293231175
 30
0.0
 10
51837.56833546182
 20
11006.83395239335
 30
0.0
 10
51837.25946081421
 20
11006.83473139633
 30
0.0
  0
SPLINE
  5
683D
330
200
100
AcDbEntity
  8
0
  6
Continuous
 62
     7
100
AcDbSpline
210
0.0
220
0.0
230
1.0
 70
     8
 71
     3
 72
     9
 73
     5
 74
     0
 42
0.0000000001
 43
0.0000000001
 40
0.0
 40
0.0
 40
0.0
 40
0.0
 40
0.2574937196
 40
1.0
 40
1.0
 40
1.0
 40
1.0
 10
51837.25946081421
 20
11006.83473139633
 30
0.0
 10
51837.08605353171
 20
11006.83516874135
 30
0.0
 10
51836.41261082279
 20
11006.83688927453
 30
0.0
 10
51835.739168348
 20
11006.83870229323
 30
0.0
 10
51835.23913326962
 20
11006.84011460066
 30
0.0
  0
SPLINE
  5
683E
330
200
100
AcDbEntity
  8
0
  6
Continuous
 62
     7
100
AcDbSpline
210
0.0
220
0.0
230
1.0
 70
     8
 71
     3
 72
    29
 73
    25
 74
     0
 42
0.0000000001
 43
0.0000000001
 40
0.0
 40
0.0
 40
0.0
 40
0.0
 40
0.2282250174
 40
0.4291681825
 40
0.5189770770000001
 40
0.6014253232
 40
0.6763574231
 40
0.7436789550000001
 40
0.8033018420999999
 40
0.8551434326
 40
0.8991491428999999
 40
0.9181993221999999
 40
0.9352734730999999
 40
0.9503659213999998
 40
0.9634709173
 40
0.9745819422
 40
0.9836920887999999
 40
0.9907945096999998
 40
0.9935907306
 40
0.9958825467
 40
0.9976692216
 40
0.9989501821999999
 40
0.9997254444999999
 40
1.0
 40
1.0
 40
1.0
 40
1.0
 10
51835.23913326962
 20
11006.84011460066
 30
0.0
 10
51834.47216302782
 20
11006.84228084424
 30
0.0
 10
51833.02990635827
 20
11006.84663388798
 30
0.0
 10
51831.28584299783
 20
11006.85308546976
 30
0.0
 10
51830.03167786191
 20
11006.85865537243
 30
0.0
 10
51829.20098369344
 20
11006.86280778749
 30
0.0
 10
51828.44586223176
 20
11006.86706977231
 30
0.0
 10
51827.76744924226
 20
11006.87136088156
 30
0.0
 10
51827.16663570926
 20
11006.87561025396
 30
0.0
 10
51826.644178616
 20
11006.87973936868
 30
0.0
 10
51826.25806958725
 20
11006.88321879474
 30
0.0
 10
51825.98879859196
 20
11006.8859912715
 30
0.0
 10
51825.81669069811
 20
11006.88794157494
 30
0.0
 10
51825.66456214906
 20
11006.88986258811
 30
0.0
 10
51825.53247810009
 20
11006.89175780822
 30
0.0
 10
51825.42048996593
 20
11006.89361028219
 30
0.0
 10
51825.32870452124
 20
11006.89543227163
 30
0.0
 10
51825.26479469853
 20
11006.89695460632
 30
0.0
 10
51825.22391872237
 20
11006.89825476905
 30
0.0
 10
51825.2006793618
 20
11006.89901857869
 30
0.0
 10
51825.18307936614
 20
11006.90005895889
 30
0.0
 10
51825.16929487773
 20
11006.90034470778
 30
0.0
 10
51825.16308089065
 20
11006.90193392597
 30
0.0
 10
51825.15789209715
 20
11006.90156606037
 30
0.0
 10
51825.15779245759
 20
11006.90248333606
 30
0.0
  0
SPLINE
  5
683F
330
200
100
AcDbEntity
  8
0
  6
Continuous
 62
     7
100
AcDbSpline
210
0.0
220
0.0
230
1.0
 70
     8
 71
     3
 72
    15
 73
    11
 74
     0
 42
0.0000000001
 43
0.0000000001
 40
0.0
 40
0.0
 40
0.0
 40
0.0
 40
0.1054194419
 40
0.227360055
 40
0.3607660352000001
 40
0.500013025
 40
0.6392517402000001
 40
0.7726594209000001
 40
0.8945814006
 40
1.0
 40
1.0
 40
1.0
 40
1.0
 10
51841.21965050933
 20
11002.75835820161
 30
0.0
 10
51843.70443201526
 20
11002.55623795098
 30
0.0
 10
51849.07109446048
 20
11002.21504867368
 30
0.0
 10
51857.595659399
 20
11001.86070786271
 30
0.0
 10
51866.92504024021
 20
11001.64251610242
 30
0.0
 10
51876.66565951822
 20
11001.56765563803
 30
0.0
 10
51886.40631678167
 20
11001.64271546178
 30
0.0
 10
51895.73509979555
 20
11001.86098558473
 30
0.0
 10
51904.25923504227
 20
11002.21557782496
 30
0.0
 10
51909.62542646803
 20
11002.55687771833
 30
0.0
 10
51912.11019030149
 20
11002.75896948877
 30
0.0
  0
SPLINE
  5
6840
330
200
100
AcDbEntity
  8
0
  6
Continuous
 62
     7
100
AcDbSpline
210
0.0
220
0.0
230
1.0
 70
     8
 71
     3
 72
    26
 73
    22
 74
     0
 42
0.0000000001
 43
0.0000000001
 40
0.0
 40
0.0
 40
0.0
 40
0.0
 40
0.0003542468
 40
0.0011364004
 40
0.0041781032
 40
0.0092323248
 40
0.0163059479
 40
0.0253980942
 40
0.0365057714
 40
0.049625178
 40
0.0647521372
 40
0.1010074956
 40
0.145215776
 40
0.197315417
 40
0.2572445726
 40
0.3249243012
 40
0.4001930814
 40
0.482864284
 40
0.5727512503
 40
0.7733387769000001
 40
1.0
 40
1.0
 40
1.0
 40
1.0
 10
51924.70367933314
 20
11002.65835929202
 30
0.0
 10
51924.7038290313
 20
11002.65983922439
 30
0.0
 10
51924.69890636157
 20
11002.66333869756
 30
0.0
 10
51924.68302643641
 20
11002.66724486813
 30
0.0
 10
51924.64492479267
 20
11002.67302540054
 30
0.0
 10
51924.58210747882
 20
11002.67798898506
 30
0.0
 10
51924.49285552871
 20
11002.6833395236
 30
0.0
 10
51924.37855156885
 20
11002.68818199895
 30
0.0
 10
51924.23867806923
 20
11002.69284816137
 30
0.0
 10
51924.0735018065
 20
11002.69722813442
 30
0.0
 10
51923.80271633543
 20
11002.70313902449
 30
0.0
 10
51923.40138653555
 20
11002.70974205225
 30
0.0
 10
51922.84479282101
 20
11002.71662381042
 30
0.0
 10
51922.18878208842
 20
11002.72288337486
 30
0.0
 10
51921.43420606908
 20
11002.72859742865
 30
0.0
 10
51920.58233743737
 20
11002.73383079517
 30
0.0
 10
51919.63497072836
 20
11002.73859605918
 30
0.0
 10
51918.59435268249
 20
11002.74290248046
 30
0.0
 10
51917.02752062724
 20
11002.74823796142
 30
0.0
 10
51914.85607096291
 20
11002.7536237671
 30
0.0
 10
51913.06205401684
 20
11002.75697826178
 30
0.0
 10
51912.11030364084
 20
11002.7586471994
 30
0.0
  0
SPLINE
  5
6841
330
200
100
AcDbEntity
  8
0
  6
Continuous
 62
     7
100
AcDbSpline
210
0.0
220
0.0
230
1.0
 70
     8
 71
     3
 72
    26
 73
    22
 74
     0
 42
0.0000000001
 43
0.0000000001
 40
0.0
 40
0.0
 40
0.0
 40
0.0
 40
0.2267180828
 40
0.4271682711000001
 40
0.5170165663000001
 40
0.5996795682000001
 40
0.6749355811
 40
0.742598991
 40
0.8025227201999999
 40
0.8546213821999998
 40
0.8988422819
 40
0.9351273930999999
 40
0.9502752906000001
 40
0.9634175267999999
 40
0.9745479865
 40
0.9836609198999999
 40
0.9907514504999999
 40
0.9958176893
 40
0.9988657878999999
 40
0.9996484192
 40
1.0
 40
1.0
 40
1.0
 40
1.0
 10
51841.21881029532
 20
11002.75858942161
 30
0.0
 10
51840.2664296884
 20
11002.7569585002
 30
0.0
 10
51838.47201327157
 20
11002.75353563949
 30
0.0
 10
51836.30017192642
 20
11002.74793375414
 30
0.0
 10
51834.73346942622
 20
11002.74262421603
 30
0.0
 10
51833.69267374947
 20
11002.73839360875
 30
0.0
 10
51832.74507386149
 20
11002.73368436702
 30
0.0
 10
51831.8929998828
 20
11002.72846002719
 30
0.0
 10
51831.13820913548
 20
11002.7227350085
 30
0.0
 10
51830.48190270415
 20
11002.71646158272
 30
0.0
 10
51829.9249063268
 20
11002.70956741784
 30
0.0
 10
51829.52314616617
 20
11002.70292346787
 30
0.0
 10
51829.2519419462
 20
11002.69692784887
 30
0.0
 10
51829.08642046764
 20
11002.69248080863
 30
0.0
 10
51828.9462105542
 20
11002.68775190295
 30
0.0
 10
51828.83161244267
 20
11002.6828634125
 30
0.0
 10
51828.74210251905
 20
11002.67749204035
 30
0.0
 10
51828.67913968348
 20
11002.6725441002
 30
0.0
 10
51828.64088730364
 20
11002.66679099959
 30
0.0
 10
51828.62502075081
 20
11002.66294201334
 30
0.0
 10
51828.62004973888
 20
11002.65948398833
 30
0.0
 10
51828.62020348456
 20
11002.65801511594
 30
0.0
  0
LINE
  5
6842
330
200
100
AcDbEntity
  8
0
  6
Continuous
 62
     7
100
AcDbLine
 10
52704.16017054194
 20
11002.80339760812
 30
0.0
 11
52695.16507103952
 21
11002.77788421236
 31
0.0
  0
LINE
  5
6843
330
200
100
AcDbEntity
  8
0
  6
Continuous
 62
     7
100
AcDbLine
 10
52695.16507103952
 20
11002.77788421236
 30
0.0
 11
52694.47293912206
 21
11002.77587333525
 31
0.0
  0
LINE
  5
6844
330
200
100
AcDbEntity
  8
0
  6
Continuous
 62
     7
100
AcDbLine
 10
52694.47293912206
 20
11002.77587333525
 30
0.0
 11
52688.50408313749
 21
11002.75854856665
 31
0.0
  0
LINE
  5
6845
330
200
100
AcDbEntity
  8
0
  6
Continuous
 62
     7
100
AcDbLine
 10
52616.31023434744
 20
11016.7889463789
 30
0.0
 11
52616.94831657307
 21
11006.90189878222
 31
0.0
  0
LINE
  5
6846
330
200
100
AcDbEntity
  8
0
  6
Continuous
 62
     7
100
AcDbLine
 10
52690.96268063414
 20
11006.83168986247
 30
0.0
 11
52656.28659075025
 21
11006.90248333606
 31
0.0
  0
LINE
  5
6847
330
200
100
AcDbEntity
  8
0
  6
Continuous
 62
     7
100
AcDbLine
 10
52707.9151178383
 20
11006.79575915588
 30
0.0
 11
52690.96268063414
 21
11006.83168986247
 31
0.0
  0
SPLINE
  5
6848
330
200
100
AcDbEntity
  8
0
  6
Continuous
 62
     7
100
AcDbSpline
210
0.0
220
0.0
230
1.0
 70
     8
 71
     3
 72
    13
 73
     9
 74
     0
 42
0.0000000001
 43
0.0000000001
 40
0.0
 40
0.0
 40
0.0
 40
0.0
 40
0.2601261572
 40
0.5160956897000001
 40
0.6412322608
 40
0.7637872871
 40
0.8833821979999999
 40
1.0
 40
1.0
 40
1.0
 40
1.0
 10
52616.94831657307
 20
11006.90189878222
 30
0.0
 10
52616.14721174279
 20
11006.89425462877
 30
0.0
 10
52614.55801746403
 20
11006.85504982662
 30
0.0
 10
52612.58597682244
 20
11006.72757023426
 30
0.0
 10
52611.04595732669
 20
11006.5375137597
 30
0.0
 10
52609.93200456191
 20
11006.33561833307
 30
0.0
 10
52608.86306392873
 20
11006.05040305116
 30
0.0
 10
52608.18479767224
 20
11005.77815873823
 30
0.0
 10
52607.86505957804
 20
11005.61455973016
 30
0.0
  0
SPLINE
  5
6849
330
200
100
AcDbEntity
  8
0
  6
Continuous
 62
     7
100
AcDbSpline
210
0.0
220
0.0
230
1.0
 70
     8
 71
     3
 72
     8
 73
     4
 74
     0
 42
0.0000000001
 43
0.0000000001
 40
0.0
 40
0.0
 40
0.0
 40
0.0
 40
1.0
 40
1.0
 40
1.0
 40
1.0
 10
52607.86505957804
 20
11005.61455973016
 30
0.0
 10
52607.6246681537
 20
11009.33934739069
 30
0.0
 10
52607.38300029202
 20
11013.06405294988
 30
0.0
 10
52607.14404742467
 20
11016.78893317348
 30
0.0
  0
LINE
  5
684A
330
200
100
AcDbEntity
  8
0
  6
Continuous
 62
     7
100
AcDbLine
 10
52910.72555411449
 20
11020.84167638031
 30
0.0
 11
52879.28054798468
 21
11020.93923173971
 31
0.0
  0
LINE
  5
684B
330
200
100
AcDbEntity
  8
0
  6
Continuous
 62
     7
100
AcDbLine
 10
52879.28054798468
 20
11020.93923173971
 30
0.0
 11
52752.91913286814
 21
11021.33162609233
 31
0.0
  0
LINE
  5
684C
330
200
100
AcDbEntity
  8
0
  6
Continuous
 62
     7
100
AcDbLine
 10
52772.62765557189
 20
11272.36949250821
 30
0.0
 11
52906.27134411301
 21
11272.12100598607
 31
0.0
  0
LINE
  5
684D
330
200
100
AcDbEntity
  8
0
  6
Continuous
 62
     7
100
AcDbLine
 10
52906.27134411301
 20
11272.12100598607
 30
0.0
 11
52951.10243196702
 21
11272.04095646007
 31
0.0
  0
SPLINE
  5
684E
330
200
100
AcDbEntity
  8
0
  6
Continuous
 62
     7
100
AcDbSpline
210
0.0
220
0.0
230
1.0
 70
     8
 71
     3
 72
    17
 73
    13
 74
     0
 42
0.0000000001
 43
0.0000000001
 40
0.0
 40
0.0
 40
0.0
 40
0.0
 40
0.1274306937
 40
0.2545931808
 40
0.3811757913
 40
0.5070128653000001
 40
0.5696325331000001
 40
0.6319982127000001
 40
0.7558259663
 40
0.8173570991
 40
0.8785811226000001
 40
1.0
 40
1.0
 40
1.0
 40
1.0
 10
52622.68823392738
 20
10973.09725487533
 30
0.0
 10
52624.7305679435
 20
10973.17839517536
 30
0.0
 10
52628.80487672941
 20
10973.70266195301
 30
0.0
 10
52634.67313592118
 20
10975.52172099154
 30
0.0
 10
52640.11020339474
 20
10978.32927870058
 30
0.0
 10
52644.15687333609
 20
10981.40073003514
 30
0.0
 10
52647.02062809019
 20
10984.23287028869
 30
0.0
 10
52649.60656498726
 20
10987.27777641765
 30
0.0
 10
52651.78371058328
 20
10990.62907481316
 30
0.0
 10
52653.49594870452
 20
10994.19889865587
 30
0.0
 10
52654.8816337855
 20
10997.86579062797
 30
0.0
 10
52655.56772043251
 20
11000.73248724667
 30
0.0
 10
52655.85999693327
 20
11002.6579481373
 30
0.0
  0
SPLINE
  5
684F
330
200
100
AcDbEntity
  8
06___PRT_ALL_SURFS
  6
Continuous
 62
     7
100
AcDbSpline
210
0.0
220
0.0
230
1.0
 70
     8
 71
     3
 72
    11
 73
     7
 74
     0
 42
0.0000000001
 43
0.0000000001
 40
0.0
 40
0.0
 40
0.0
 40
0.0
 40
0.2439123883
 40
0.4924452436
 40
0.7448767908000001
 40
1.0
 40
1.0
 40
1.0
 40
1.0
 10
52568.6253417024
 20
10996.52625993413
 30
0.0
 10
52569.04233006186
 20
10994.01684682064
 30
0.0
 10
52570.65853123161
 20
10989.046118203
 30
0.0
 10
52575.22675246566
 20
10982.61809774216
 30
0.0
 10
52581.61337043329
 20
10977.7890641157
 30
0.0
 10
52586.70279934285
 20
10976.00250011965
 30
0.0
 10
52589.31890659678
 20
10975.51717928101
 30
0.0
  0
LINE
  5
6850
330
200
100
AcDbEntity
  8
0
  6
Continuous
 62
     7
100
AcDbLine
 10
52399.94116931439
 20
11021.26944337798
 30
0.0
 11
52399.94232217116
 21
11032.57799827005
 31
0.0
  0
SPLINE
  5
6851
330
200
100
AcDbEntity
  8
0
  6
Continuous
 62
     7
100
AcDbSpline
210
0.0
220
0.0
230
1.0
 70
     8
 71
     3
 72
     9
 73
     5
 74
     0
 42
0.0000000001
 43
0.0000000001
 40
0.0
 40
0.0
 40
0.0
 40
0.0
 40
0.2496476098
 40
1.0
 40
1.0
 40
1.0
 40
1.0
 10
52399.94232217116
 20
11032.57799827005
 30
0.0
 10
52399.94420852434
 20
11051.72528950723
 30
0.0
 10
52399.95041942829
 20
11128.42256402089
 30
0.0
 10
52399.94936971654
 20
11205.11983932661
 30
0.0
 10
52399.94270958905
 20
11262.6698223961
 30
0.0
  0
LINE
  5
6852
330
200
100
AcDbEntity
  8
0
  6
Continuous
 62
     7
100
AcDbLine
 10
52399.94270958905
 20
11262.6698223961
 30
0.0
 11
52399.94246225737
 21
11264.78452278583
 31
0.0
  0
LINE
  5
6853
330
200
100
AcDbEntity
  8
0
  6
Continuous
 62
     7
100
AcDbLine
 10
52399.94246225737
 20
11264.78452278583
 30
0.0
 11
52399.94152009893
 21
11272.46409287512
 31
0.0
  0
SPLINE
  5
6854
330
200
100
AcDbEntity
  8
0
  6
Continuous
 62
     7
100
AcDbSpline
210
0.0
220
0.0
230
1.0
 70
     8
 71
     3
 72
     8
 73
     4
 74
     0
 42
0.0000000001
 43
0.0000000001
 40
0.0
 40
0.0
 40
0.0
 40
0.0
 40
1.0
 40
1.0
 40
1.0
 40
1.0
 10
52399.94152009893
 20
11272.46409287512
 30
0.0
 10
52524.17023191596
 20
11272.43253074364
 30
0.0
 10
52648.39894362319
 20
11272.4005321026
 30
0.0
 10
52772.62765557189
 20
11272.36949250821
 30
0.0
  0
SPLINE
  5
6855
330
200
100
AcDbEntity
  8
0
  6
Continuous
 62
     7
100
AcDbSpline
210
0.0
220
0.0
230
1.0
 70
     8
 71
     3
 72
    18
 73
    14
 74
     0
 42
0.0000000001
 43
0.0000000001
 40
0.0
 40
0.0
 40
0.0
 40
0.0
 40
0.0071545337
 40
0.0225178245
 40
0.0468317198
 40
0.080028126
 40
0.1219134362
 40
0.1722400317
 40
0.2961887071
 40
0.4470843089
 40
0.6197623682
 40
0.8069467176999999
 40
1.0
 40
1.0
 40
1.0
 40
1.0
 10
52396.94069164589
 20
11272.62652412739
 30
0.0
 10
52396.94069129874
 20
11272.61933080974
 30
0.0
 10
52396.96439427194
 20
11272.6043068936
 30
0.0
 10
52397.00632043687
 20
11272.59253474673
 30
0.0
 10
52397.07984272735
 20
11272.57682527037
 30
0.0
 10
52397.1780421047
 20
11272.56281557178
 30
0.0
 10
52397.30361868144
 20
11272.5485110952
 30
0.0
 10
52397.51998924327
 20
11272.5293554147
 30
0.0
 10
52397.84640269768
 20
11272.5088317012
 30
0.0
 10
52398.29591487898
 20
11272.48942787437
 30
0.0
 10
52398.80926930083
 20
11272.47506981132
 30
0.0
 10
52399.36511751071
 20
11272.46616359516
 30
0.0
 10
52399.74742029913
 20
11272.46408924325
 30
0.0
 10
52399.94152010297
 20
11272.46409212507
 30
0.0
  0
SPLINE
  5
6856
330
200
100
AcDbEntity
  8
0
  6
Continuous
 62
     7
100
AcDbSpline
210
0.0
220
0.0
230
1.0
 70
     8
 71
     3
 72
    17
 73
    13
 74
     0
 42
0.0000000001
 43
0.0000000001
 40
0.0
 40
0.0
 40
0.0
 40
0.0
 40
0.0110451402
 40
0.0284277924
 40
0.053868518
 40
0.0876771948
 40
0.1298178
 40
0.1801235511
 40
0.3033981588
 40
0.4530023716
 40
0.6239431018000001
 40
1.0
 40
1.0
 40
1.0
 40
1.0
 10
52396.94069164589
 20
11021.581150579
 30
0.0
 10
52396.94069202561
 20
11021.56992162071
 30
0.0
 10
52396.95813436743
 20
11021.54291005195
 30
0.0
 10
52397.00561330189
 20
11021.51570254285
 30
0.0
 10
52397.07822702848
 20
11021.48658905158
 30
0.0
 10
52397.1775799181
 20
11021.45886673291
 30
0.0
 10
52397.3030657532
 20
11021.43160041819
 30
0.0
 10
52397.51930883534
 20
11021.39474404551
 30
0.0
 10
52397.84566549958
 20
11021.35538892093
 30
0.0
 10
52398.29538621701
 20
11021.31808032292
 30
0.0
 10
52399.00263782085
 20
11021.28020779584
 30
0.0
 10
52399.55885390887
 20
11021.26943819302
 30
0.0
 10
52399.94116931272
 20
11021.26944447546
 30
0.0
  0
SPLINE
  5
6857
330
200
100
AcDbEntity
  8
0
  6
Continuous
 62
     7
100
AcDbSpline
210
0.0
220
0.0
230
1.0
 70
     8
 71
     3
 72
     8
 73
     4
 74
     0
 42
0.0000000001
 43
0.0000000001
 40
0.0
 40
0.0
 40
0.0
 40
0.0
 40
1.0
 40
1.0
 40
1.0
 40
1.0
 10
52752.91913286814
 20
11021.33162609233
 30
0.0
 10
52635.25981179437
 20
11021.31027879484
 30
0.0
 10
52517.6004905497
 20
11021.28988100967
 30
0.0
 10
52399.94116931439
 20
11021.26944337798
 30
0.0
  0
LINE
  5
6858
330
200
100
AcDbEntity
  8
0
  6
Continuous
 62
     7
100
AcDbLine
 10
52688.50405506615
 20
11002.75835820161
 30
0.0
 11
52695.01918997494
 21
11002.26654375052
 31
0.0
  0
LINE
  5
6859
330
200
100
AcDbEntity
  8
0
  6
Continuous
 62
     7
100
AcDbLine
 10
52695.01918997494
 20
11002.26654375052
 30
0.0
 11
52703.94267057076
 21
11001.59299637812
 31
0.0
  0
SPLINE
  5
685A
330
200
100
AcDbEntity
  8
0
  6
Continuous
 62
     7
100
AcDbSpline
210
0.0
220
0.0
230
1.0
 70
     8
 71
     3
 72
    11
 73
     7
 74
     0
 42
0.0000000001
 43
0.0000000001
 40
0.0
 40
0.0
 40
0.0
 40
0.0
 40
0.2123176134
 40
0.4510993762
 40
0.7163383834000001
 40
1.0
 40
1.0
 40
1.0
 40
1.0
 10
52689.4908019056
 20
11004.38265742759
 30
0.0
 10
52689.68733280583
 20
11004.46013477615
 30
0.0
 10
52690.07079910066
 20
11004.7155229123
 30
0.0
 10
52690.51371769331
 20
11005.28513803122
 30
0.0
 10
52690.82671631294
 20
11006.01110018752
 30
0.0
 10
52690.93429781441
 20
11006.55088465028
 30
0.0
 10
52690.96267201514
 20
11006.83169181992
 30
0.0
  0
SPLINE
  5
685B
330
200
100
AcDbEntity
  8
0
  6
Continuous
 62
     7
100
AcDbSpline
210
0.0
220
0.0
230
1.0
 70
     8
 71
     3
 72
     9
 73
     5
 74
     0
 42
0.0000000001
 43
0.0000000001
 40
0.0
 40
0.0
 40
0.0
 40
0.0
 40
0.4798082528000001
 40
1.0
 40
1.0
 40
1.0
 40
1.0
 10
52609.23673528507
 20
11003.86174813303
 30
0.0
 10
52608.96152581358
 20
11004.09008310987
 30
0.0
 10
52608.44970639987
 20
11004.64070678939
 30
0.0
 10
52608.04505009811
 20
11005.27118885837
 30
0.0
 10
52607.86520625578
 20
11005.61464913441
 30
0.0
  0
LINE
  5
685C
330
200
100
AcDbEntity
  8
0
  6
Continuous
 62
     7
100
AcDbLine
 10
52705.6617934143
 20
11004.39338541958
 30
0.0
 11
52689.49081584018
 21
11004.38268617097
 31
0.0
  0
LINE
  5
685D
330
200
100
AcDbEntity
  8
0
  6
Continuous
 62
     7
100
AcDbLine
 10
52689.49080481059
 20
11004.38265365214
 30
0.0
 11
52656.29504783144
 21
11004.35579765207
 31
0.0
  0
SPLINE
  5
685E
330
200
100
AcDbEntity
  8
0
  6
Continuous
 62
     7
100
AcDbSpline
210
0.0
220
0.0
230
1.0
 70
     8
 71
     3
 72
     8
 73
     4
 74
     0
 42
0.0000000001
 43
0.0000000001
 40
0.0
 40
0.0
 40
0.0
 40
0.0
 40
1.0
 40
1.0
 40
1.0
 40
1.0
 10
52656.29504783144
 20
11004.35579765207
 30
0.0
 10
52656.14997512096
 20
11004.35563566397
 30
0.0
 10
52656.0049022902
 20
11004.35556809647
 30
0.0
 10
52655.85982948929
 20
11004.35556795739
 30
0.0
  0
SPLINE
  5
685F
330
200
100
AcDbEntity
  8
0
  6
Continuous
 62
     7
100
AcDbSpline
210
0.0
220
0.0
230
1.0
 70
     8
 71
     3
 72
    11
 73
     7
 74
     0
 42
0.0000000001
 43
0.0000000001
 40
0.0
 40
0.0
 40
0.0
 40
0.0
 40
0.2129024094
 40
0.451822357
 40
0.7167996409000001
 40
1.0
 40
1.0
 40
1.0
 40
1.0
 10
52689.49080481059
 20
11004.38265365214
 30
0.0
 10
52689.35962253955
 20
11004.33124368491
 30
0.0
 10
52689.10357191312
 20
11004.16217876422
 30
0.0
 10
52688.80680287259
 20
11003.78462729405
 30
0.0
 10
52688.59627832065
 20
11003.3031977972
 30
0.0
 10
52688.5231346521
 20
11002.94496899987
 30
0.0
 10
52688.50346368664
 20
11002.75858548537
 30
0.0
  0
SPLINE
  5
6860
330
200
100
AcDbEntity
  8
0
  6
Continuous
 62
     7
100
AcDbSpline
210
0.0
220
0.0
230
1.0
 70
     8
 71
     3
 72
    12
 73
     8
 74
     0
 42
0.0000000001
 43
0.0000000001
 40
0.0
 40
0.0
 40
0.0
 40
0.0
 40
0.2518238029
 40
0.5030321798
 40
0.7528316677
 40
0.8768622789
 40
1.0
 40
1.0
 40
1.0
 40
1.0
 10
52616.94831657307
 20
11004.35556689663
 30
0.0
 10
52616.29856437417
 20
11004.35556831193
 30
0.0
 10
52615.00058501098
 20
11004.34631583601
 30
0.0
 10
52613.05878557784
 20
11004.29568927904
 30
0.0
 10
52611.44793292895
 20
11004.19957905663
 30
0.0
 10
52610.17409652865
 20
11004.05026353708
 30
0.0
 10
52609.54557097188
 20
11003.93635114064
 30
0.0
 10
52609.23673528526
 20
11003.86174971673
 30
0.0
  0
SPLINE
  5
6861
330
200
100
AcDbEntity
  8
0
  6
Continuous
 62
     7
100
AcDbSpline
210
0.0
220
0.0
230
1.0
 70
     8
 71
     3
 72
     9
 73
     5
 74
     0
 42
0.0000000001
 43
0.0000000001
 40
0.0
 40
0.0
 40
0.0
 40
0.0
 40
0.4968525165
 40
1.0
 40
1.0
 40
1.0
 40
1.0
 10
52609.23673528526
 20
11003.86174971673
 30
0.0
 10
52608.50393443096
 20
11003.6848913094
 30
0.0
 10
52607.03737074702
 20
11003.2946576845
 30
0.0
 10
52605.57983999868
 20
11002.87324030284
 30
0.0
 10
52604.847416707
 20
11002.65801230621
 30
0.0
  0
SPLINE
  5
6862
330
200
100
AcDbEntity
  8
0
  6
Continuous
 62
     7
100
AcDbSpline
210
0.0
220
0.0
230
1.0
 70
     8
 71
     3
 72
     9
 73
     5
 74
     0
 42
0.0000000001
 43
0.0000000001
 40
0.0
 40
0.0
 40
0.0
 40
0.0
 40
0.5000001069
 40
1.0
 40
1.0
 40
1.0
 40
1.0
 10
52604.85075307385
 20
11002.65801230621
 30
0.0
 10
52604.69945248094
 20
11005.01324051355
 30
0.0
 10
52604.38887196945
 20
11009.72317981938
 30
0.0
 10
52604.08711667248
 20
11014.43369059884
 30
0.0
 10
52603.93596842158
 20
11016.78892757636
 30
0.0
  0
SPLINE
  5
6863
330
200
100
AcDbEntity
  8
0
  6
Continuous
 62
     7
100
AcDbSpline
210
0.0
220
0.0
230
1.0
 70
     8
 71
     3
 72
     9
 73
     5
 74
     0
 42
0.0000000001
 43
0.0000000001
 40
0.0
 40
0.0
 40
0.0
 40
0.0
 40
0.487955105
 40
1.0
 40
1.0
 40
1.0
 40
1.0
 10
52607.86508107007
 20
11005.61453088801
 30
0.0
 10
52607.34798371065
 20
11005.16290292953
 30
0.0
 10
52606.33054577427
 20
11004.18938441122
 30
0.0
 10
52605.34943828758
 20
11003.18099875364
 30
0.0
 10
52604.85054330108
 20
11002.66123834121
 30
0.0
  0
SPLINE
  5
6864
330
200
100
AcDbEntity
  8
0
  6
Continuous
 62
     7
100
AcDbSpline
210
0.0
220
0.0
230
1.0
 70
     8
 71
     3
 72
    11
 73
     7
 74
     0
 42
0.0000000001
 43
0.0000000001
 40
0.0
 40
0.0
 40
0.0
 40
0.0
 40
0.1038499659
 40
0.4025666440000001
 40
0.701283322
 40
1.0
 40
1.0
 40
1.0
 40
1.0
 10
51747.01637829764
 20
10503.78673823204
 30
0.0
 10
51748.53031590851
 20
10509.22587512804
 30
0.0
 10
51755.86054545491
 20
10528.84872008852
 30
0.0
 10
51777.7639722531
 20
10553.8983677972
 30
0.0
 10
51820.19403205283
 20
10571.46830799746
 30
0.0
 10
51856.66234005029
 20
10575.0
 30
0.0
 10
51876.66234005028
 20
10575.0
 30
0.0
  0
SPLINE
  5
6865
330
200
100
AcDbEntity
  8
0
  6
Continuous
 62
     7
100
AcDbSpline
210
0.0
220
0.0
230
1.0
 70
     8
 71
     3
 72
    11
 73
     7
 74
     0
 42
0.0000000001
 43
0.0000000001
 40
0.0
 40
0.0
 40
0.0
 40
0.0
 40
0.2987165198
 40
0.5974330396000001
 40
0.8961495593999998
 40
1.0
 40
1.0
 40
1.0
 40
1.0
 10
51876.66234005028
 20
10575.0
 30
0.0
 10
51896.66234005028
 20
10575.0
 30
0.0
 10
51933.13064804773
 20
10571.46830799746
 30
0.0
 10
51975.56070784749
 20
10553.8983677972
 30
0.0
 10
51997.46415118781
 20
10528.84870117027
 30
0.0
 10
52004.79438347986
 20
10509.22582349506
 30
0.0
 10
52006.30832496595
 20
10503.7866550139
 30
0.0
  0
SPLINE
  5
6866
330
200
100
AcDbEntity
  8
0
  6
Continuous
 62
     7
100
AcDbSpline
210
0.0
220
0.0
230
1.0
 70
     8
 71
     3
 72
     9
 73
     5
 74
     0
 42
0.0000000001
 43
0.0000000001
 40
0.0
 40
0.0
 40
0.0
 40
0.0
 40
0.2730015746
 40
1.0
 40
1.0
 40
1.0
 40
1.0
 10
51823.44400133008
 20
10523.05002029655
 30
0.0
 10
51823.54259656394
 20
10522.95546162904
 30
0.0
 10
51823.90609278371
 20
10522.61156835904
 30
0.0
 10
51824.2792544245
 20
10522.27773346335
 30
0.0
 10
51824.55769436553
 20
10522.04360766533
 30
0.0
  0
SPLINE
  5
6867
330
200
100
AcDbEntity
  8
0
  6
Continuous
 62
     7
100
AcDbSpline
210
0.0
220
0.0
230
1.0
 70
     8
 71
     3
 72
     9
 73
     5
 74
     0
 42
0.0000000001
 43
0.0000000001
 40
0.0
 40
0.0
 40
0.0
 40
0.0
 40
0.2671698714
 40
1.0
 40
1.0
 40
1.0
 40
1.0
 10
51824.55769436553
 20
10522.04360766533
 30
0.0
 10
51824.61636708387
 20
10521.99427279997
 30
0.0
 10
51824.83719213423
 20
10521.81107538916
 30
0.0
 10
51825.06301027379
 20
10521.63383689501
 30
0.0
 10
51825.23183414989
 20
10521.50849370087
 30
0.0
  0
SPLINE
  5
6868
330
200
100
AcDbEntity
  8
0
  6
Continuous
 62
     7
100
AcDbSpline
210
0.0
220
0.0
230
1.0
 70
     8
 71
     3
 72
     9
 73
     5
 74
     0
 42
0.0000000001
 43
0.0000000001
 40
0.0
 40
0.0
 40
0.0
 40
0.0
 40
0.5360567057
 40
1.0
 40
1.0
 40
1.0
 40
1.0
 10
51826.98580406871
 20
10520.53404966773
 30
0.0
 10
51827.15140681252
 20
10520.48061894591
 30
0.0
 10
51827.4683205216
 20
10520.40330501442
 30
0.0
 10
51827.79227186776
 20
10520.37325308985
 30
0.0
 10
51827.94267606928
 20
10520.36557096299
 30
0.0
  0
SPLINE
  5
6869
330
200
100
AcDbEntity
  8
0
  6
Continuous
 62
     7
100
AcDbSpline
210
0.0
220
0.0
230
1.0
 70
     8
 71
     3
 72
     9
 73
     5
 74
     0
 42
0.0000000001
 43
0.0000000001
 40
0.0
 40
0.0
 40
0.0
 40
0.0
 40
0.2692282464
 40
1.0
 40
1.0
 40
1.0
 40
1.0
 10
51823.15896368453
 20
10522.81477334878
 30
0.0
 10
51823.29035304616
 20
10522.76599923833
 30
0.0
 10
51823.77550947988
 20
10522.57723327045
 30
0.0
 10
51824.24908391748
 20
10522.35851891942
 30
0.0
 10
51824.58593809048
 20
10522.18176207491
 30
0.0
  0
SPLINE
  5
686A
330
200
100
AcDbEntity
  8
0
  6
Continuous
 62
     7
100
AcDbSpline
210
0.0
220
0.0
230
1.0
 70
     8
 71
     3
 72
     9
 73
     5
 74
     0
 42
0.0000000001
 43
0.0000000001
 40
0.0
 40
0.0
 40
0.0
 40
0.0
 40
0.5463544430000001
 40
1.0
 40
1.0
 40
1.0
 40
1.0
 10
51825.33752092199
 20
10521.74950685109
 30
0.0
 10
51825.62347858032
 20
10521.56990506886
 30
0.0
 10
51826.13189839855
 20
10521.21678360735
 30
0.0
 10
51826.61438777532
 20
10520.83037675352
 30
0.0
 10
51826.83293878847
 20
10520.65473755457
 30
0.0
  0
SPLINE
  5
686B
330
200
100
AcDbEntity
  8
0
  6
Continuous
 62
     7
100
AcDbSpline
210
0.0
220
0.0
230
1.0
 70
     8
 71
     3
 72
     9
 73
     5
 74
     0
 42
0.0000000001
 43
0.0000000001
 40
0.0
 40
0.0
 40
0.0
 40
0.0
 40
0.5423890758
 40
1.0
 40
1.0
 40
1.0
 40
1.0
 10
51826.97771089709
 20
10520.53874338587
 30
0.0
 10
51827.11132133227
 20
10520.43224606067
 30
0.0
 10
51827.35894118063
 20
10520.23776319139
 30
0.0
 10
51827.62528043221
 20
10520.06649111704
 30
0.0
 10
51827.75469567075
 20
10520.00299153798
 30
0.0
  0
SPLINE
  5
686C
330
200
100
AcDbEntity
  8
0
  6
Continuous
 62
     7
100
AcDbSpline
210
0.0
220
0.0
230
1.0
 70
     8
 71
     3
 72
     9
 73
     5
 74
     0
 42
0.0000000001
 43
0.0000000001
 40
0.0
 40
0.0
 40
0.0
 40
0.0
 40
0.2563012459
 40
1.0
 40
1.0
 40
1.0
 40
1.0
 10
51827.75469567075
 20
10520.00299153798
 30
0.0
 10
51827.76933617162
 20
10519.99580795085
 30
0.0
 10
51827.82683238231
 20
10519.9685586046
 30
0.0
 10
51827.8859458091
 20
10519.94464365912
 30
0.0
 10
51827.93072073528
 20
10519.92933387055
 30
0.0
  0
SPLINE
  5
686D
330
200
100
AcDbEntity
  8
0
  6
Continuous
 62
     7
100
AcDbSpline
210
0.0
220
0.0
230
1.0
 70
     8
 71
     3
 72
    15
 73
    11
 74
     0
 42
0.0000000001
 43
0.0000000001
 40
0.0
 40
0.0
 40
0.0
 40
0.0
 40
0.2499884099
 40
0.3749950466
 40
0.4999994778000001
 40
0.6249989339999999
 40
0.7499875683
 40
0.8749483648
 40
0.9374841448999999
 40
1.0
 40
1.0
 40
1.0
 40
1.0
 10
51876.66234005028
 20
10528.33527350844
 30
0.0
 10
51879.74412269602
 20
10528.33527350873
 30
0.0
 10
51884.36925281512
 20
10528.22466809059
 30
0.0
 10
51890.51635988921
 20
10527.75300408442
 30
0.0
 10
51895.10793570333
 20
10527.19871261115
 30
0.0
 10
51899.66164205971
 20
10526.38388138519
 30
0.0
 10
51904.1445225878
 20
10525.23701542409
 30
0.0
 10
51907.76816845046
 20
10523.89607549021
 30
0.0
 10
51910.52643855882
 20
10522.51466152753
 30
0.0
 10
51911.83974287656
 20
10521.70091336001
 30
0.0
 10
51912.46989519004
 20
10521.25723458969
 30
0.0
  0
SPLINE
  5
686E
330
200
100
AcDbEntity
  8
0
  6
Continuous
 62
     7
100
AcDbSpline
210
0.0
220
0.0
230
1.0
 70
     8
 71
     3
 72
    15
 73
    11
 74
     0
 42
0.0000000001
 43
0.0000000001
 40
0.0
 40
0.0
 40
0.0
 40
0.0
 40
0.0625155179
 40
0.1250428456
 40
0.2500029509
 40
0.3749907585
 40
0.4999915576
 40
0.6249974555
 40
0.7500062798
 40
1.0
 40
1.0
 40
1.0
 40
1.0
 10
51840.8547665911
 20
10521.25722504735
 30
0.0
 10
51841.48491623509
 20
10521.70090144163
 30
0.0
 10
51842.79813612875
 20
10522.51457972717
 30
0.0
 10
51845.55626072884
 20
10523.89602735139
 30
0.0
 10
51849.17980677435
 20
10525.23689734389
 30
0.0
 10
51853.66265830137
 20
10526.38388119616
 30
0.0
 10
51858.21641183398
 20
10527.19861236616
 30
0.0
 10
51862.80803387363
 20
10527.75305487783
 30
0.0
 10
51868.95526854606
 20
10528.22459569004
 30
0.0
 10
51873.58048951549
 20
10528.33527350814
 30
0.0
 10
51876.66234005028
 20
10528.33527350844
 30
0.0
  0
SPLINE
  5
686F
330
200
100
AcDbEntity
  8
0
  6
Continuous
 62
     7
100
AcDbSpline
210
0.0
220
0.0
230
1.0
 70
     8
 71
     3
 72
    14
 73
    10
 74
     0
 42
0.0000000001
 43
0.0000000001
 40
0.0
 40
0.0
 40
0.0
 40
0.0
 40
0.1250811821
 40
0.2501005198
 40
0.3751196504999999
 40
0.5001059635000001
 40
0.6251209562
 40
0.7501223258
 40
1.0
 40
1.0
 40
1.0
 40
1.0
 10
51974.16797389337
 20
10547.59884086365
 30
0.0
 10
51975.64607217387
 20
10544.90454561819
 30
0.0
 10
51978.34984659322
 20
10539.37546257762
 30
0.0
 10
51981.67028350956
 20
10530.767814089
 30
0.0
 10
51984.32111017538
 20
10521.93494694118
 30
0.0
 10
51986.36573373721
 20
10512.94442387585
 30
0.0
 10
51987.86046721451
 20
10503.84782835095
 30
0.0
 10
51989.20191122351
 20
10491.63514782794
 30
0.0
 10
51989.55324705597
 20
10482.41691220805
 30
0.0
 10
51989.56318039553
 20
10476.27769596648
 30
0.0
  0
LINE
  5
6870
330
200
100
AcDbEntity
  8
0
  6
Continuous
 62
     7
100
AcDbLine
 10
51753.28340852084
 20
10520.24673176147
 30
0.0
 11
51753.29644851911
 21
10519.36021021826
 31
0.0
  0
SPLINE
  5
6871
330
200
100
AcDbEntity
  8
0
  6
Continuous
 62
     7
100
AcDbSpline
210
0.0
220
0.0
230
1.0
 70
     8
 71
     3
 72
     8
 73
     4
 74
     0
 42
0.0000000001
 43
0.0000000001
 40
0.0
 40
0.0
 40
0.0
 40
0.0
 40
1.0
 40
1.0
 40
1.0
 40
1.0
 10
51743.37795681901
 20
10363.74880658173
 30
0.0
 10
51743.32143705495
 20
10401.95433011298
 30
0.0
 10
51743.26317130122
 20
10440.15985110188
 30
0.0
 10
51743.20314406804
 20
10478.3653692833
 30
0.0
  0
SPLINE
  5
6872
330
200
100
AcDbEntity
  8
0
  6
Continuous
 62
     7
100
AcDbSpline
210
0.0
220
0.0
230
1.0
 70
     8
 71
     3
 72
     9
 73
     5
 74
     0
 42
0.0000000001
 43
0.0000000001
 40
0.0
 40
0.0
 40
0.0
 40
0.0
 40
0.5473684365000001
 40
1.0
 40
1.0
 40
1.0
 40
1.0
 10
51744.340716158
 20
10481.93909431031
 30
0.0
 10
51744.45606208549
 20
10482.31736953711
 30
0.0
 10
51744.6880029806
 20
10483.00222073262
 30
0.0
 10
51744.97516949783
 20
10483.66678568898
 30
0.0
 10
51745.12415521206
 20
10483.95790022619
 30
0.0
  0
LINE
  5
6873
330
200
100
AcDbEntity
  8
0
  6
Continuous
 62
     7
100
AcDbLine
 10
51745.27047587573
 20
10487.89091443698
 30
0.0
 11
51745.25043189707
 21
10487.33897860708
 31
0.0
  0
SPLINE
  5
6874
330
200
100
AcDbEntity
  8
0
  6
Continuous
 62
     7
100
AcDbSpline
210
0.0
220
0.0
230
1.0
 70
     8
 71
     3
 72
     8
 73
     4
 74
     0
 42
0.0000000001
 43
0.0000000001
 40
0.0
 40
0.0
 40
0.0
 40
0.0
 40
1.0
 40
1.0
 40
1.0
 40
1.0
 10
51745.25043189707
 20
10487.33897860708
 30
0.0
 10
51745.23981347028
 20
10487.04788760911
 30
0.0
 10
51745.22912168098
 20
10486.75679927951
 30
0.0
 10
51745.21836269502
 20
10486.46571344284
 30
0.0
  0
SPLINE
  5
6875
330
200
100
AcDbEntity
  8
0
  6
Continuous
 62
     7
100
AcDbSpline
210
0.0
220
0.0
230
1.0
 70
     8
 71
     3
 72
     9
 73
     5
 74
     0
 42
0.0000000001
 43
0.0000000001
 40
0.0
 40
0.0
 40
0.0
 40
0.0
 40
0.2504163984
 40
1.0
 40
1.0
 40
1.0
 40
1.0
 10
51745.21836269502
 20
10486.46571344284
 30
0.0
 10
51745.21062526492
 20
10486.25637621291
 30
0.0
 10
51745.17958826505
 20
10485.42042478626
 30
0.0
 10
51745.14803410084
 20
10484.58449259932
 30
0.0
 10
51745.12415521206
 20
10483.95790022619
 30
0.0
  0
SPLINE
  5
6876
330
200
100
AcDbEntity
  8
0
  6
Continuous
 62
     7
100
AcDbSpline
210
0.0
220
0.0
230
1.0
 70
     8
 71
     3
 72
    11
 73
     7
 74
     0
 42
0.0000000001
 43
0.0000000001
 40
0.0
 40
0.0
 40
0.0
 40
0.0
 40
0.2500231979
 40
0.5000700795000001
 40
0.7500821228
 40
1.0
 40
1.0
 40
1.0
 40
1.0
 10
51752.26898967311
 20
10312.71530029999
 30
0.0
 10
51750.77587261333
 20
10316.78880739093
 30
0.0
 10
51748.15558582607
 20
10325.07579733754
 30
0.0
 10
51745.36249564622
 20
10337.80572125977
 30
0.0
 10
51743.71594452251
 20
10350.73167000214
 30
0.0
 10
51743.36979858398
 20
10359.41210998847
 30
0.0
 10
51743.37795681901
 20
10363.74880658173
 30
0.0
  0
SPLINE
  5
6877
330
200
100
AcDbEntity
  8
0
  6
Continuous
 62
     7
100
AcDbSpline
210
0.0
220
0.0
230
1.0
 70
     8
 71
     3
 72
    39
 73
    35
 74
     0
 42
0.0000000001
 43
0.0000000001
 40
0.0
 40
0.0
 40
0.0
 40
0.0
 40
0.0312384026
 40
0.0625007545
 40
0.0937521224
 40
0.1249989423
 40
0.1562489799
 40
0.1874996673
 40
0.2187497494
 40
0.2499995331
 40
0.2812496472
 40
0.3124995861
 40
0.3437496885
 40
0.3749996642
 40
0.4062498053
 40
0.4374998358
 40
0.4687499382000001
 40
0.5000000001
 40
0.531250062
 40
0.5625001645000001
 40
0.5937501950000001
 40
0.6250003360000001
 40
0.6562503116
 40
0.6875004138
 40
0.7187503527
 40
0.7500004671
 40
0.7812502511
 40
0.8125003334999998
 40
0.8437510211999999
 40
0.8750010586
 40
0.9062478773
 40
0.9374992451999998
 40
0.9687615982
 40
1.0
 40
1.0
 40
1.0
 40
1.0
 10
51752.59835118081
 20
10347.96603409862
 30
0.0
 10
51752.88750595142
 20
10344.10747345559
 30
0.0
 10
51753.83129711648
 20
10336.40991634375
 30
0.0
 10
51756.32068283582
 20
10325.05051056796
 30
0.0
 10
51759.8678473016
 20
10313.97349368498
 30
0.0
 10
51764.43603919046
 20
10303.27912028862
 30
0.0
 10
51769.98544034643
 20
10293.05946780455
 30
0.0
 10
51776.46544652909
 20
10283.40260804389
 30
0.0
 10
51783.81993106835
 20
10274.39392729672
 30
0.0
 10
51791.9829499015
 20
10266.11101170229
 30
0.0
 10
51800.88288561894
 20
10258.62552358243
 30
0.0
 10
51810.44209543113
 20
10252.00263095282
 30
0.0
 10
51820.57642312061
 20
10246.29855830438
 30
0.0
 10
51831.19830949792
 20
10241.56398105277
 30
0.0
 10
51842.21440755324
 20
10237.83754613254
 30
0.0
 10
51853.5298303119
 20
10235.15394515303
 30
0.0
 10
51865.04562674631
 20
10233.5331869898
 30
0.0
 10
51876.66234023253
 20
10232.99256422775
 30
0.0
 10
51888.2790537246
 20
10233.53318701467
 30
0.0
 10
51899.79485016444
 20
10235.15394522596
 30
0.0
 10
51911.11027292358
 20
10237.83754621611
 30
0.0
 10
51922.12637094274
 20
10241.56398117952
 30
0.0
 10
51932.74825727812
 20
10246.29855842112
 30
0.0
 10
51942.88258491519
 20
10252.002631101
 30
0.0
 10
51952.44179474176
 20
10258.62552373823
 30
0.0
 10
51961.34173050166
 20
10266.11101191575
 30
0.0
 10
51969.5047493535
 20
10274.3939276488
 30
0.0
 10
51976.85923379942
 20
10283.40260862169
 30
0.0
 10
51983.33924032077
 20
10293.05946820924
 30
0.0
 10
51988.88864159599
 20
10303.27912051883
 30
0.0
 10
51993.45683192158
 20
10313.97349443502
 30
0.0
 10
51997.00399568201
 20
10325.05051131864
 30
0.0
 10
51999.49338832523
 20
10336.40991548615
 30
0.0
 10
52000.4371789185
 20
10344.10747319172
 30
0.0
 10
52000.72632891977
 20
10347.96603409862
 30
0.0
  0
SPLINE
  5
6878
330
200
100
AcDbEntity
  8
0
  6
Continuous
 62
     7
100
AcDbSpline
210
0.0
220
0.0
230
1.0
 70
     8
 71
     3
 72
    11
 73
     7
 74
     0
 42
0.0000000001
 43
0.0000000001
 40
0.0
 40
0.0
 40
0.0
 40
0.0
 40
0.2499179007
 40
0.4999299744
 40
0.7499768725
 40
1.0
 40
1.0
 40
1.0
 40
1.0
 10
52009.94672328158
 20
10363.74880658173
 30
0.0
 10
52009.95486431104
 20
10359.41210955026
 30
0.0
 10
52009.60873401998
 20
10350.7316692459
 30
0.0
 10
52007.9621821468
 20
10337.80571808556
 30
0.0
 10
52005.16909588691
 20
10325.07579531048
 30
0.0
 10
52002.54882610752
 20
10316.78879926291
 30
0.0
 10
52001.05569042746
 20
10312.71530029999
 30
0.0
  0
SPLINE
  5
6879
330
200
100
AcDbEntity
  8
0
  6
Continuous
 62
     7
100
AcDbSpline
210
0.0
220
0.0
230
1.0
 70
     8
 71
     3
 72
     8
 73
     4
 74
     0
 42
0.0000000001
 43
0.0000000001
 40
0.0
 40
0.0
 40
0.0
 40
0.0
 40
1.0
 40
1.0
 40
1.0
 40
1.0
 10
52010.1215360638
 20
10478.36535479718
 30
0.0
 10
52010.06150884424
 20
10440.15984144442
 30
0.0
 10
52010.00324303821
 20
10401.95432528429
 30
0.0
 10
52009.94672328158
 20
10363.74880658173
 30
0.0
  0
SPLINE
  5
687A
330
200
100
AcDbEntity
  8
0
  6
Continuous
 62
     7
100
AcDbSpline
210
0.0
220
0.0
230
1.0
 70
     8
 71
     3
 72
    21
 73
    17
 74
     0
 42
0.0000000001
 43
0.0000000001
 40
0.0
 40
0.0
 40
0.0
 40
0.0
 40
0.1250008701
 40
0.2499866463
 40
0.312494509
 40
0.3750020852
 40
0.4375082169
 40
0.5000111771000001
 40
0.5625108489000001
 40
0.6250081697
 40
0.6875049007
 40
0.7500010019
 40
0.8124957752
 40
0.8749911981999998
 40
0.9374913345999999
 40
1.0
 40
1.0
 40
1.0
 40
1.0
 10
51876.66234005028
 20
10583.0
 30
0.0
 10
51883.76559116295
 20
10583.00002481272
 30
0.0
 10
51897.97628101372
 20
10582.56736577816
 30
0.0
 10
51915.6562502549
 20
10580.65037447598
 30
0.0
 10
51929.63042050358
 20
10578.05650492247
 30
0.0
 10
51939.98448894111
 20
10575.50891897186
 30
0.0
 10
51950.14883025261
 20
10572.2807312719
 30
0.0
 10
51960.04023359716
 20
10568.28746270196
 30
0.0
 10
51969.55059059894
 20
10563.45012353991
 30
0.0
 10
51978.54727455464
 20
10557.70769618351
 30
0.0
 10
51986.87939005486
 20
10551.03206413768
 30
0.0
 10
51994.38645753305
 20
10543.43676433268
 30
0.0
 10
52000.92953565303
 20
10534.99589156891
 30
0.0
 10
52006.41798251317
 20
10525.83522192287
 30
0.0
 10
52010.82660247736
 20
10516.1120951761
 30
0.0
 10
52013.06255006586
 20
10509.35454395669
 30
0.0
 10
52014.01514434777
 20
10505.93256637143
 30
0.0
  0
SPLINE
  5
687B
330
200
100
AcDbEntity
  8
0
  6
Continuous
 62
     7
100
AcDbSpline
210
0.0
220
0.0
230
1.0
 70
     8
 71
     3
 72
    21
 73
    17
 74
     0
 42
0.0000000001
 43
0.0000000001
 40
0.0
 40
0.0
 40
0.0
 40
0.0
 40
0.0625088867
 40
0.1250092267
 40
0.1875046816
 40
0.2499993993
 40
0.3124954783
 40
0.3749922314
 40
0.4374895458000001
 40
0.4999891894000001
 40
0.562492093
 40
0.6249981757000001
 40
0.6875057379000001
 40
0.7500135907
 40
0.8749992945999998
 40
1.0
 40
1.0
 40
1.0
 40
1.0
 10
51739.30953575282
 20
10505.93256637143
 30
0.0
 10
51740.26212142239
 20
10509.35455944338
 30
0.0
 10
51742.498093428
 20
10516.11212896502
 30
0.0
 10
51746.906715942
 20
10525.83528229634
 30
0.0
 10
51752.39518092273
 20
10534.9959545059
 30
0.0
 10
51758.93827063855
 20
10543.43681401369
 30
0.0
 10
51766.4453346457
 20
10551.03211330674
 30
0.0
 10
51774.77746307543
 20
10557.70772898965
 30
0.0
 10
51783.77414561206
 20
10563.45015654564
 30
0.0
 10
51793.28450172692
 20
10568.28748698309
 30
0.0
 10
51803.17590007282
 20
10572.28074730353
 30
0.0
 10
51813.34023538303
 20
10575.50893186111
 30
0.0
 10
51823.69430081225
 20
10578.05651291106
 30
0.0
 10
51837.66846562999
 20
10580.65038297884
 30
0.0
 10
51855.34842186428
 20
10582.56736237854
 30
0.0
 10
51869.55909822527
 20
10583.00003272345
 30
0.0
 10
51876.66234005028
 20
10583.0
 30
0.0
  0
SPLINE
  5
687C
330
200
100
AcDbEntity
  8
0
  6
Continuous
 62
     7
100
AcDbSpline
210
0.0
220
0.0
230
1.0
 70
     8
 71
     3
 72
     8
 73
     4
 74
     0
 42
0.0000000001
 43
0.0000000001
 40
0.0
 40
0.0
 40
0.0
 40
0.0
 40
1.0
 40
1.0
 40
1.0
 40
1.0
 10
51735.41805142196
 20
10363.73560634424
 30
0.0
 10
51735.35469330847
 20
10401.94132653846
 30
0.0
 10
51735.29044993964
 20
10440.1470452749
 30
0.0
 10
51735.2253208569
 20
10478.3527624912
 30
0.0
  0
SPLINE
  5
687D
330
200
100
AcDbEntity
  8
0
  6
Continuous
 62
     7
100
AcDbSpline
210
0.0
220
0.0
230
1.0
 70
     8
 71
     3
 72
    11
 73
     7
 74
     0
 42
0.0000000001
 43
0.0000000001
 40
0.0
 40
0.0
 40
0.0
 40
0.0
 40
0.2499847916
 40
0.4999956783
 40
0.7500109262000001
 40
1.0
 40
1.0
 40
1.0
 40
1.0
 10
51744.87881665009
 20
10310.02214209052
 30
0.0
 10
51743.31546758305
 20
10314.31255639724
 30
0.0
 10
51740.56518001882
 20
10323.03641881495
 30
0.0
 10
51737.60581948164
 20
10336.43049018735
 30
0.0
 10
51735.82734498101
 20
10350.03160465963
 30
0.0
 10
51735.42576317403
 20
10359.16916679557
 30
0.0
 10
51735.41805142196
 20
10363.73560634424
 30
0.0
  0
SPLINE
  5
687E
330
200
100
AcDbEntity
  8
0
  6
Continuous
 62
     7
100
AcDbSpline
210
0.0
220
0.0
230
1.0
 70
     8
 71
     3
 72
    11
 73
     7
 74
     0
 42
0.0000000001
 43
0.0000000001
 40
0.0
 40
0.0
 40
0.0
 40
0.0
 40
0.2499890656
 40
0.500004239
 40
0.750015241
 40
1.0
 40
1.0
 40
1.0
 40
1.0
 10
52017.90662867862
 20
10363.73560634424
 30
0.0
 10
52017.89888522995
 20
10359.16916700913
 30
0.0
 10
52017.49734699227
 20
10350.03160682194
 30
0.0
 10
52015.71886063844
 20
10336.43048985915
 30
0.0
 10
52012.7594873911
 20
10323.03642477919
 30
0.0
 10
52010.00924276911
 20
10314.3125447311
 30
0.0
 10
52008.44586345048
 20
10310.02214209052
 30
0.0
  0
SPLINE
  5
687F
330
200
100
AcDbEntity
  8
0
  6
Continuous
 62
     7
100
AcDbSpline
210
0.0
220
0.0
230
1.0
 70
     8
 71
     3
 72
     8
 73
     4
 74
     0
 42
0.0000000001
 43
0.0000000001
 40
0.0
 40
0.0
 40
0.0
 40
0.0
 40
1.0
 40
1.0
 40
1.0
 40
1.0
 10
52018.09936010443
 20
10478.35275307721
 30
0.0
 10
52018.03423102617
 20
10440.14703899841
 30
0.0
 10
52017.96998678638
 20
10401.94132340096
 30
0.0
 10
52017.90662867862
 20
10363.73560634424
 30
0.0
  0
SPLINE
  5
6880
330
200
100
AcDbEntity
  8
0
  6
Continuous
 62
     7
100
AcDbSpline
210
0.0
220
0.0
230
1.0
 70
     8
 71
     3
 72
    15
 73
    11
 74
     0
 42
0.0000000001
 43
0.0000000001
 40
0.0
 40
0.0
 40
0.0
 40
0.0
 40
0.1256343289
 40
0.2505804822
 40
0.3754460979
 40
0.500262297
 40
0.6249277121
 40
0.7498149085
 40
0.8747770269
 40
1.0
 40
1.0
 40
1.0
 40
1.0
 10
51827.94268810509
 20
10520.36557030274
 30
0.0
 10
51828.08089561843
 20
10522.88493700098
 30
0.0
 10
51829.07707576902
 20
10527.95304433948
 30
0.0
 10
51833.52821558696
 20
10534.29323782473
 30
0.0
 10
51839.79399627292
 20
10538.64513209877
 30
0.0
 10
51846.8197545074
 20
10541.42334140468
 30
0.0
 10
51854.14370985963
 20
10543.19418616193
 30
0.0
 10
51861.60458951999
 20
10544.21165080991
 30
0.0
 10
51869.12177002382
 20
10544.74704618999
 30
0.0
 10
51874.14744669465
 20
10544.84408547571
 30
0.0
 10
51876.66234005028
 20
10544.8440854759
 30
0.0
  0
SPLINE
  5
6881
330
200
100
AcDbEntity
  8
0
  6
Continuous
 62
     7
100
AcDbSpline
210
0.0
220
0.0
230
1.0
 70
     8
 71
     3
 72
    15
 73
    11
 74
     0
 42
0.0000000001
 43
0.0000000001
 40
0.0
 40
0.0
 40
0.0
 40
0.0
 40
0.1251315889
 40
0.2506025016
 40
0.3763409143
 40
0.5017679875
 40
0.6270774719
 40
0.7518891501000001
 40
0.8761557944999999
 40
1.0
 40
1.0
 40
1.0
 40
1.0
 10
51876.6623400503
 20
10553.61359297428
 30
0.0
 10
51873.8195979196
 20
10553.6135929531
 30
0.0
 10
51868.12445881884
 20
10553.47737776746
 30
0.0
 10
51859.60185810998
 20
10552.71975480083
 30
0.0
 10
51851.15410366202
 20
10551.27111131061
 30
0.0
 10
51842.94135281791
 20
10548.78526596168
 30
0.0
 10
51835.25260089461
 20
10544.95112196569
 30
0.0
 10
51828.76875533741
 20
10539.23445695231
 30
0.0
 10
51824.56450060014
 20
10531.69153270635
 30
0.0
 10
51823.45082885627
 20
10526.08823552752
 30
0.0
 10
51823.2008449136
 20
10523.2858679617
 30
0.0
  0
SPLINE
  5
6882
330
200
100
AcDbEntity
  8
0
  6
Continuous
 62
     7
100
AcDbSpline
210
0.0
220
0.0
230
1.0
 70
     8
 71
     3
 72
     9
 73
     5
 74
     0
 42
0.0000000001
 43
0.0000000001
 40
0.0
 40
0.0
 40
0.0
 40
0.0
 40
0.2520031785
 40
1.0
 40
1.0
 40
1.0
 40
1.0
 10
51823.20071680112
 20
10523.28587939011
 30
0.0
 10
51823.19718683457
 20
10523.24630799716
 30
0.0
 10
51823.18320185265
 20
10523.08927862139
 30
0.0
 10
51823.16930684564
 20
10522.93224123274
 30
0.0
 10
51823.15896368453
 20
10522.81477334878
 30
0.0
  0
SPLINE
  5
6883
330
200
100
AcDbEntity
  8
0
  6
Continuous
 62
     7
100
AcDbSpline
210
0.0
220
0.0
230
1.0
 70
     8
 71
     3
 72
    10
 73
     6
 74
     0
 42
0.0000000001
 43
0.0000000001
 40
0.0
 40
0.0
 40
0.0
 40
0.0
 40
0.2504634344
 40
0.4986823334000001
 40
1.0
 40
1.0
 40
1.0
 40
1.0
 10
51823.15935667531
 20
10522.81473706071
 30
0.0
 10
51822.81363226428
 20
10518.88794742203
 30
0.0
 10
51822.23772276
 20
10511.05918761317
 30
0.0
 10
51821.51273508284
 20
10495.33568380875
 30
0.0
 10
51821.41009970239
 20
10483.53459922501
 30
0.0
 10
51821.47531993209
 20
10475.64475915787
 30
0.0
  0
SPLINE
  5
6884
330
200
100
AcDbEntity
  8
0
  6
Continuous
 62
     7
100
AcDbSpline
210
0.0
220
0.0
230
1.0
 70
     8
 71
     3
 72
    12
 73
     8
 74
     0
 42
0.0000000001
 43
0.0000000001
 40
0.0
 40
0.0
 40
0.0
 40
0.0
 40
0.3955322921
 40
0.6729049393000001
 40
0.8642671795999998
 40
0.9373483367
 40
1.0
 40
1.0
 40
1.0
 40
1.0
 10
51821.4747793243
 20
10475.64475468882
 30
0.0
 10
51822.34353790818
 20
10475.63306067142
 30
0.0
 10
51823.82209791848
 20
10475.57374603451
 30
0.0
 10
51825.70799591704
 20
10475.32798846577
 30
0.0
 10
51826.86380290708
 20
10475.02718058882
 30
0.0
 10
51827.53450731166
 20
10474.76808764476
 30
0.0
 10
51827.80619010379
 20
10474.6450336787
 30
0.0
 10
51827.93072073526
 20
10474.58645001889
 30
0.0
  0
SPLINE
  5
6885
330
200
100
AcDbEntity
  8
0
  6
Continuous
 62
     7
100
AcDbSpline
210
0.0
220
0.0
230
1.0
 70
     8
 71
     3
 72
    12
 73
     8
 74
     0
 42
0.0000000001
 43
0.0000000001
 40
0.0
 40
0.0
 40
0.0
 40
0.0
 40
0.3964567711
 40
0.6746311505
 40
0.8662761579999999
 40
0.9387697762
 40
1.0
 40
1.0
 40
1.0
 40
1.0
 10
51821.48192262572
 20
10475.0907270653
 30
0.0
 10
51822.34981852794
 20
10475.08891547206
 30
0.0
 10
51823.82791936243
 20
10475.03908612712
 30
0.0
 10
51825.71173948944
 20
10474.78803906588
 30
0.0
 10
51826.86307463588
 20
10474.48627107474
 30
0.0
 10
51827.53416925348
 20
10474.2471531905
 30
0.0
 10
51827.80748558134
 20
10474.14228539906
 30
0.0
 10
51827.93319948197
 20
10474.09577645382
 30
0.0
  0
SPLINE
  5
6886
330
200
100
AcDbEntity
  8
0
  6
Continuous
 62
     7
100
AcDbSpline
210
0.0
220
0.0
230
1.0
 70
     8
 71
     3
 72
    16
 73
    12
 74
     0
 42
0.0000000001
 43
0.0000000001
 40
0.0
 40
0.0
 40
0.0
 40
0.0
 40
0.2267608976
 40
0.4199379464
 40
0.5821048052000001
 40
0.7156038234000001
 40
0.8225085937999999
 40
0.9045927928000001
 40
0.9633259131999999
 40
0.9843336952999999
 40
1.0
 40
1.0
 40
1.0
 40
1.0
 10
51833.6674129716
 20
10435.06511705801
 30
0.0
 10
51834.13714340344
 20
10435.62712990954
 30
0.0
 10
51835.03123863059
 20
10436.64813909877
 30
0.0
 10
51836.3432817496
 20
10437.99619283107
 30
0.0
 10
51837.50564303484
 20
10439.06615710581
 30
0.0
 10
51838.51057912922
 20
10439.89246826574
 30
0.0
 10
51839.35066508838
 20
10440.50919499706
 30
0.0
 10
51840.0179836992
 20
10440.95117571296
 30
0.0
 10
51840.46389372547
 20
10441.2240693255
 30
0.0
 10
51840.72480990055
 20
10441.38794451648
 30
0.0
 10
51840.82274241269
 20
10441.45489504691
 30
0.0
 10
51840.86250941343
 20
10441.48618971515
 30
0.0
  0
SPLINE
  5
6887
330
200
100
AcDbEntity
  8
0
  6
Continuous
 62
     7
100
AcDbSpline
210
0.0
220
0.0
230
1.0
 70
     8
 71
     3
 72
    11
 73
     7
 74
     0
 42
0.0000000001
 43
0.0000000001
 40
0.0
 40
0.0
 40
0.0
 40
0.0
 40
0.2476702242
 40
0.4967531381000001
 40
0.7474929483000001
 40
1.0
 40
1.0
 40
1.0
 40
1.0
 10
51821.48211083688
 20
10475.09073037222
 30
0.0
 10
51821.54353857392
 20
10471.59459357263
 30
0.0
 10
51822.15089227016
 20
10464.58167553959
 30
0.0
 10
51824.49538418534
 20
10454.25928520053
 30
0.0
 10
51828.26382145002
 20
10444.29299771939
 30
0.0
 10
51831.71482043425
 20
10438.0477922432
 30
0.0
 10
51833.6676459711
 20
10435.06526961505
 30
0.0
  0
SPLINE
  5
6888
330
200
100
AcDbEntity
  8
0
  6
Continuous
 62
     7
100
AcDbSpline
210
0.0
220
0.0
230
1.0
 70
     8
 71
     3
 72
    16
 73
    12
 74
     0
 42
0.0000000001
 43
0.0000000001
 40
0.0
 40
0.0
 40
0.0
 40
0.0
 40
0.2270909581
 40
0.4205484228
 40
0.5828912551
 40
0.7164268164000001
 40
0.8232190318
 40
0.9050647806
 40
0.9635039499999999
 40
0.9843898245999998
 40
1.0
 40
1.0
 40
1.0
 40
1.0
 10
51919.68037028149
 20
10435.10136638128
 30
0.0
 10
51919.21058351712
 20
10435.66289764878
 30
0.0
 10
51918.31789537654
 20
10436.68419982954
 30
0.0
 10
51917.01261741274
 20
10438.03718040692
 30
0.0
 10
51915.86040716321
 20
10439.11581014065
 30
0.0
 10
51914.86806026795
 20
10439.95366961451
 30
0.0
 10
51914.04195815218
 20
10440.58391512418
 30
0.0
 10
51913.38910871725
 20
10441.04053928046
 30
0.0
 10
51912.95539178846
 20
10441.32686053969
 30
0.0
 10
51912.70434949103
 20
10441.5018271245
 30
0.0
 10
51912.61124542342
 20
10441.57417369674
 30
0.0
 10
51912.57409101805
 20
10441.6081194238
 30
0.0
  0
SPLINE
  5
6889
330
200
100
AcDbEntity
  8
0
  6
Continuous
 62
     7
100
AcDbSpline
210
0.0
220
0.0
230
1.0
 70
     8
 71
     3
 72
    21
 73
    17
 74
     0
 42
0.0000000001
 43
0.0000000001
 40
0.0
 40
0.0
 40
0.0
 40
0.0
 40
0.0625018861
 40
0.1250577511
 40
0.1875763769
 40
0.2500999086
 40
0.3126306892000001
 40
0.375158728
 40
0.5000000281000001
 40
0.6248412797000001
 40
0.6873693209000001
 40
0.749900082
 40
0.8124236256999999
 40
0.8749422454000001
 40
0.9374981095999999
 40
1.0
 40
1.0
 40
1.0
 40
1.0
 10
51833.6674129716
 20
10435.06511705801
 30
0.0
 10
51834.8240836256
 20
10433.30217584351
 30
0.0
 10
51837.37848452071
 20
10429.92654274431
 30
0.0
 10
51841.82092381833
 20
10425.3978725436
 30
0.0
 10
51846.79868329588
 20
10421.46187122969
 30
0.0
 10
51852.23370416817
 20
10418.18885811666
 30
0.0
 10
51858.03461213126
 20
10415.61824961141
 30
0.0
 10
51866.11969354622
 20
10413.16801391703
 30
0.0
 10
51876.68390295305
 20
10411.94162162948
 30
0.0
 10
51887.24716418622
 20
10413.1763678566
 30
0.0
 10
51895.33023226567
 20
10415.63325931881
 30
0.0
 10
51901.12896383677
 20
10418.20878828545
 30
0.0
 10
51906.56114664242
 20
10421.48651551081
 30
0.0
 10
51911.53545808626
 20
10425.426877117
 30
0.0
 10
51915.9738912258
 20
10429.95947654942
 30
0.0
 10
51918.52528047644
 20
10433.33738880611
 30
0.0
 10
51919.68037028149
 20
10435.10136638128
 30
0.0
  0
SPLINE
  5
688A
330
200
100
AcDbEntity
  8
0
  6
Continuous
 62
     7
100
AcDbSpline
210
0.0
220
0.0
230
1.0
 70
     8
 71
     3
 72
    12
 73
     8
 74
     0
 42
0.0000000001
 43
0.0000000001
 40
0.0
 40
0.0
 40
0.0
 40
0.0
 40
0.3963408925
 40
0.6744783726000002
 40
0.8662176511
 40
0.9387633434999999
 40
1.0
 40
1.0
 40
1.0
 40
1.0
 10
51931.84260306395
 20
10475.09072829004
 30
0.0
 10
51930.97482578379
 20
10475.09230376319
 30
0.0
 10
51929.4965643719
 20
10475.04675170031
 30
0.0
 10
51927.61233691713
 20
10474.79575658868
 30
0.0
 10
51926.46132752926
 20
10474.49081279792
 30
0.0
 10
51925.7904687608
 20
10474.24975367474
 30
0.0
 10
51925.51710930604
 20
10474.14451053292
 30
0.0
 10
51925.39132680574
 20
10474.09808661072
 30
0.0
  0
SPLINE
  5
688B
330
200
100
AcDbEntity
  8
0
  6
Continuous
 62
     7
100
AcDbSpline
210
0.0
220
0.0
230
1.0
 70
     8
 71
     3
 72
    12
 73
     8
 74
     0
 42
0.0000000001
 43
0.0000000001
 40
0.0
 40
0.0
 40
0.0
 40
0.0
 40
0.2523350668
 40
0.3779544375
 40
0.5031776401000001
 40
0.7522817359000001
 40
1.0
 40
1.0
 40
1.0
 40
1.0
 10
51919.68015064857
 20
10435.10150999093
 30
0.0
 10
51921.62810536697
 20
10438.0806459994
 30
0.0
 10
51924.2164112144
 20
10442.77038818102
 30
0.0
 10
51926.96095294882
 20
10449.32046703739
 30
0.0
 10
51929.22592562435
 20
10456.00484916989
 30
0.0
 10
51931.17447021394
 20
10464.58959728407
 30
0.0
 10
51931.78104913171
 20
10471.59693225298
 30
0.0
 10
51931.84242561053
 20
10475.09073140741
 30
0.0
  0
SPLINE
  5
688C
330
200
100
AcDbEntity
  8
0
  6
Continuous
 62
     7
100
AcDbSpline
210
0.0
220
0.0
230
1.0
 70
     8
 71
     3
 72
    12
 73
     8
 74
     0
 42
0.0000000001
 43
0.0000000001
 40
0.0
 40
0.0
 40
0.0
 40
0.0
 40
0.3957490104999999
 40
0.6734178990000001
 40
0.8649565694999999
 40
0.9378587061999999
 40
1.0
 40
1.0
 40
1.0
 40
1.0
 10
51931.84982189848
 20
10475.64476777413
 30
0.0
 10
51930.98100742834
 20
10475.63361050418
 30
0.0
 10
51929.50196512921
 20
10475.5724219417
 30
0.0
 10
51927.61639732783
 20
10475.31767916724
 30
0.0
 10
51926.46220869425
 20
10475.01225977117
 30
0.0
 10
51925.7913102793
 20
10474.75822954046
 30
0.0
 10
51925.518935938
 20
10474.64099488962
 30
0.0
 10
51925.39388434389
 20
10474.58643854489
 30
0.0
  0
LINE
  5
688D
330
200
100
AcDbEntity
  8
0
  6
Continuous
 62
     7
100
AcDbLine
 10
51925.39391878013
 20
10474.58643854484
 30
0.0
 11
51925.39399359428
 21
10519.92933655879
 31
0.0
  0
SPLINE
  5
688E
330
200
100
AcDbEntity
  8
0
  6
Continuous
 62
     7
100
AcDbSpline
210
0.0
220
0.0
230
1.0
 70
     8
 71
     3
 72
    14
 73
    10
 74
     0
 42
0.0000000001
 43
0.0000000001
 40
0.0
 40
0.0
 40
0.0
 40
0.0
 40
0.2178501264
 40
0.3994125766
 40
0.5496265631
 40
0.6734350726999999
 40
0.8612030996999999
 40
0.9346096220999999
 40
1.0
 40
1.0
 40
1.0
 40
1.0
 10
51930.12391679586
 20
10523.28584848838
 30
0.0
 10
51929.82062201068
 20
10522.98828548478
 30
0.0
 10
51929.25626347644
 20
10522.45100007209
 30
0.0
 10
51928.45044667589
 20
10521.74356745089
 30
0.0
 10
51927.75405135682
 20
10521.19081589308
 30
0.0
 10
51927.01639764168
 20
10520.67356428487
 30
0.0
 10
51926.35939791286
 20
10520.30315432428
 30
0.0
 10
51925.77003033594
 20
10520.06051835926
 30
0.0
 10
51925.5145712145
 20
10519.97078761841
 30
0.0
 10
51925.3939593653
 20
10519.9293365588
 30
0.0
  0
SPLINE
  5
688F
330
200
100
AcDbEntity
  8
0
  6
Continuous
 62
     7
100
AcDbSpline
210
0.0
220
0.0
230
1.0
 70
     8
 71
     3
 72
    10
 73
     6
 74
     0
 42
0.0000000001
 43
0.0000000001
 40
0.0
 40
0.0
 40
0.0
 40
0.0
 40
0.5013680561000001
 40
0.7497213564000001
 40
1.0
 40
1.0
 40
1.0
 40
1.0
 10
51931.84946167074
 20
10475.64477075126
 30
0.0
 10
51931.91532552917
 20
10483.61441359366
 30
0.0
 10
51931.80793092612
 20
10495.53667938149
 30
0.0
 10
51931.06592507182
 20
10511.41718998589
 30
0.0
 10
51930.47713946091
 20
10519.32304613845
 30
0.0
 10
51930.12366523414
 20
10523.28582604877
 30
0.0
  0
SPLINE
  5
6890
330
200
100
AcDbEntity
  8
0
  6
Continuous
 62
     7
100
AcDbSpline
210
0.0
220
0.0
230
1.0
 70
     8
 71
     3
 72
    16
 73
    12
 74
     0
 42
0.0000000001
 43
0.0000000001
 40
0.0
 40
0.0
 40
0.0
 40
0.0
 40
0.1882556416
 40
0.3571375876
 40
0.5085558342000001
 40
0.6429600587
 40
0.7596799298
 40
0.8575684798000001
 40
0.8992928334999998
 40
0.9364421536
 40
1.0
 40
1.0
 40
1.0
 40
1.0
 10
51930.07887333014
 20
10523.7582062854
 30
0.0
 10
51929.74354151338
 20
10523.60928115414
 30
0.0
 10
51929.1232375614
 20
10523.28909772248
 30
0.0
 10
51928.29855086629
 20
10522.73609817327
 30
0.0
 10
51927.61221347963
 20
10522.17378666485
 30
0.0
 10
51927.04090477699
 20
10521.63555175636
 30
0.0
 10
51926.56080398266
 20
10521.15382820767
 30
0.0
 10
51926.20078370292
 20
10520.806944571
 30
0.0
 10
51925.93066801602
 20
10520.59192442056
 30
0.0
 10
51925.69789703582
 20
10520.44163875831
 30
0.0
 10
51925.50569175364
 20
10520.37239020713
 30
0.0
 10
51925.38200375932
 20
10520.36557483395
 30
0.0
  0
SPLINE
  5
6891
330
200
100
AcDbEntity
  8
0
  6
Continuous
 62
     7
100
AcDbSpline
210
0.0
220
0.0
230
1.0
 70
     8
 71
     3
 72
    25
 73
    21
 74
     0
 42
0.0000000001
 43
0.0000000001
 40
0.0
 40
0.0
 40
0.0
 40
0.0
 40
0.0625109776
 40
0.0938003271
 40
0.125092947
 40
0.1563896802
 40
0.1876761567
 40
0.2189553811
 40
0.2502424384
 40
0.3127679951
 40
0.3752851328
 40
0.4378112655
 40
0.5003072186999999
 40
0.562802982
 40
0.6252751720000001
 40
0.687747405
 40
0.7502013914
 40
0.8126630562999999
 40
0.8751204340000001
 40
1.0
 40
1.0
 40
1.0
 40
1.0
 10
51930.07887476238
 20
10523.75820692148
 30
0.0
 10
51929.93615731124
 20
10525.16334983418
 30
0.0
 10
51929.6043284581
 20
10527.26367802578
 30
0.0
 10
51928.88486196386
 20
10529.998860915
 30
0.0
 10
51928.19404694592
 20
10532.00661369938
 30
0.0
 10
51927.34866948638
 20
10533.95426325763
 30
0.0
 10
51926.351038425
 20
10535.82831817905
 30
0.0
 10
51925.20097532334
 20
10537.61296834057
 30
0.0
 10
51923.47537748617
 20
10539.85473367445
 30
0.0
 10
51920.98795998355
 20
10542.38517364068
 30
0.0
 10
51917.58507467728
 20
10544.93318872383
 30
0.0
 10
51913.89570987182
 20
10547.0357325408
 30
0.0
 10
51910.00996935514
 20
10548.73996256313
 30
0.0
 10
51905.99716620007
 20
10550.10815979741
 30
0.0
 10
51901.9000978424
 20
10551.19179526565
 30
0.0
 10
51897.74749226347
 20
10552.02895824392
 30
0.0
 10
51893.55932572363
 20
10552.6591571924
 30
0.0
 10
51889.3486989749
 20
10553.10918551914
 30
0.0
 10
51883.71823425294
 20
10553.51071953869
 30
0.0
 10
51879.48386704659
 20
10553.61399278211
 30
0.0
 10
51876.66234005028
 20
10553.6137324581
 30
0.0
  0
SPLINE
  5
6892
330
200
100
AcDbEntity
  8
0
  6
Continuous
 62
     7
100
AcDbSpline
210
0.0
220
0.0
230
1.0
 70
     8
 71
     3
 72
    15
 73
    11
 74
     0
 42
0.0000000001
 43
0.0000000001
 40
0.0
 40
0.0
 40
0.0
 40
0.0
 40
0.1249259896
 40
0.2498161069
 40
0.3747867791
 40
0.4996188403000001
 40
0.6246165762000001
 40
0.7496087659999999
 40
0.8745548860999999
 40
1.0
 40
1.0
 40
1.0
 40
1.0
 10
51876.66234005028
 20
10544.84408370704
 30
0.0
 10
51879.17127101455
 20
10544.84408370723
 30
0.0
 10
51884.18953220789
 20
10544.7474251435
 30
0.0
 10
51891.70107013061
 20
10544.21360276203
 30
0.0
 10
51899.16570756535
 20
10543.19721235459
 30
0.0
 10
51906.49850456145
 20
10541.4258405939
 30
0.0
 10
51913.53342450171
 20
10538.64452557099
 30
0.0
 10
51919.80362333337
 20
10534.28730905645
 30
0.0
 10
51924.24992165803
 20
10527.94516385339
 30
0.0
 10
51925.24399112481
 20
10522.88114847837
 30
0.0
 10
51925.38199101116
 20
10520.36557413461
 30
0.0
  0
SPLINE
  5
6893
330
200
100
AcDbEntity
  8
0
  6
Continuous
 62
     7
100
AcDbSpline
210
0.0
220
0.0
230
1.0
 70
     8
 71
     3
 72
    18
 73
    14
 74
     0
 42
0.0000000001
 43
0.0000000001
 40
0.0
 40
0.0
 40
0.0
 40
0.0
 40
0.094858539
 40
0.192507551
 40
0.2948776984
 40
0.349267117
 40
0.4070085732
 40
0.5363018976000001
 40
0.6083818746000001
 40
0.6843780049
 40
0.7627949675
 40
0.8421383308999999
 40
1.0
 40
1.0
 40
1.0
 40
1.0
 10
51925.38200354573
 20
10520.36557482223
 30
0.0
 10
51924.97089259127
 20
10520.3477273196
 30
0.0
 10
51924.13793001196
 20
10520.28464099326
 30
0.0
 10
51922.86328025367
 20
10520.17852391833
 30
0.0
 10
51921.75795156293
 20
10520.15690950746
 30
0.0
 10
51920.82913134161
 20
10520.22251884427
 30
0.0
 10
51919.79059667714
 20
10520.36373845642
 30
0.0
 10
51918.69359030136
 20
10520.61390433968
 30
0.0
 10
51917.52020710462
 20
10520.87941763043
 30
0.0
 10
51916.55548648898
 20
10521.06737289729
 30
0.0
 10
51915.55085515808
 20
10521.20952344869
 30
0.0
 10
51914.18515538251
 20
10521.31734941271
 30
0.0
 10
51913.15340338531
 20
10521.30109664694
 30
0.0
 10
51912.47000685475
 20
10521.25716744165
 30
0.0
  0
SPLINE
  5
6894
330
200
100
AcDbEntity
  8
0
  6
Continuous
 62
     7
100
AcDbSpline
210
0.0
220
0.0
230
1.0
 70
     8
 71
     3
 72
     8
 73
     4
 74
     0
 42
0.0000000001
 43
0.0000000001
 40
0.0
 40
0.0
 40
0.0
 40
0.0
 40
1.0
 40
1.0
 40
1.0
 40
1.0
 10
52049.22957757618
 20
10359.31469265101
 30
0.0
 10
52049.26396071246
 20
10483.5431285048
 30
0.0
 10
52049.2991352297
 20
10607.77156413877
 30
0.0
 10
52049.33349145671
 20
10732.0
 30
0.0
  0
SPLINE
  5
6895
330
200
100
AcDbEntity
  8
0
  6
Continuous
 62
     7
100
AcDbSpline
210
0.0
220
0.0
230
1.0
 70
     8
 71
     3
 72
    18
 73
    14
 74
     0
 42
0.0000000001
 43
0.0000000001
 40
0.0
 40
0.0
 40
0.0
 40
0.0
 40
0.157861181
 40
0.2372063582
 40
0.3156158305
 40
0.3916192112
 40
0.4637089257
 40
0.5929947767
 40
0.6507377332000001
 40
0.7051176311000001
 40
0.8074916052999999
 40
0.9051412184
 40
1.0
 40
1.0
 40
1.0
 40
1.0
 10
51840.85468169082
 20
10521.25717351231
 30
0.0
 10
51840.17128398259
 20
10521.30107857579
 30
0.0
 10
51839.13952422614
 20
10521.3174002392
 30
0.0
 10
51837.77385128295
 20
10521.20952002771
 30
0.0
 10
51836.769203873
 20
10521.0674333348
 30
0.0
 10
51835.80442606539
 20
10520.87953031931
 30
0.0
 10
51834.63107584867
 20
10520.61364122579
 30
0.0
 10
51833.53399939568
 20
10520.36383252035
 30
0.0
 10
51832.49558398512
 20
10520.22209885278
 30
0.0
 10
51831.56671699148
 20
10520.15738131536
 30
0.0
 10
51830.4614313046
 20
10520.17826940314
 30
0.0
 10
51829.18675647884
 20
10520.28469312713
 30
0.0
 10
51828.35378862726
 20
10520.34771179607
 30
0.0
 10
51827.94267607675
 20
10520.36557096258
 30
0.0
  0
SPLINE
  5
6896
330
200
100
AcDbEntity
  8
0
  6
Continuous
 62
     7
100
AcDbSpline
210
0.0
220
0.0
230
1.0
 70
     8
 71
     3
 72
    15
 73
    11
 74
     0
 42
0.0000000001
 43
0.0000000001
 40
0.0
 40
0.0
 40
0.0
 40
0.0
 40
0.1287622916
 40
0.2569824779
 40
0.3836691902
 40
0.5091677852000001
 40
0.6346397376000001
 40
0.7593079691
 40
0.8815734643
 40
1.0
 40
1.0
 40
1.0
 40
1.0
 10
51837.48154259387
 20
10514.75326889678
 30
0.0
 10
51837.08333764587
 20
10514.99694062139
 30
0.0
 10
51836.29070099721
 20
10515.48665346127
 30
0.0
 10
51835.1024198409
 20
10516.20995106764
 30
0.0
 10
51833.90728041127
 20
10516.89862854499
 30
0.0
 10
51832.70665252556
 20
10517.55696550491
 30
0.0
 10
51831.5172860329
 20
10518.22042081874
 30
0.0
 10
51830.33130208484
 20
10518.86609453684
 30
0.0
 10
51829.14470299913
 20
10519.45571710044
 30
0.0
 10
51828.3367069402
 20
10519.78956995012
 30
0.0
 10
51827.93072073528
 20
10519.92933387055
 30
0.0
  0
SPLINE
  5
6897
330
200
100
AcDbEntity
  8
0
  6
Continuous
 62
     7
100
AcDbSpline
210
0.0
220
0.0
230
1.0
 70
     8
 71
     3
 72
    35
 73
    31
 74
     0
 42
0.0000000001
 43
0.0000000001
 40
0.0
 40
0.0
 40
0.0
 40
0.0
 40
0.0624538968
 40
0.1248999599
 40
0.1873470893
 40
0.2497937781
 40
0.3122407631
 40
0.3435019696999999
 40
0.3747629489
 40
0.4060239657000001
 40
0.437285111
 40
0.4685461367000001
 40
0.4998072204
 40
0.5310683049
 40
0.5623293298
 40
0.5935904734000001
 40
0.6248514896000001
 40
0.6561124556
 40
0.6873736487000001
 40
0.7186347772000001
 40
0.7498957889
 40
0.7811568506000001
 40
0.8124178773
 40
0.8436789277999999
 40
0.8749400375
 40
0.8905751393
 40
0.906210253
 40
0.9374709969999999
 40
0.9687339708999999
 40
1.0
 40
1.0
 40
1.0
 40
1.0
 10
51704.0951025244
 20
10359.31469265101
 30
0.0
 10
51704.09832884266
 20
10348.03943119739
 30
0.0
 10
51706.35234135121
 20
10325.43251102962
 30
0.0
 10
51716.20726746689
 20
10292.85908443218
 30
0.0
 10
51732.29433679798
 20
10262.85685835457
 30
0.0
 10
51753.85664838862
 20
10236.52416889752
 30
0.0
 10
51775.83197527608
 20
10218.54741353849
 30
0.0
 10
51795.20401807052
 20
10206.92733455384
 30
0.0
 10
51810.53017227145
 20
10199.66368216909
 30
0.0
 10
51826.4981696657
 20
10193.9527123936
 30
0.0
 10
51842.94905439582
 20
10189.83418837968
 30
0.0
 10
51859.72418615807
 20
10187.34698491726
 30
0.0
 10
51876.66231092889
 20
10186.51368836838
 30
0.0
 10
51893.60042894296
 20
10187.34697196098
 30
0.0
 10
51910.37558233135
 20
10189.83419728745
 30
0.0
 10
51926.82638630764
 20
10193.95264080052
 30
0.0
 10
51942.79469560913
 20
10199.66384686545
 30
0.0
 10
51958.11968656837
 20
10206.92657512792
 30
0.0
 10
51972.66178223593
 20
10215.65033312489
 30
0.0
 10
51986.28951794122
 20
10225.74291043809
 30
0.0
 10
51998.86686813921
 20
10237.11925803686
 30
0.0
 10
52010.24950912312
 20
10249.69093993742
 30
0.0
 10
52020.34605970318
 20
10263.31599610694
 30
0.0
 10
52029.07289704418
 20
10277.8555350983
 30
0.0
 10
52035.12787339395
 20
10290.62821449753
 30
0.0
 10
52039.19295035867
 20
10301.16451065507
 30
0.0
 10
52042.73125134746
 20
10311.88898670446
 30
0.0
 10
52046.16295083883
 20
10325.60134875028
 30
0.0
 10
52048.66196214637
 20
10342.37351125698
 30
0.0
 10
52049.22796629229
 20
10353.67000639266
 30
0.0
 10
52049.22957757618
 20
10359.31469265101
 30
0.0
  0
SPLINE
  5
6898
330
200
100
AcDbEntity
  8
0
  6
Continuous
 62
     7
100
AcDbSpline
210
0.0
220
0.0
230
1.0
 70
     8
 71
     3
 72
    21
 73
    17
 74
     0
 42
0.0000000001
 43
0.0000000001
 40
0.0
 40
0.0
 40
0.0
 40
0.0
 40
0.1859337368
 40
0.3644613539
 40
0.5297636999000001
 40
0.6764881272
 40
0.7413857486
 40
0.7999461656999999
 40
0.8517116922999999
 40
0.8963159125
 40
0.9334656437000001
 40
0.9630019304000001
 40
0.9749195885999998
 40
0.9849821454
 40
0.9932825388999999
 40
1.0
 40
1.0
 40
1.0
 40
1.0
 10
51840.67787956283
 20
10509.25245086958
 30
0.0
 10
51840.6690915895
 20
10507.15371417694
 30
0.0
 10
51840.61354686241
 20
10503.03988454814
 30
0.0
 10
51840.41507676797
 20
10497.06296424567
 30
0.0
 10
51840.10955498283
 20
10491.53373085568
 30
0.0
 10
51839.76319426685
 20
10487.2924758789
 30
0.0
 10
51839.43127566471
 20
10484.26068551058
 30
0.0
 10
51839.17356790123
 20
10482.29948151759
 30
0.0
 10
51838.8990611123
 20
10480.57212893557
 30
0.0
 10
51838.61080503731
 20
10479.09232111522
 30
0.0
 10
51838.31125936298
 20
10477.87193266537
 30
0.0
 10
51838.04008393963
 20
10477.02541779018
 30
0.0
 10
51837.81031070469
 20
10476.49074688771
 30
0.0
 10
51837.64892574248
 20
10476.18873295234
 30
0.0
 10
51837.48647902032
 20
10475.9560249199
 30
0.0
 10
51837.36492424119
 20
10475.83524400225
 30
0.0
 10
51837.30362285533
 20
10475.79061808113
 30
0.0
  0
SPLINE
  5
6899
330
200
100
AcDbEntity
  8
0
  6
Continuous
 62
     7
100
AcDbSpline
210
0.0
220
0.0
230
1.0
 70
     8
 71
     3
 72
    14
 73
    10
 74
     0
 42
0.0000000001
 43
0.0000000001
 40
0.0
 40
0.0
 40
0.0
 40
0.0
 40
0.2713189954
 40
0.3960873817999999
 40
0.5162209518000001
 40
0.6341479113
 40
0.7524358498999999
 40
0.8736097012999998
 40
1.0
 40
1.0
 40
1.0
 40
1.0
 10
51837.30362285533
 20
10475.79061808113
 30
0.0
 10
51836.57495769057
 20
10475.26149113299
 30
0.0
 10
51835.43241677561
 20
10474.58115526125
 30
0.0
 10
51833.81409007772
 20
10474.00532390147
 30
0.0
 10
51832.63018773394
 20
10473.76240466818
 30
0.0
 10
51831.44477221897
 20
10473.69838897929
 30
0.0
 10
51830.25970044323
 20
10473.81302110626
 30
0.0
 10
51829.07706630377
 20
10474.10503996506
 30
0.0
 10
51828.3108093431
 20
10474.40894774603
 30
0.0
 10
51827.93072073528
 20
10474.58645001889
 30
0.0
  0
SPLINE
  5
689A
330
200
100
AcDbEntity
  8
0
  6
Continuous
 62
     7
100
AcDbSpline
210
0.0
220
0.0
230
1.0
 70
     8
 71
     3
 72
    15
 73
    11
 74
     0
 42
0.0000000001
 43
0.0000000001
 40
0.0
 40
0.0
 40
0.0
 40
0.0
 40
0.1184257593
 40
0.2406942992
 40
0.3653614147999999
 40
0.4908303334000001
 40
0.6163293128000001
 40
0.7430191207
 40
0.8712363698
 40
1.0
 40
1.0
 40
1.0
 40
1.0
 10
51925.3939593653
 20
10519.9293365588
 30
0.0
 10
51924.98797324595
 20
10519.78958040033
 30
0.0
 10
51924.17994666987
 20
10519.45577342471
 30
0.0
 10
51922.99340289299
 20
10518.86602577349
 30
0.0
 10
51921.80740053288
 20
10518.22039719523
 30
0.0
 10
51920.61800811381
 20
10517.55701451506
 30
0.0
 10
51919.41737982937
 20
10516.89867244585
 30
0.0
 10
51918.22229862091
 20
10516.20989004255
 30
0.0
 10
51917.03395108007
 20
10515.48669135964
 30
0.0
 10
51916.24133437867
 20
10514.99695580311
 30
0.0
 10
51915.84313750671
 20
10514.75326115157
 30
0.0
  0
SPLINE
  5
689B
330
200
100
AcDbEntity
  8
0
  6
Continuous
 62
     7
100
AcDbSpline
210
0.0
220
0.0
230
1.0
 70
     8
 71
     3
 72
    14
 73
    10
 74
     0
 42
0.0000000001
 43
0.0000000001
 40
0.0
 40
0.0
 40
0.0
 40
0.0
 40
0.2713183438
 40
0.3960868428
 40
0.5162209938000001
 40
0.6341489594
 40
0.7524376890000001
 40
0.8736113876999999
 40
1.0
 40
1.0
 40
1.0
 40
1.0
 10
51916.02105724524
 20
10475.79061808113
 30
0.0
 10
51916.74971972807
 20
10475.26149137681
 30
0.0
 10
51917.89225871935
 20
10474.58115583591
 30
0.0
 10
51919.51058561526
 20
10474.00532539817
 30
0.0
 10
51920.69449334034
 20
10473.76240552936
 30
0.0
 10
51921.87991630459
 20
10473.69838747058
 30
0.0
 10
51923.06499373904
 20
10473.81301513207
 30
0.0
 10
51924.24762551463
 20
10474.10502876407
 30
0.0
 10
51925.01387642763
 20
10474.4089357786
 30
0.0
 10
51925.39395855006
 20
10474.58643854488
 30
0.0
  0
SPLINE
  5
689C
330
200
100
AcDbEntity
  8
0
  6
Continuous
 62
     7
100
AcDbSpline
210
0.0
220
0.0
230
1.0
 70
     8
 71
     3
 72
    21
 73
    17
 74
     0
 42
0.0000000001
 43
0.0000000001
 40
0.0
 40
0.0
 40
0.0
 40
0.0
 40
0.1859330467
 40
0.364461597
 40
0.5297631689
 40
0.6764874814000001
 40
0.741384945
 40
0.7999452422
 40
0.8517110648999999
 40
0.8963152515999999
 40
0.9334639252
 40
0.9630001481
 40
0.9749187275
 40
0.9849821484999999
 40
0.9932826940999998
 40
1.0
 40
1.0
 40
1.0
 40
1.0
 10
51912.64680053775
 20
10509.25245086958
 30
0.0
 10
51912.65557703956
 20
10507.15371946202
 30
0.0
 10
51912.71116024664
 20
10503.03988278151
 30
0.0
 10
51912.90959181055
 20
10497.06296041512
 30
0.0
 10
51913.21512996533
 20
10491.5337207052
 30
0.0
 10
51913.56148485934
 20
10487.29247224406
 30
0.0
 10
51913.89340592034
 20
10484.26068292379
 30
0.0
 10
51914.15111681027
 20
10482.29947689733
 30
0.0
 10
51914.4256130541
 20
10480.57211897563
 30
0.0
 10
51914.71385949443
 20
10479.09231668118
 30
0.0
 10
51915.01344371561
 20
10477.87194709777
 30
0.0
 10
51915.28464420401
 20
10477.02544649248
 30
0.0
 10
51915.51433797576
 20
10476.49072188425
 30
0.0
 10
51915.67566335613
 20
10476.1886501696
 30
0.0
 10
51915.83809212423
 20
10475.95591539052
 30
0.0
 10
51915.95970944229
 20
10475.83517734253
 30
0.0
 10
51916.02105724524
 20
10475.79061808113
 30
0.0
  0
SPLINE
  5
689D
330
200
100
AcDbEntity
  8
0
  6
Continuous
 62
     7
100
AcDbSpline
210
0.0
220
0.0
230
1.0
 70
     8
 71
     3
 72
    27
 73
    23
 74
     0
 42
0.0000000001
 43
0.0000000001
 40
0.0
 40
0.0
 40
0.0
 40
0.0
 40
0.0623831701
 40
0.0936394756
 40
0.1248827695
 40
0.1873072468
 40
0.2497734699
 40
0.281056154
 40
0.312346553
 40
0.374877582
 40
0.4374324715000001
 40
0.4999999924000001
 40
0.5625675139000001
 40
0.6251224053
 40
0.687653437
 40
0.7189438376
 40
0.7502265234000002
 40
0.8126927496999998
 40
0.8751172299
 40
0.9063605246999999
 40
0.9376168301999999
 40
1.0
 40
1.0
 40
1.0
 40
1.0
 10
51837.30362931678
 20
10475.7906227729
 30
0.0
 10
51837.3238694165
 20
10473.23928638907
 30
0.0
 10
51837.73296484521
 20
10469.39905269834
 30
0.0
 10
51839.01153404616
 20
10464.44805815713
 30
0.0
 10
51840.76942404221
 20
10459.64270363386
 30
0.0
 10
51843.83753383934
 20
10453.99310129799
 30
0.0
 10
51847.94657857745
 20
10449.04636460149
 30
0.0
 10
51851.7592777371
 20
10445.62740576881
 30
0.0
 10
51855.88795087757
 20
10442.59330871557
 30
0.0
 10
51861.57838077592
 20
10439.57818473933
 30
0.0
 10
51868.97369282714
 20
10437.35404163491
 30
0.0
 10
51876.66231949926
 20
10436.602748092
 30
0.0
 10
51884.35094614078
 20
10437.35404270563
 30
0.0
 10
51891.74625811369
 20
10439.57818681746
 30
0.0
 10
51897.43668788418
 20
10442.59331155751
 30
0.0
 10
51901.56536096547
 20
10445.6274091047
 30
0.0
 10
51905.37806003478
 20
10449.04636842818
 30
0.0
 10
51909.48710471837
 20
10453.99310556613
 30
0.0
 10
51912.55521446453
 20
10459.64270825133
 30
0.0
 10
51914.3131044211
 20
10464.44806295266
 30
0.0
 10
51915.59167366923
 20
10469.39905750491
 30
0.0
 10
51916.00076908299
 20
10473.23929118948
 30
0.0
 10
51916.02100917784
 20
10475.79062756093
 30
0.0
  0
LINE
  5
689E
330
200
100
AcDbEntity
  8
0
  6
Continuous
 62
     7
100
AcDbLine
 10
51840.67830061771
 20
10520.98816984006
 30
0.0
 11
51840.67781539245
 21
10521.10529011087
 31
0.0
  0
LINE
  5
689F
330
200
100
AcDbEntity
  8
0
  6
Continuous
 62
     7
100
AcDbLine
 10
51912.6468652329
 20
10521.10527458759
 30
0.0
 11
51912.64638162513
 21
10520.988568589
 31
0.0
  0
SPLINE
  5
68A0
330
200
100
AcDbEntity
  8
0
  6
Continuous
 62
     7
100
AcDbSpline
210
0.0
220
0.0
230
1.0
 70
     8
 71
     3
 72
     8
 73
     4
 74
     0
 42
0.0000000001
 43
0.0000000001
 40
0.0
 40
0.0
 40
0.0
 40
0.0
 40
1.0
 40
1.0
 40
1.0
 40
1.0
 10
51703.99118864397
 20
10733.31056857807
 30
0.0
 10
51704.0255448736
 20
10607.77156413877
 30
0.0
 10
51704.06071939249
 20
10483.5431285048
 30
0.0
 10
51704.0951025244
 20
10359.31469265101
 30
0.0
  0
SPLINE
  5
68A1
330
200
100
AcDbEntity
  8
0
  6
Continuous
 62
     7
100
AcDbSpline
210
0.0
220
0.0
230
1.0
 70
     8
 71
     3
 72
    14
 73
    10
 74
     0
 42
0.0000000001
 43
0.0000000001
 40
0.0
 40
0.0
 40
0.0
 40
0.0
 40
0.2498777626
 40
0.3748792701
 40
0.4998947370000001
 40
0.6248810826
 40
0.74989977
 40
0.8749193031999999
 40
1.0
 40
1.0
 40
1.0
 40
1.0
 10
51763.76148289315
 20
10476.27760050354
 30
0.0
 10
51763.77139396944
 20
10482.40941246792
 30
0.0
 10
51764.12189366009
 20
10491.6165041969
 30
0.0
 10
51765.45965288342
 20
10503.81467755267
 30
0.0
 10
51766.95010446444
 20
10512.90070265945
 30
0.0
 10
51768.98894262069
 20
10521.88111845322
 30
0.0
 10
51771.63255377016
 20
10530.7045040187
 30
0.0
 10
51774.94376000059
 20
10539.30371093958
 30
0.0
 10
51777.63964306993
 20
10544.82832414729
 30
0.0
 10
51779.1134613048
 20
10547.52072363573
 30
0.0
  0
SPLINE
  5
68A2
330
200
100
AcDbEntity
  8
0
  6
Continuous
 62
     7
100
AcDbSpline
210
0.0
220
0.0
230
1.0
 70
     8
 71
     3
 72
    31
 73
    27
 74
     0
 42
0.0000000001
 43
0.0000000001
 40
0.0
 40
0.0
 40
0.0
 40
0.0
 40
0.0624989368
 40
0.124973993
 40
0.1874351792
 40
0.2498901546
 40
0.3123447285
 40
0.3747993362
 40
0.4060636763
 40
0.4373281697
 40
0.4685924718
 40
0.499856765
 40
0.5311210665
 40
0.5623853594
 40
0.5936497282
 40
0.6249139865
 40
0.6873684340999999
 40
0.7498229835
 40
0.7810876262000001
 40
0.8123520489
 40
0.8436176882999999
 40
0.8748857075
 40
0.9061575545999998
 40
0.9374314059999999
 40
0.9687221563999999
 40
1.0
 40
1.0
 40
1.0
 40
1.0
 10
51988.81177001712
 20
10359.08939558841
 30
0.0
 10
51988.68794424861
 20
10351.79469444911
 30
0.0
 10
51987.04670369018
 20
10337.19618141499
 30
0.0
 10
51980.53557171345
 20
10316.17249601101
 30
0.0
 10
51970.0797298738
 20
10296.80183475761
 30
0.0
 10
51956.12632960552
 20
10279.77733808438
 30
0.0
 10
51939.09862175023
 20
10265.83254033662
 30
0.0
 10
51922.92746663274
 20
10257.14548189523
 30
0.0
 10
51909.17487092512
 20
10252.21466160876
 30
0.0
 10
51898.53871163753
 20
10249.54088674544
 30
0.0
 10
51887.69238994439
 20
10247.92302433542
 30
0.0
 10
51876.73949572966
 20
10247.37744843773
 30
0.0
 10
51865.78586540805
 20
10247.90788117507
 30
0.0
 10
51854.9373121881
 20
10249.51074868061
 30
0.0
 10
51844.29757692069
 20
10252.16988807153
 30
0.0
 10
51830.53787444146
 20
10257.08160911247
 30
0.0
 10
51814.35656572706
 20
10265.74451440215
 30
0.0
 10
51800.14159336993
 20
10277.35539990369
 30
0.0
 10
51790.31887875247
 20
10288.17057095341
 30
0.0
 10
51783.76882474121
 20
10296.96625693813
 30
0.0
 10
51778.09152990284
 20
10306.34825151249
 30
0.0
 10
51773.34273563795
 20
10316.23449756097
 30
0.0
 10
51769.57931502711
 20
10326.53701627428
 30
0.0
 10
51766.81737566778
 20
10337.15411920174
 30
0.0
 10
51765.06354770889
 20
10347.98281776386
 30
0.0
 10
51764.5794516371
 20
10355.2839017555
 30
0.0
 10
51764.51546428594
 20
10358.93452938415
 30
0.0
  0
ENDSEC
  0
SECTION
  2
OBJECTS
  0
DICTIONARY
  5
C
330
0
100
AcDbDictionary
281
     1
  3
ACAD_COLOR
350
31C
  3
ACAD_DETAILVIEWSTYLE
350
3E0
  3
ACAD_GROUP
350
D
  3
ACAD_LAYOUT
350
1A
  3
ACAD_MATERIAL
350
2F2
  3
ACAD_MLEADERSTYLE
350
341
  3
ACAD_MLINESTYLE
350
17
  3
ACAD_PLOTSETTINGS
350
19
  3
ACAD_PLOTSTYLENAME
350
E
  3
ACAD_SCALELIST
350
31F
  3
ACAD_SECTIONVIEWSTYLE
350
3E1
  3
ACAD_TABLESTYLE
350
31D
  3
ACAD_VISUALSTYLE
350
30B
  3
ACDB_RECOMPOSE_DATA
350
3DE
  3
ACDBHEADERROUNDTRIPXREC
350
6911
  3
AcDbVariableDictionary
350
347
  0
DICTIONARY
  5
38E
330
2
100
AcDbDictionary
280
     1
281
     1
  3
ACAD_LAYERSTATES
360
38F
  0
DICTIONARY
  5
467B
330
200
100
AcDbDictionary
280
     1
281
     1
  3
ACAD_SORTENTS
360
467C
  0
DICTIONARY
  5
31C
102
{ACAD_REACTORS
330
C
102
}
330
C
100
AcDbDictionary
281
     1
  0
DICTIONARY
  5
3E0
102
{ACAD_REACTORS
330
C
102
}
330
C
100
AcDbDictionary
281
     1
  0
DICTIONARY
  5
D
102
{ACAD_REACTORS
330
C
102
}
330
C
100
AcDbDictionary
281
     1
  0
DICTIONARY
  5
1A
102
{ACAD_REACTORS
330
C
102
}
330
C
100
AcDbDictionary
281
     1
  3
Layout1
350
2EF
  3
Model
350
2EE
  0
DICTIONARY
  5
2F2
102
{ACAD_REACTORS
330
C
102
}
330
C
100
AcDbDictionary
281
     1
  3
ByBlock
350
2FB
  3
ByLayer
350
2F3
  3
Global
350
303
  0
DICTIONARY
  5
341
102
{ACAD_REACTORS
330
C
102
}
330
C
100
AcDbDictionary
281
     1
  3
Standard
350
342
  0
DICTIONARY
  5
17
102
{ACAD_REACTORS
330
C
102
}
330
C
100
AcDbDictionary
281
     1
  3
Standard
350
18
  0
DICTIONARY
  5
19
102
{ACAD_REACTORS
330
C
102
}
330
C
100
AcDbDictionary
281
     1
  0
ACDBDICTIONARYWDFLT
  5
E
102
{ACAD_REACTORS
330
C
102
}
330
C
100
AcDbDictionary
281
     1
  3
Normal
350
F
100
AcDbDictionaryWithDefault
340
F
  0
DICTIONARY
  5
31F
102
{ACAD_REACTORS
330
C
102
}
330
C
100
AcDbDictionary
281
     1
  3
A0
350
320
  3
A1
350
321
  3
A2
350
322
  3
A3
350
323
  3
A4
350
324
  3
A5
350
325
  3
A6
350
326
  3
A7
350
327
  3
A8
350
328
  3
A9
350
329
  3
B0
350
32A
  3
B1
350
32B
  3
B2
350
32C
  3
B3
350
32D
  3
B4
350
32E
  3
B5
350
32F
  3
B6
350
330
  3
B7
350
331
  3
B8
350
332
  3
B9
350
333
  3
C0
350
334
  3
C1
350
335
  3
C2
350
336
  3
C3
350
337
  3
C4
350
338
  3
C5
350
339
  3
C6
350
33A
  3
C7
350
33B
  3
C8
350
33C
  3
C9
350
33D
  3
D0
350
33E
  3
D1
350
33F
  3
D2
350
340
  0
DICTIONARY
  5
3E1
102
{ACAD_REACTORS
330
C
102
}
330
C
100
AcDbDictionary
281
     1
  0
DICTIONARY
  5
31D
102
{ACAD_REACTORS
330
C
102
}
330
C
100
AcDbDictionary
281
     1
  3
Standard
350
31E
  0
DICTIONARY
  5
30B
102
{ACAD_REACTORS
330
C
102
}
330
C
100
AcDbDictionary
281
     1
  3
2dWireframe
350
311
  3
3D Hidden
350
313
  3
3dWireframe
350
312
  3
Basic
350
310
  3
Brighten
350
317
  3
ColorChange
350
31B
  3
Conceptual
350
314
  3
Dim
350
316
  3
EdgeColorOff
350
39F
  3
Facepattern
350
31A
  3
Flat
350
30C
  3
FlatWithEdges
350
30D
  3
Gouraud
350
30E
  3
GouraudWithEdges
350
30F
  3
Hidden
350
39C
  3
JitterOff
350
39D
  3
Linepattern
350
319
  3
OverhangOff
350
39E
  3
Realistic
350
315
  3
Shaded
350
3A4
  3
Shaded with edges
350
3A3
  3
Shades of Gray
350
3A0
  3
Sketchy
350
3A1
  3
Thicken
350
318
  3
Wireframe
350
39B
  3
X-Ray
350
3A2
  0
XRECORD
  5
3DE
102
{ACAD_REACTORS
330
C
102
}
330
C
100
AcDbXrecord
280
     1
 90
        1
330
31E
  0
DICTIONARY
  5
6911
102
{ACAD_REACTORS
330
C
102
}
330
C
100
AcDbDictionary
281
     1
  0
DICTIONARY
  5
347
102
{ACAD_REACTORS
330
C
102
}
330
C
100
AcDbDictionary
281
     1
  3
CANNOSCALE
350
34A
  3
CMLEADERSTYLE
350
349
  3
CTABLESTYLE
350
348
  3
XCLIPFRAME
350
3DF
  0
DICTIONARY
  5
38F
102
{ACAD_REACTORS
330
38E
102
}
330
38E
100
AcDbDictionary
281
     1
  0
SORTENTSTABLE
  5
467C
102
{ACAD_REACTORS
330
467B
102
}
330
467B
100
AcDbSortentsTable
330
200
331
399
  5
399
  0
LAYOUT
  5
2EF
102
{ACAD_REACTORS
330
1A
102
}
330
1A
100
AcDbPlotSettings
  1

  2
none_device
  4
ISO_A4_(297.00_x_210.00_MM)
  6

 40
0.0
 41
0.0
 42
0.0
 43
0.0
 44
297.0
 45
210.0
 46
0.0
 47
0.0
 48
0.0
 49
0.0
140
0.0
141
0.0
142
1.0
143
1.0
 70
     0
 72
     1
 73
     0
 74
     0
  7

 75
     0
147
1.0
 76
     0
 77
     2
 78
   300
148
0.0
149
0.0
100
AcDbLayout
  1
Layout1
 70
     1
 71
     1
 10
0.0
 20
0.0
 11
12.0
 21
9.0
 12
0.0
 22
0.0
 32
0.0
 14
1.000000000000000E+20
 24
1.000000000000000E+20
 34
1.000000000000000E+20
 15
-1.000000000000000E+20
 25
-1.000000000000000E+20
 35
-1.000000000000000E+20
146
0.0
 13
0.0
 23
0.0
 33
0.0
 16
1.0
 26
0.0
 36
0.0
 17
0.0
 27
1.0
 37
0.0
 76
     0
330
201
  0
LAYOUT
  5
2EE
102
{ACAD_REACTORS
330
1A
102
}
330
1A
100
AcDbPlotSettings
  1

  2
none_device
  4
ISO_A4_(297.00_x_210.00_MM)
  6

 40
0.0
 41
0.0
 42
0.0
 43
0.0
 44
297.0
 45
210.0
 46
0.0
 47
0.0
 48
0.0
 49
0.0
140
0.0
141
0.0
142
1.0
143
1.0
 70
  1024
 72
     1
 73
     0
 74
     0
  7

 75
     0
147
1.0
 76
     0
 77
     2
 78
   300
148
0.0
149
0.0
100
AcDbLayout
  1
Model
 70
     0
 71
     0
 10
0.0
 20
0.0
 11
297.0
 21
210.0
 12
0.0
 22
0.0
 32
0.0
 14
0.0
 24
0.0
 34
0.0
 15
0.0
 25
0.0
 35
0.0
146
0.0
 13
0.0
 23
0.0
 33
0.0
 16
1.0
 26
0.0
 36
0.0
 17
0.0
 27
1.0
 37
0.0
 76
     0
330
200
331
39A
  0
MATERIAL
  5
2FB
102
{ACAD_REACTORS
330
2F2
102
}
330
2F2
100
AcDbMaterial
  1
ByBlock
  2

 72
     0
 73
     2
 43
0.0008202099737533
 43
0.0
 43
0.0
 43
0.0
 43
0.0
 43
0.0008202099737533
 43
0.0
 43
0.0
 43
0.0
 43
0.0
 43
1.0
 43
0.0
 43
0.0
 43
0.0
 43
0.0
 43
1.0
 77
     0
 78
     2
 47
0.0008202099737533
 47
0.0
 47
0.0
 47
0.0
 47
0.0
 47
0.0008202099737533
 47
0.0
 47
0.0
 47
0.0
 47
0.0
 47
1.0
 47
0.0
 47
0.0
 47
0.0
 47
0.0
 47
1.0
171
     0
172
     2
 49
0.0008202099737533
 49
0.0
 49
0.0
 49
0.0
 49
0.0
 49
0.0008202099737533
 49
0.0
 49
0.0
 49
0.0
 49
0.0
 49
1.0
 49
0.0
 49
0.0
 49
0.0
 49
0.0
 49
1.0
175
     0
176
     2
142
0.0008202099737533
142
0.0
142
0.0
142
0.0
142
0.0
142
0.0008202099737533
142
0.0
142
0.0
142
0.0
142
0.0
142
1.0
142
0.0
142
0.0
142
0.0
142
0.0
142
1.0
179
     0
270
     2
144
0.0008202099737533
144
0.0
144
0.0
144
0.0
144
0.0
144
0.0008202099737533
144
0.0
144
0.0
144
0.0
144
0.0
144
1.0
144
0.0
144
0.0
144
0.0
144
0.0
144
1.0
274
     2
147
0.0008202099737533
147
0.0
147
0.0
147
0.0
147
0.0
147
0.0008202099737533
147
0.0
147
0.0
147
0.0
147
0.0
147
1.0
147
0.0
147
0.0
147
0.0
147
0.0
147
1.0
  0
MATERIAL
  5
2F3
102
{ACAD_REACTORS
330
2F2
102
}
330
2F2
100
AcDbMaterial
  1
ByLayer
  2

 72
     0
 73
     2
 43
0.0008202099737533
 43
0.0
 43
0.0
 43
0.0
 43
0.0
 43
0.0008202099737533
 43
0.0
 43
0.0
 43
0.0
 43
0.0
 43
1.0
 43
0.0
 43
0.0
 43
0.0
 43
0.0
 43
1.0
 77
     0
 78
     2
 47
0.0008202099737533
 47
0.0
 47
0.0
 47
0.0
 47
0.0
 47
0.0008202099737533
 47
0.0
 47
0.0
 47
0.0
 47
0.0
 47
1.0
 47
0.0
 47
0.0
 47
0.0
 47
0.0
 47
1.0
171
     0
172
     2
 49
0.0008202099737533
 49
0.0
 49
0.0
 49
0.0
 49
0.0
 49
0.0008202099737533
 49
0.0
 49
0.0
 49
0.0
 49
0.0
 49
1.0
 49
0.0
 49
0.0
 49
0.0
 49
0.0
 49
1.0
175
     0
176
     2
142
0.0008202099737533
142
0.0
142
0.0
142
0.0
142
0.0
142
0.0008202099737533
142
0.0
142
0.0
142
0.0
142
0.0
142
1.0
142
0.0
142
0.0
142
0.0
142
0.0
142
1.0
179
     0
270
     2
144
0.0008202099737533
144
0.0
144
0.0
144
0.0
144
0.0
144
0.0008202099737533
144
0.0
144
0.0
144
0.0
144
0.0
144
1.0
144
0.0
144
0.0
144
0.0
144
0.0
144
1.0
274
     2
147
0.0008202099737533
147
0.0
147
0.0
147
0.0
147
0.0
147
0.0008202099737533
147
0.0
147
0.0
147
0.0
147
0.0
147
1.0
147
0.0
147
0.0
147
0.0
147
0.0
147
1.0
  0
MATERIAL
  5
303
102
{ACAD_REACTORS
330
2F2
102
}
330
2F2
100
AcDbMaterial
  1
Global
  2

 72
     0
 73
     2
 43
0.0008202099737533
 43
0.0
 43
0.0
 43
0.0
 43
0.0
 43
0.0008202099737533
 43
0.0
 43
0.0
 43
0.0
 43
0.0
 43
1.0
 43
0.0
 43
0.0
 43
0.0
 43
0.0
 43
1.0
 77
     0
 78
     2
 47
0.0008202099737533
 47
0.0
 47
0.0
 47
0.0
 47
0.0
 47
0.0008202099737533
 47
0.0
 47
0.0
 47
0.0
 47
0.0
 47
1.0
 47
0.0
 47
0.0
 47
0.0
 47
0.0
 47
1.0
171
     0
172
     2
 49
0.0008202099737533
 49
0.0
 49
0.0
 49
0.0
 49
0.0
 49
0.0008202099737533
 49
0.0
 49
0.0
 49
0.0
 49
0.0
 49
1.0
 49
0.0
 49
0.0
 49
0.0
 49
0.0
 49
1.0
175
     0
176
     2
142
0.0008202099737533
142
0.0
142
0.0
142
0.0
142
0.0
142
0.0008202099737533
142
0.0
142
0.0
142
0.0
142
0.0
142
1.0
142
0.0
142
0.0
142
0.0
142
0.0
142
1.0
179
     0
270
     2
144
0.0008202099737533
144
0.0
144
0.0
144
0.0
144
0.0
144
0.0008202099737533
144
0.0
144
0.0
144
0.0
144
0.0
144
1.0
144
0.0
144
0.0
144
0.0
144
0.0
144
1.0
274
     2
147
0.0008202099737533
147
0.0
147
0.0
147
0.0
147
0.0
147
0.0008202099737533
147
0.0
147
0.0
147
0.0
147
0.0
147
1.0
147
0.0
147
0.0
147
0.0
147
0.0
147
1.0
  0
MLEADERSTYLE
  5
342
102
{ACAD_REACTORS
330
341
102
}
330
341
100
AcDbMLeaderStyle
170
     2
171
     1
172
     0
 90
        2
 40
0.0
 41
0.0
173
     1
 91
-1056964608
340
14
 92
       -2
290
     1
 42
2.0
291
     1
 43
0.36
  3
Standard
341
0
 44
4.0
300

342
11
174
     1
178
     6
175
     1
176
     0
 93
-1056964608
 45
4.0
292
     0
297
     0
 46
4.0
343
0
 94
-1056964608
 47
1.0
 49
1.0
140
1.0
293
     1
141
0.0
294
     1
177
     0
142
1.0
295
     0
296
     0
143
0.125
1001
ACAD_MLEADERVER
1070
     2
  0
MLINESTYLE
  5
18
102
{ACAD_REACTORS
330
17
102
}
330
17
100
AcDbMlineStyle
  2
STANDARD
 70
     0
  3

 62
   256
 51
90.0
 52
90.0
 71
     2
 49
0.5
 62
   256
  6
BYLAYER
 49
-0.5
 62
   256
  6
BYLAYER
  0
ACDBPLACEHOLDER
  5
F
102
{ACAD_REACTORS
330
E
102
}
330
E
  0
SCALE
  5
320
102
{ACAD_REACTORS
330
31F
102
}
330
31F
100
AcDbScale
 70
     0
300
1:1
140
1.0
141
1.0
290
     1
  0
SCALE
  5
321
102
{ACAD_REACTORS
330
31F
102
}
330
31F
100
AcDbScale
 70
     0
300
1:2
140
1.0
141
2.0
290
     0
  0
SCALE
  5
322
102
{ACAD_REACTORS
330
31F
102
}
330
31F
100
AcDbScale
 70
     0
300
1:4
140
1.0
141
4.0
290
     0
  0
SCALE
  5
323
102
{ACAD_REACTORS
330
31F
102
}
330
31F
100
AcDbScale
 70
     0
300
1:5
140
1.0
141
5.0
290
     0
  0
SCALE
  5
324
102
{ACAD_REACTORS
330
31F
102
}
330
31F
100
AcDbScale
 70
     0
300
1:8
140
1.0
141
8.0
290
     0
  0
SCALE
  5
325
102
{ACAD_REACTORS
330
31F
102
}
330
31F
100
AcDbScale
 70
     0
300
1:10
140
1.0
141
10.0
290
     0
  0
SCALE
  5
326
102
{ACAD_REACTORS
330
31F
102
}
330
31F
100
AcDbScale
 70
     0
300
1:16
140
1.0
141
16.0
290
     0
  0
SCALE
  5
327
102
{ACAD_REACTORS
330
31F
102
}
330
31F
100
AcDbScale
 70
     0
300
1:20
140
1.0
141
20.0
290
     0
  0
SCALE
  5
328
102
{ACAD_REACTORS
330
31F
102
}
330
31F
100
AcDbScale
 70
     0
300
1:30
140
1.0
141
30.0
290
     0
  0
SCALE
  5
329
102
{ACAD_REACTORS
330
31F
102
}
330
31F
100
AcDbScale
 70
     0
300
1:40
140
1.0
141
40.0
290
     0
  0
SCALE
  5
32A
102
{ACAD_REACTORS
330
31F
102
}
330
31F
100
AcDbScale
 70
     0
300
1:50
140
1.0
141
50.0
290
     0
  0
SCALE
  5
32B
102
{ACAD_REACTORS
330
31F
102
}
330
31F
100
AcDbScale
 70
     0
300
1:100
140
1.0
141
100.0
290
     0
  0
SCALE
  5
32C
102
{ACAD_REACTORS
330
31F
102
}
330
31F
100
AcDbScale
 70
     0
300
2:1
140
2.0
141
1.0
290
     0
  0
SCALE
  5
32D
102
{ACAD_REACTORS
330
31F
102
}
330
31F
100
AcDbScale
 70
     0
300
4:1
140
4.0
141
1.0
290
     0
  0
SCALE
  5
32E
102
{ACAD_REACTORS
330
31F
102
}
330
31F
100
AcDbScale
 70
     0
300
8:1
140
8.0
141
1.0
290
     0
  0
SCALE
  5
32F
102
{ACAD_REACTORS
330
31F
102
}
330
31F
100
AcDbScale
 70
     0
300
10:1
140
10.0
141
1.0
290
     0
  0
SCALE
  5
330
102
{ACAD_REACTORS
330
31F
102
}
330
31F
100
AcDbScale
 70
     0
300
100:1
140
100.0
141
1.0
290
     0
  0
SCALE
  5
331
102
{ACAD_REACTORS
330
31F
102
}
330
31F
100
AcDbScale
 70
     0
300
1/128" = 1'-0"
140
0.0078125
141
12.0
290
     0
  0
SCALE
  5
332
102
{ACAD_REACTORS
330
31F
102
}
330
31F
100
AcDbScale
 70
     0
300
1/64" = 1'-0"
140
0.015625
141
12.0
290
     0
  0
SCALE
  5
333
102
{ACAD_REACTORS
330
31F
102
}
330
31F
100
AcDbScale
 70
     0
300
1/32" = 1'-0"
140
0.03125
141
12.0
290
     0
  0
SCALE
  5
334
102
{ACAD_REACTORS
330
31F
102
}
330
31F
100
AcDbScale
 70
     0
300
1/16" = 1'-0"
140
0.0625
141
12.0
290
     0
  0
SCALE
  5
335
102
{ACAD_REACTORS
330
31F
102
}
330
31F
100
AcDbScale
 70
     0
300
3/32" = 1'-0"
140
0.09375
141
12.0
290
     0
  0
SCALE
  5
336
102
{ACAD_REACTORS
330
31F
102
}
330
31F
100
AcDbScale
 70
     0
300
1/8" = 1'-0"
140
0.125
141
12.0
290
     0
  0
SCALE
  5
337
102
{ACAD_REACTORS
330
31F
102
}
330
31F
100
AcDbScale
 70
     0
300
3/16" = 1'-0"
140
0.1875
141
12.0
290
     0
  0
SCALE
  5
338
102
{ACAD_REACTORS
330
31F
102
}
330
31F
100
AcDbScale
 70
     0
300
1/4" = 1'-0"
140
0.25
141
12.0
290
     0
  0
SCALE
  5
339
102
{ACAD_REACTORS
330
31F
102
}
330
31F
100
AcDbScale
 70
     0
300
3/8" = 1'-0"
140
0.375
141
12.0
290
     0
  0
SCALE
  5
33A
102
{ACAD_REACTORS
330
31F
102
}
330
31F
100
AcDbScale
 70
     0
300
1/2" = 1'-0"
140
0.5
141
12.0
290
     0
  0
SCALE
  5
33B
102
{ACAD_REACTORS
330
31F
102
}
330
31F
100
AcDbScale
 70
     0
300
3/4" = 1'-0"
140
0.75
141
12.0
290
     0
  0
SCALE
  5
33C
102
{ACAD_REACTORS
330
31F
102
}
330
31F
100
AcDbScale
 70
     0
300
1" = 1'-0"
140
1.0
141
12.0
290
     0
  0
SCALE
  5
33D
102
{ACAD_REACTORS
330
31F
102
}
330
31F
100
AcDbScale
 70
     0
300
1-1/2" = 1'-0"
140
1.5
141
12.0
290
     0
  0
SCALE
  5
33E
102
{ACAD_REACTORS
330
31F
102
}
330
31F
100
AcDbScale
 70
     0
300
3" = 1'-0"
140
3.0
141
12.0
290
     0
  0
SCALE
  5
33F
102
{ACAD_REACTORS
330
31F
102
}
330
31F
100
AcDbScale
 70
     0
300
6" = 1'-0"
140
6.0
141
12.0
290
     0
  0
SCALE
  5
340
102
{ACAD_REACTORS
330
31F
102
}
330
31F
100
AcDbScale
 70
     0
300
1'-0" = 1'-0"
140
12.0
141
12.0
290
     0
  0
TABLESTYLE
  5
31E
102
{ACAD_XDICTIONARY
360
3A8
102
}
102
{ACAD_REACTORS
330
31D
102
}
330
31D
100
AcDbTableStyle
  3
Standard
 70
     0
 71
     0
 40
1.5
 41
1.5
280
     0
281
     0
  7
STANDARD
140
4.5
170
     2
 62
     0
 63
   257
283
     1
274
    -2
284
     1
 64
     0
275
    -2
285
     1
 65
     0
276
    -2
286
     1
 66
     0
277
    -2
287
     1
 67
     0
278
    -2
288
     1
 68
     0
279
    -2
289
     1
 69
     0
  7
STANDARD
140
6.0
170
     5
 62
     0
 63
   257
283
     1
274
    -2
284
     1
 64
     0
275
    -2
285
     1
 65
     0
276
    -2
286
     1
 66
     0
277
    -2
287
     1
 67
     0
278
    -2
288
     1
 68
     0
279
    -2
289
     1
 69
     0
  7
STANDARD
140
4.5
170
     5
 62
     0
 63
   257
283
     1
274
    -2
284
     1
 64
     0
275
    -2
285
     1
 65
     0
276
    -2
286
     1
 66
     0
277
    -2
287
     1
 67
     0
278
    -2
288
     1
 68
     0
279
    -2
289
     1
 69
     0
  0
VISUALSTYLE
  5
311
102
{ACAD_XDICTIONARY
360
3AA
102
}
102
{ACAD_REACTORS
330
30B
102
}
330
30B
100
AcDbVisualStyle
  2
2dWireframe
 70
     4
 71
     0
 72
     2
 73
     0
 90
        0
 40
-0.6
 41
-30.0
 62
     5
 63
     7
421
 16777215
 74
     1
 91
        4
 64
     7
 65
   257
 75
     1
175
     1
 42
1.0
 92
        0
 66
   257
 43
1.0
 76
     1
 77
     6
 78
     2
 67
     7
 79
     5
170
     0
171
     0
290
     0
174
     0
 93
        1
 44
0.0
173
     0
291
     0
 45
0.0
1001
ACAD
1000
AcDbSavedByObjectVersion
1070
     0
  0
VISUALSTYLE
  5
313
102
{ACAD_XDICTIONARY
360
3AC
102
}
102
{ACAD_REACTORS
330
30B
102
}
330
30B
100
AcDbVisualStyle
  2
3D Hidden
 70
     6
 71
     1
 72
     2
 73
     2
 90
        0
 40
-0.6
 41
-30.0
 62
     5
 63
     7
421
 16777215
 74
     2
 91
        2
 64
     7
 65
   257
 75
     2
175
     1
 42
40.0
 92
        0
 66
   257
 43
1.0
 76
     1
 77
     6
 78
     2
 67
     7
 79
     3
170
     0
171
     0
290
     0
174
     0
 93
        1
 44
0.0
173
     0
291
     0
 45
0.0
1001
ACAD
1000
AcDbSavedByObjectVersion
1070
     0
  0
VISUALSTYLE
  5
312
102
{ACAD_XDICTIONARY
360
3AE
102
}
102
{ACAD_REACTORS
330
30B
102
}
330
30B
100
AcDbVisualStyle
  2
3dWireframe
 70
     5
 71
     0
 72
     2
 73
     0
 90
        0
 40
-0.6
 41
-30.0
 62
     5
 63
     7
421
 16777215
 74
     1
 91
        4
 64
     7
 65
   257
 75
     1
175
     1
 42
1.0
 92
        0
 66
   257
 43
1.0
 76
     1
 77
     6
 78
     2
 67
     7
 79
     5
170
     0
171
     0
290
     0
174
     0
 93
        1
 44
0.0
173
     0
291
     0
 45
0.0
1001
ACAD
1000
AcDbSavedByObjectVersion
1070
     0
  0
VISUALSTYLE
  5
310
102
{ACAD_XDICTIONARY
360
3B0
102
}
102
{ACAD_REACTORS
330
30B
102
}
330
30B
100
AcDbVisualStyle
  2
Basic
 70
     7
 71
     1
 72
     0
 73
     1
 90
        0
 40
-0.6
 41
-30.0
 62
     5
 63
     7
421
 16777215
 74
     0
 91
        4
 64
     7
 65
   257
 75
     1
175
     1
 42
1.0
 92
        8
 66
     7
 43
1.0
 76
     1
 77
     6
 78
     2
 67
     7
 79
     5
170
     0
171
     0
290
     0
174
     0
 93
        1
 44
0.0
173
     0
291
     1
 45
0.0
1001
ACAD
1000
AcDbSavedByObjectVersion
1070
     0
  0
VISUALSTYLE
  5
317
102
{ACAD_XDICTIONARY
360
3B2
102
}
102
{ACAD_REACTORS
330
30B
102
}
330
30B
100
AcDbVisualStyle
  2
Brighten
 70
    12
 71
     2
 72
     2
 73
     0
 90
        0
 40
-0.6
 41
-30.0
 62
     5
 63
     7
421
 16777215
 74
     1
 91
        4
 64
     7
 65
   257
 75
     1
175
     1
 42
1.0
 92
        8
 66
     7
 43
1.0
 76
     1
 77
     6
 78
     2
 67
     7
 79
     5
170
     0
171
     0
290
     0
174
     0
 93
        1
 44
50.0
173
     0
291
     1
 45
0.0
1001
ACAD
1000
AcDbSavedByObjectVersion
1070
     0
  0
VISUALSTYLE
  5
31B
102
{ACAD_XDICTIONARY
360
3B4
102
}
102
{ACAD_REACTORS
330
30B
102
}
330
30B
100
AcDbVisualStyle
  2
ColorChange
 70
    16
 71
     2
 72
     2
 73
     3
 90
        0
 40
-0.6
 41
-30.0
 62
     5
 63
     8
421
  8421504
 74
     1
 91
        4
 64
     7
 65
   257
 75
     1
175
     1
 42
1.0
 92
        8
 66
     8
424
  8421504
 43
1.0
 76
     1
 77
     6
 78
     2
 67
     7
 79
     5
170
     0
171
     0
290
     0
174
     0
 93
        1
 44
0.0
173
     0
291
     1
 45
0.0
1001
ACAD
1000
AcDbSavedByObjectVersion
1070
     0
  0
VISUALSTYLE
  5
314
102
{ACAD_XDICTIONARY
360
3B6
102
}
102
{ACAD_REACTORS
330
30B
102
}
330
30B
100
AcDbVisualStyle
  2
Conceptual
 70
     9
 71
     3
 72
     2
 73
     0
 90
        0
 40
-0.6
 41
-30.0
 62
     5
 63
     7
421
 16777215
 74
     2
 91
        2
 64
     7
 65
   257
 75
     1
175
     1
 42
40.0
 92
        8
 66
     7
 43
1.0
 76
     1
 77
     6
 78
     2
 67
     7
 79
     3
170
     0
171
     0
290
     0
174
     0
 93
        1
 44
0.0
173
     0
291
     0
 45
0.0
1001
ACAD
1000
AcDbSavedByObjectVersion
1070
     0
  0
VISUALSTYLE
  5
316
102
{ACAD_XDICTIONARY
360
3B8
102
}
102
{ACAD_REACTORS
330
30B
102
}
330
30B
100
AcDbVisualStyle
  2
Dim
 70
    11
 71
     2
 72
     2
 73
     0
 90
        0
 40
-0.6
 41
-30.0
 62
     5
 63
     7
421
 16777215
 74
     1
 91
        4
 64
     7
 65
   257
 75
     1
175
     1
 42
1.0
 92
        8
 66
     7
 43
1.0
 76
     1
 77
     6
 78
     2
 67
     7
 79
     5
170
     0
171
     0
290
     0
174
     0
 93
        1
 44
-50.0
173
     0
291
     1
 45
0.0
1001
ACAD
1000
AcDbSavedByObjectVersion
1070
     0
  0
VISUALSTYLE
  5
39F
102
{ACAD_XDICTIONARY
360
3D2
102
}
102
{ACAD_REACTORS
330
30B
102
}
330
30B
100
AcDbVisualStyle
  2
EdgeColorOff
 70
    22
 71
     2
 72
     2
 73
     0
 90
        0
 40
-0.6
 41
-30.0
 62
     5
 63
     7
421
 16777215
 74
     1
 91
        4
 64
     7
 65
   257
 75
     1
175
     1
 42
1.0
 92
        8
 66
     7
 43
1.0
 76
     1
 77
     6
 78
     2
 67
     7
 79
     5
170
     0
171
     0
290
     0
174
     0
 93
        1
 44
0.0
173
     0
291
     1
 45
0.0
1001
ACAD
1000
AcDbSavedByObjectVersion
1070
     0
  0
VISUALSTYLE
  5
31A
102
{ACAD_XDICTIONARY
360
3BA
102
}
102
{ACAD_REACTORS
330
30B
102
}
330
30B
100
AcDbVisualStyle
  2
Facepattern
 70
    15
 71
     2
 72
     2
 73
     0
 90
        0
 40
-0.6
 41
-30.0
 62
     5
 63
     7
421
 16777215
 74
     1
 91
        4
 64
     7
 65
   257
 75
     1
175
     1
 42
1.0
 92
        8
 66
     7
 43
1.0
 76
     1
 77
     6
 78
     2
 67
     7
 79
     5
170
     0
171
     0
290
     0
174
     0
 93
        1
 44
0.0
173
     0
291
     1
 45
0.0
1001
ACAD
1000
AcDbSavedByObjectVersion
1070
     0
  0
VISUALSTYLE
  5
30C
102
{ACAD_XDICTIONARY
360
3BC
102
}
102
{ACAD_REACTORS
330
30B
102
}
330
30B
100
AcDbVisualStyle
  2
Flat
 70
     0
 71
     2
 72
     1
 73
     1
 90
        2
 40
-0.6
 41
30.0
 62
     5
 63
     7
421
 16777215
 74
     0
 91
        4
 64
     7
 65
   257
 75
     1
175
     1
 42
1.0
 92
        8
 66
     7
 43
1.0
 76
     1
 77
     6
 78
     2
 67
     7
 79
     5
170
     0
171
     0
290
     0
174
     0
 93
       13
 44
0.0
173
     0
291
     1
 45
0.0
1001
ACAD
1000
AcDbSavedByObjectVersion
1070
     0
  0
VISUALSTYLE
  5
30D
102
{ACAD_XDICTIONARY
360
3BE
102
}
102
{ACAD_REACTORS
330
30B
102
}
330
30B
100
AcDbVisualStyle
  2
FlatWithEdges
 70
     1
 71
     2
 72
     1
 73
     1
 90
        2
 40
-0.6
 41
30.0
 62
     5
 63
     7
421
 16777215
 74
     1
 91
        4
 64
     7
 65
   257
 75
     1
175
     1
 42
1.0
 92
        0
 66
   257
 43
1.0
 76
     1
 77
     6
 78
     2
 67
     7
 79
     5
170
     0
171
     0
290
     0
174
     0
 93
       13
 44
0.0
173
     0
291
     1
 45
0.0
1001
ACAD
1000
AcDbSavedByObjectVersion
1070
     0
  0
VISUALSTYLE
  5
30E
102
{ACAD_XDICTIONARY
360
3C0
102
}
102
{ACAD_REACTORS
330
30B
102
}
330
30B
100
AcDbVisualStyle
  2
Gouraud
 70
     2
 71
     2
 72
     2
 73
     1
 90
        2
 40
-0.6
 41
30.0
 62
     5
 63
     7
421
 16777215
 74
     0
 91
        4
 64
     7
 65
   257
 75
     1
175
     1
 42
1.0
 92
        0
 66
     7
 43
1.0
 76
     1
 77
     6
 78
     2
 67
     7
 79
     5
170
     0
171
     0
290
     0
174
     0
 93
       13
 44
0.0
173
     0
291
     1
 45
0.0
1001
ACAD
1000
AcDbSavedByObjectVersion
1070
     0
  0
VISUALSTYLE
  5
30F
102
{ACAD_XDICTIONARY
360
3C2
102
}
102
{ACAD_REACTORS
330
30B
102
}
330
30B
100
AcDbVisualStyle
  2
GouraudWithEdges
 70
     3
 71
     2
 72
     2
 73
     1
 90
        2
 40
-0.6
 41
30.0
 62
     5
 63
     7
421
 16777215
 74
     1
 91
        4
 64
     7
 65
   257
 75
     1
175
     1
 42
1.0
 92
        0
 66
   257
 43
1.0
 76
     1
 77
     6
 78
     2
 67
     7
 79
     5
170
     0
171
     0
290
     0
174
     0
 93
       13
 44
0.0
173
     0
291
     1
 45
0.0
1001
ACAD
1000
AcDbSavedByObjectVersion
1070
     0
  0
VISUALSTYLE
  5
39C
102
{ACAD_XDICTIONARY
360
3CC
102
}
102
{ACAD_REACTORS
330
30B
102
}
330
30B
100
AcDbVisualStyle
  2
Hidden
 70
     6
 71
     1
 72
     2
 73
     2
 90
        0
 40
-0.6
 41
-30.0
 62
     5
 63
     7
421
 16777215
 74
     2
 91
        2
 64
     7
 65
   257
 75
     2
175
     1
 42
40.0
 92
        0
 66
   257
 43
1.0
 76
     1
 77
     6
 78
     2
 67
     7
 79
     3
170
     0
171
     0
290
     0
174
     0
 93
        1
 44
0.0
173
     0
291
     0
 45
0.0
1001
ACAD
1000
AcDbSavedByObjectVersion
1070
     0
  0
VISUALSTYLE
  5
39D
102
{ACAD_XDICTIONARY
360
3CE
102
}
102
{ACAD_REACTORS
330
30B
102
}
330
30B
100
AcDbVisualStyle
  2
JitterOff
 70
    20
 71
     2
 72
     2
 73
     0
 90
        0
 40
-0.6
 41
-30.0
 62
     5
 63
     7
421
 16777215
 74
     1
 91
        4
 64
     7
 65
   257
 75
     1
175
     1
 42
1.0
 92
       10
 66
     7
 43
1.0
 76
     1
 77
     6
 78
     2
 67
     7
 79
     5
170
     0
171
     0
290
     0
174
     0
 93
        1
 44
0.0
173
     0
291
     1
 45
0.0
1001
ACAD
1000
AcDbSavedByObjectVersion
1070
     0
  0
VISUALSTYLE
  5
319
102
{ACAD_XDICTIONARY
360
3C4
102
}
102
{ACAD_REACTORS
330
30B
102
}
330
30B
100
AcDbVisualStyle
  2
Linepattern
 70
    14
 71
     2
 72
     2
 73
     0
 90
        0
 40
-0.6
 41
-30.0
 62
     5
 63
     7
421
 16777215
 74
     1
 91
        4
 64
     7
 65
   257
 75
     7
175
     7
 42
1.0
 92
        8
 66
     7
 43
1.0
 76
     1
 77
     6
 78
     2
 67
     7
 79
     5
170
     0
171
     0
290
     0
174
     0
 93
        1
 44
0.0
173
     0
291
     1
 45
0.0
1001
ACAD
1000
AcDbSavedByObjectVersion
1070
     0
  0
VISUALSTYLE
  5
39E
102
{ACAD_XDICTIONARY
360
3D0
102
}
102
{ACAD_REACTORS
330
30B
102
}
330
30B
100
AcDbVisualStyle
  2
OverhangOff
 70
    21
 71
     2
 72
     2
 73
     0
 90
        0
 40
-0.6
 41
-30.0
 62
     5
 63
     7
421
 16777215
 74
     1
 91
        4
 64
     7
 65
   257
 75
     1
175
     1
 42
1.0
 92
        9
 66
     7
 43
1.0
 76
     1
 77
     6
 78
     2
 67
     7
 79
     5
170
     0
171
     0
290
     0
174
     0
 93
        1
 44
0.0
173
     0
291
     1
 45
0.0
1001
ACAD
1000
AcDbSavedByObjectVersion
1070
     0
  0
VISUALSTYLE
  5
315
102
{ACAD_XDICTIONARY
360
3C6
102
}
102
{ACAD_REACTORS
330
30B
102
}
330
30B
100
AcDbVisualStyle
  2
Realistic
 70
     8
 71
     2
 72
     2
 73
     0
 90
        0
 40
-0.6
 41
-30.0
 62
     5
 63
     7
421
 16777215
 74
     1
 91
        0
 64
     7
 65
   257
 75
     1
175
     1
 42
1.0
 92
        8
 66
     8
424
  7895160
 43
1.0
 76
     1
 77
     6
 78
     2
 67
     7
 79
     5
170
     0
171
     0
290
     0
174
     0
 93
       13
 44
0.0
173
     0
291
     0
 45
0.0
1001
ACAD
1000
AcDbSavedByObjectVersion
1070
     0
  0
VISUALSTYLE
  5
3A4
102
{ACAD_XDICTIONARY
360
3DC
102
}
102
{ACAD_REACTORS
330
30B
102
}
330
30B
100
AcDbVisualStyle
  2
Shaded
 70
    27
 71
     2
 72
     2
 73
     1
 90
        2
 40
-0.6
 41
30.0
 62
     5
 63
     7
421
 16777215
 74
     0
 91
        4
 64
     7
 65
   257
 75
     1
175
     1
 42
1.0
 92
        8
 66
   257
 43
1.0
 76
     1
 77
     6
 78
     2
 67
     8
425
  7895160
 79
     3
170
     0
171
     0
290
     0
174
     0
 93
        5
 44
0.0
173
     0
291
     0
 45
0.0
1001
ACAD
1000
AcDbSavedByObjectVersion
1070
     0
  0
VISUALSTYLE
  5
3A3
102
{ACAD_XDICTIONARY
360
3DA
102
}
102
{ACAD_REACTORS
330
30B
102
}
330
30B
100
AcDbVisualStyle
  2
Shaded with edges
 70
    26
 71
     2
 72
     2
 73
     1
 90
        2
 40
-0.6
 41
30.0
 62
     5
 63
     7
421
 16777215
 74
     1
 91
       10
 64
     7
 65
   257
 75
     2
175
     1
 42
1.0
 92
        8
 66
   257
 43
1.0
 76
     1
 77
     6
 78
     2
 67
     7
 79
     3
170
     0
171
     0
290
     0
174
     0
 93
        5
 44
0.0
173
     0
291
     0
 45
0.0
1001
ACAD
1000
AcDbSavedByObjectVersion
1070
     0
  0
VISUALSTYLE
  5
3A0
102
{ACAD_XDICTIONARY
360
3D4
102
}
102
{ACAD_REACTORS
330
30B
102
}
330
30B
100
AcDbVisualStyle
  2
Shades of Gray
 70
    23
 71
     2
 72
     2
 73
     3
 90
        0
 40
-0.6
 41
-30.0
 62
     5
 63
     7
421
 16777215
 74
     2
 91
        2
 64
     7
 65
     7
 75
     1
175
     1
 42
40.0
 92
        8
 66
     7
 43
1.0
 76
     1
 77
     6
 78
     2
 67
     7
 79
     3
170
     0
171
     0
290
     0
174
     0
 93
        1
 44
0.0
173
     0
291
     0
 45
0.0
1001
ACAD
1000
AcDbSavedByObjectVersion
1070
     0
  0
VISUALSTYLE
  5
3A1
102
{ACAD_XDICTIONARY
360
3D6
102
}
102
{ACAD_REACTORS
330
30B
102
}
330
30B
100
AcDbVisualStyle
  2
Sketchy
 70
    24
 71
     1
 72
     2
 73
     2
 90
        0
 40
-0.6
 41
-30.0
 62
     5
 63
     7
421
 16777215
 74
     2
 91
        2
 64
     7
 65
     7
 75
     1
175
     1
 42
40.0
 92
       11
 66
     7
 43
1.0
 76
     1
 77
     6
 78
     2
 67
     7
 79
     6
170
     0
171
     0
290
     0
174
     0
 93
        1
 44
0.0
173
     0
291
     0
 45
0.0
1001
ACAD
1000
AcDbSavedByObjectVersion
1070
     0
  0
VISUALSTYLE
  5
318
102
{ACAD_XDICTIONARY
360
3C8
102
}
102
{ACAD_REACTORS
330
30B
102
}
330
30B
100
AcDbVisualStyle
  2
Thicken
 70
    13
 71
     2
 72
     2
 73
     0
 90
        0
 40
-0.6
 41
-30.0
 62
     5
 63
     7
421
 16777215
 74
     1
 91
        4
 64
     7
 65
   257
 75
     1
175
     1
 42
1.0
 92
       12
 66
     7
 43
1.0
 76
     1
 77
     6
 78
     2
 67
     7
 79
     5
170
     0
171
     0
290
     0
174
     0
 93
        1
 44
0.0
173
     0
291
     1
 45
0.0
1001
ACAD
1000
AcDbSavedByObjectVersion
1070
     0
  0
VISUALSTYLE
  5
39B
102
{ACAD_XDICTIONARY
360
3CA
102
}
102
{ACAD_REACTORS
330
30B
102
}
330
30B
100
AcDbVisualStyle
  2
Wireframe
 70
     5
 71
     0
 72
     2
 73
     0
 90
        0
 40
-0.6
 41
-30.0
 62
     5
 63
     7
421
 16777215
 74
     1
 91
        4
 64
     7
 65
   257
 75
     1
175
     1
 42
1.0
 92
        0
 66
   257
 43
1.0
 76
     1
 77
     6
 78
     2
 67
     7
 79
     3
170
     0
171
     0
290
     0
174
     0
 93
        1
 44
0.0
173
     0
291
     0
 45
0.0
1001
ACAD
1000
AcDbSavedByObjectVersion
1070
     0
  0
VISUALSTYLE
  5
3A2
102
{ACAD_XDICTIONARY
360
3D8
102
}
102
{ACAD_REACTORS
330
30B
102
}
330
30B
100
AcDbVisualStyle
  2
X-Ray
 70
    25
 71
     2
 72
     2
 73
     1
 90
        1
 40
0.5
 41
-30.0
 62
     5
 63
     7
421
 16777215
 74
     1
 91
        0
 64
     7
 65
   257
 75
     1
175
     1
 42
1.0
 92
        8
 66
     7
 43
1.0
 76
     1
 77
     6
 78
     2
 67
     7
 79
     3
170
     0
171
     0
290
     0
174
     0
 93
       13
 44
0.0
173
     0
291
     0
 45
0.0
1001
ACAD
1000
AcDbSavedByObjectVersion
1070
     0
  0
DICTIONARYVAR
  5
34A
102
{ACAD_REACTORS
330
347
102
}
330
347
100
DictionaryVariables
280
     0
  1
1:1
  0
DICTIONARYVAR
  5
349
102
{ACAD_REACTORS
330
347
102
}
330
347
100
DictionaryVariables
280
     0
  1
STANDARD
  0
DICTIONARYVAR
  5
348
102
{ACAD_REACTORS
330
347
102
}
330
347
100
DictionaryVariables
280
     0
  1
STANDARD
  0
DICTIONARYVAR
  5
3DF
102
{ACAD_REACTORS
330
347
102
}
330
347
100
DictionaryVariables
280
     0
  1
0
  0
DICTIONARY
  5
3A8
330
31E
100
AcDbDictionary
280
     1
281
     1
  3
ACAD_ROUNDTRIP_2008_TABLESTYLE_CELLSTYLEMAP
360
6913
  3
ACAD_XREC_ROUNDTRIP
360
6912
  0
DICTIONARY
  5
3AA
330
311
100
AcDbDictionary
280
     1
281
     1
  3
ACAD_XREC_ROUNDTRIP
360
3AB
  0
DICTIONARY
  5
3AC
330
313
100
AcDbDictionary
280
     1
281
     1
  3
ACAD_XREC_ROUNDTRIP
360
3AD
  0
DICTIONARY
  5
3AE
330
312
100
AcDbDictionary
280
     1
281
     1
  3
ACAD_XREC_ROUNDTRIP
360
3AF
  0
DICTIONARY
  5
3B0
330
310
100
AcDbDictionary
280
     1
281
     1
  3
ACAD_XREC_ROUNDTRIP
360
3B1
  0
DICTIONARY
  5
3B2
330
317
100
AcDbDictionary
280
     1
281
     1
  3
ACAD_XREC_ROUNDTRIP
360
3B3
  0
DICTIONARY
  5
3B4
330
31B
100
AcDbDictionary
280
     1
281
     1
  3
ACAD_XREC_ROUNDTRIP
360
3B5
  0
DICTIONARY
  5
3B6
330
314
100
AcDbDictionary
280
     1
281
     1
  3
ACAD_XREC_ROUNDTRIP
360
3B7
  0
DICTIONARY
  5
3B8
330
316
100
AcDbDictionary
280
     1
281
     1
  3
ACAD_XREC_ROUNDTRIP
360
3B9
  0
DICTIONARY
  5
3D2
330
39F
100
AcDbDictionary
280
     1
281
     1
  3
ACAD_XREC_ROUNDTRIP
360
3D3
  0
DICTIONARY
  5
3BA
330
31A
100
AcDbDictionary
280
     1
281
     1
  3
ACAD_XREC_ROUNDTRIP
360
3BB
  0
DICTIONARY
  5
3BC
330
30C
100
AcDbDictionary
280
     1
281
     1
  3
ACAD_XREC_ROUNDTRIP
360
3BD
  0
DICTIONARY
  5
3BE
330
30D
100
AcDbDictionary
280
     1
281
     1
  3
ACAD_XREC_ROUNDTRIP
360
3BF
  0
DICTIONARY
  5
3C0
330
30E
100
AcDbDictionary
280
     1
281
     1
  3
ACAD_XREC_ROUNDTRIP
360
3C1
  0
DICTIONARY
  5
3C2
330
30F
100
AcDbDictionary
280
     1
281
     1
  3
ACAD_XREC_ROUNDTRIP
360
3C3
  0
DICTIONARY
  5
3CC
330
39C
100
AcDbDictionary
280
     1
281
     1
  3
ACAD_XREC_ROUNDTRIP
360
3CD
  0
DICTIONARY
  5
3CE
330
39D
100
AcDbDictionary
280
     1
281
     1
  3
ACAD_XREC_ROUNDTRIP
360
3CF
  0
DICTIONARY
  5
3C4
330
319
100
AcDbDictionary
280
     1
281
     1
  3
ACAD_XREC_ROUNDTRIP
360
3C5
  0
DICTIONARY
  5
3D0
330
39E
100
AcDbDictionary
280
     1
281
     1
  3
ACAD_XREC_ROUNDTRIP
360
3D1
  0
DICTIONARY
  5
3C6
330
315
100
AcDbDictionary
280
     1
281
     1
  3
ACAD_XREC_ROUNDTRIP
360
3C7
  0
DICTIONARY
  5
3DC
330
3A4
100
AcDbDictionary
280
     1
281
     1
  3
ACAD_XREC_ROUNDTRIP
360
3DD
  0
DICTIONARY
  5
3DA
330
3A3
100
AcDbDictionary
280
     1
281
     1
  3
ACAD_XREC_ROUNDTRIP
360
3DB
  0
DICTIONARY
  5
3D4
330
3A0
100
AcDbDictionary
280
     1
281
     1
  3
ACAD_XREC_ROUNDTRIP
360
3D5
  0
DICTIONARY
  5
3D6
330
3A1
100
AcDbDictionary
280
     1
281
     1
  3
ACAD_XREC_ROUNDTRIP
360
3D7
  0
DICTIONARY
  5
3C8
330
318
100
AcDbDictionary
280
     1
281
     1
  3
ACAD_XREC_ROUNDTRIP
360
3C9
  0
DICTIONARY
  5
3CA
330
39B
100
AcDbDictionary
280
     1
281
     1
  3
ACAD_XREC_ROUNDTRIP
360
3CB
  0
DICTIONARY
  5
3D8
330
3A2
100
AcDbDictionary
280
     1
281
     1
  3
ACAD_XREC_ROUNDTRIP
360
3D9
  0
CELLSTYLEMAP
  5
6913
102
{ACAD_REACTORS
330
3A8
102
}
330
3A8
100
AcDbCellStyleMap
 90
        3
300
CELLSTYLE
  1
TABLEFORMAT_BEGIN
 90
        5
170
     1
 91
        0
 92
        0
 62
   257
 93
        1
300
CONTENTFORMAT
  1
CONTENTFORMAT_BEGIN
 90
        0
 91
        0
 92
      512
 93
        0
300

 40
0.0
140
1.0
 94
        5
 62
     0
340
11
144
6.0
309
CONTENTFORMAT_END
171
     1
301
MARGIN
  1
CELLMARGIN_BEGIN
 40
1.5
 40
1.5
 40
1.5
 40
1.5
 40
4.5
 40
4.5
309
CELLMARGIN_END
 94
        6
 95
        1
302
GRIDFORMAT
  1
GRIDFORMAT_BEGIN
 90
        0
 91
        1
 62
     0
 92
       -2
340
0
 93
        0
 40
1.125
309
GRIDFORMAT_END
 95
        2
302
GRIDFORMAT
  1
GRIDFORMAT_BEGIN
 90
        0
 91
        1
 62
     0
 92
       -2
340
0
 93
        0
 40
1.125
309
GRIDFORMAT_END
 95
        4
302
GRIDFORMAT
  1
GRIDFORMAT_BEGIN
 90
        0
 91
        1
 62
     0
 92
       -2
340
0
 93
        0
 40
1.125
309
GRIDFORMAT_END
 95
        8
302
GRIDFORMAT
  1
GRIDFORMAT_BEGIN
 90
        0
 91
        1
 62
     0
 92
       -2
340
0
 93
        0
 40
1.125
309
GRIDFORMAT_END
 95
       16
302
GRIDFORMAT
  1
GRIDFORMAT_BEGIN
 90
        0
 91
        1
 62
     0
 92
       -2
340
0
 93
        0
 40
1.125
309
GRIDFORMAT_END
 95
       32
302
GRIDFORMAT
  1
GRIDFORMAT_BEGIN
 90
        0
 91
        1
 62
     0
 92
       -2
340
0
 93
        0
 40
1.125
309
GRIDFORMAT_END
309
TABLEFORMAT_END
  1
CELLSTYLE_BEGIN
 90
        1
 91
        1
300
_TITLE
309
CELLSTYLE_END
300
CELLSTYLE
  1
TABLEFORMAT_BEGIN
 90
        5
170
     1
 91
        0
 92
        0
 62
   257
 93
        1
300
CONTENTFORMAT
  1
CONTENTFORMAT_BEGIN
 90
        0
 91
        0
 92
      512
 93
        0
300

 40
0.0
140
1.0
 94
        5
 62
     0
340
11
144
4.5
309
CONTENTFORMAT_END
171
     1
301
MARGIN
  1
CELLMARGIN_BEGIN
 40
1.5
 40
1.5
 40
1.5
 40
1.5
 40
4.5
 40
4.5
309
CELLMARGIN_END
 94
        6
 95
        1
302
GRIDFORMAT
  1
GRIDFORMAT_BEGIN
 90
        0
 91
        1
 62
     0
 92
       -2
340
0
 93
        0
 40
1.125
309
GRIDFORMAT_END
 95
        2
302
GRIDFORMAT
  1
GRIDFORMAT_BEGIN
 90
        0
 91
        1
 62
     0
 92
       -2
340
0
 93
        0
 40
1.125
309
GRIDFORMAT_END
 95
        4
302
GRIDFORMAT
  1
GRIDFORMAT_BEGIN
 90
        0
 91
        1
 62
     0
 92
       -2
340
0
 93
        0
 40
1.125
309
GRIDFORMAT_END
 95
        8
302
GRIDFORMAT
  1
GRIDFORMAT_BEGIN
 90
        0
 91
        1
 62
     0
 92
       -2
340
0
 93
        0
 40
1.125
309
GRIDFORMAT_END
 95
       16
302
GRIDFORMAT
  1
GRIDFORMAT_BEGIN
 90
        0
 91
        1
 62
     0
 92
       -2
340
0
 93
        0
 40
1.125
309
GRIDFORMAT_END
 95
       32
302
GRIDFORMAT
  1
GRIDFORMAT_BEGIN
 90
        0
 91
        1
 62
     0
 92
       -2
340
0
 93
        0
 40
1.125
309
GRIDFORMAT_END
309
TABLEFORMAT_END
  1
CELLSTYLE_BEGIN
 90
        2
 91
        1
300
_HEADER
309
CELLSTYLE_END
300
CELLSTYLE
  1
TABLEFORMAT_BEGIN
 90
        5
170
     1
 91
        0
 92
        0
 62
   257
 93
        1
300
CONTENTFORMAT
  1
CONTENTFORMAT_BEGIN
 90
        0
 91
        0
 92
      512
 93
        0
300

 40
0.0
140
1.0
 94
        2
 62
     0
340
11
144
4.5
309
CONTENTFORMAT_END
171
     1
301
MARGIN
  1
CELLMARGIN_BEGIN
 40
1.5
 40
1.5
 40
1.5
 40
1.5
 40
4.5
 40
4.5
309
CELLMARGIN_END
 94
        6
 95
        1
302
GRIDFORMAT
  1
GRIDFORMAT_BEGIN
 90
        0
 91
        1
 62
     0
 92
       -2
340
0
 93
        0
 40
1.125
309
GRIDFORMAT_END
 95
        2
302
GRIDFORMAT
  1
GRIDFORMAT_BEGIN
 90
        0
 91
        1
 62
     0
 92
       -2
340
0
 93
        0
 40
1.125
309
GRIDFORMAT_END
 95
        4
302
GRIDFORMAT
  1
GRIDFORMAT_BEGIN
 90
        0
 91
        1
 62
     0
 92
       -2
340
0
 93
        0
 40
1.125
309
GRIDFORMAT_END
 95
        8
302
GRIDFORMAT
  1
GRIDFORMAT_BEGIN
 90
        0
 91
        1
 62
     0
 92
       -2
340
0
 93
        0
 40
1.125
309
GRIDFORMAT_END
 95
       16
302
GRIDFORMAT
  1
GRIDFORMAT_BEGIN
 90
        0
 91
        1
 62
     0
 92
       -2
340
0
 93
        0
 40
1.125
309
GRIDFORMAT_END
 95
       32
302
GRIDFORMAT
  1
GRIDFORMAT_BEGIN
 90
        0
 91
        1
 62
     0
 92
       -2
340
0
 93
        0
 40
1.125
309
GRIDFORMAT_END
309
TABLEFORMAT_END
  1
CELLSTYLE_BEGIN
 90
        3
 91
        2
300
_DATA
309
CELLSTYLE_END
  0
XRECORD
  5
6912
102
{ACAD_REACTORS
330
3A8
102
}
330
3A8
100
AcDbXrecord
280
     1
102
ACAD_ROUNDTRIP_PRE2007_TABLESTYLE
 90
      512
 91
        0
  1

 92
      512
 93
        0
  2

 94
      512
 95
        0
  3

  0
XRECORD
  5
3AB
102
{ACAD_REACTORS
330
3AA
102
}
330
3AA
100
AcDbXrecord
280
     1
102
RTVSPropertyOp0
 70
     1
102
RTVSPropertyOp1
 70
     1
102
RTVSPropertyOp2
 70
     1
102
RTVSPropertyOp3
 70
     1
102
RTVSPropertyOp4
 70
     1
102
RTVSPropertyOp5
 70
     1
102
RTVSPropertyOp6
 70
     1
102
RTVSPropertyOp7
 70
     1
102
RTVSPropertyOp8
 70
     1
102
RTVSPropertyOp9
 70
     1
102
RTVSPropertyOp10
 70
     1
102
RTVSPropertyOp11
 70
     1
102
RTVSPropertyOp12
 70
     1
102
RTVSPropertyOp13
 70
     1
102
RTVSPropertyOp14
 70
     1
102
RTVSPropertyOp15
 70
     1
102
RTVSPropertyOp16
 70
     1
102
RTVSPropertyOp17
 70
     1
102
RTVSPropertyOp18
 70
     1
102
RTVSPropertyOp19
 70
     1
102
RTVSPropertyOp20
 70
     1
102
RTVSPropertyOp21
 70
     1
102
RTVSPropertyOp22
 70
     1
102
RTVSPropertyOp23
 70
     1
102
RTVSPropertyOp24
 70
     1
102
RTVSPropertyOp25
 70
     1
102
RTVSPropertyOp26
 70
     1
102
RTVSPropertyOp27
 70
     1
  0
XRECORD
  5
3AD
102
{ACAD_REACTORS
330
3AC
102
}
330
3AC
100
AcDbXrecord
280
     1
102
RTVSPropertyOp0
 70
     1
102
RTVSPropertyOp1
 70
     1
102
RTVSPropertyOp2
 70
     1
102
RTVSPropertyOp3
 70
     1
102
RTVSPropertyOp4
 70
     1
102
RTVSPropertyOp5
 70
     1
102
RTVSPropertyOp6
 70
     1
102
RTVSPropertyOp7
 70
     1
102
RTVSPropertyOp8
 70
     1
102
RTVSPropertyOp9
 70
     1
102
RTVSPropertyOp10
 70
     1
102
RTVSPropertyOp11
 70
     1
102
RTVSPropertyOp12
 70
     1
102
RTVSPropertyOp13
 70
     1
102
RTVSPropertyOp14
 70
     1
102
RTVSPropertyOp15
 70
     1
102
RTVSPropertyOp16
 70
     1
102
RTVSPropertyOp17
 70
     1
102
RTVSPropertyOp18
 70
     1
102
RTVSPropertyOp19
 70
     1
102
RTVSPropertyOp20
 70
     1
102
RTVSPropertyOp21
 70
     1
102
RTVSPropertyOp22
 70
     1
102
RTVSPropertyOp23
 70
     1
102
RTVSPropertyOp24
 70
     1
102
RTVSPropertyOp25
 70
     1
102
RTVSPropertyOp26
 70
     1
102
RTVSPropertyOp27
 70
     1
  0
XRECORD
  5
3AF
102
{ACAD_REACTORS
330
3AE
102
}
330
3AE
100
AcDbXrecord
280
     1
102
RTVSPropertyOp0
 70
     1
102
RTVSPropertyOp1
 70
     1
102
RTVSPropertyOp2
 70
     1
102
RTVSPropertyOp3
 70
     1
102
RTVSPropertyOp4
 70
     1
102
RTVSPropertyOp5
 70
     1
102
RTVSPropertyOp6
 70
     1
102
RTVSPropertyOp7
 70
     1
102
RTVSPropertyOp8
 70
     1
102
RTVSPropertyOp9
 70
     1
102
RTVSPropertyOp10
 70
     1
102
RTVSPropertyOp11
 70
     1
102
RTVSPropertyOp12
 70
     1
102
RTVSPropertyOp13
 70
     1
102
RTVSPropertyOp14
 70
     1
102
RTVSPropertyOp15
 70
     1
102
RTVSPropertyOp16
 70
     1
102
RTVSPropertyOp17
 70
     1
102
RTVSPropertyOp18
 70
     1
102
RTVSPropertyOp19
 70
     1
102
RTVSPropertyOp20
 70
     1
102
RTVSPropertyOp21
 70
     1
102
RTVSPropertyOp22
 70
     1
102
RTVSPropertyOp23
 70
     1
102
RTVSPropertyOp24
 70
     1
102
RTVSPropertyOp25
 70
     1
102
RTVSPropertyOp26
 70
     1
102
RTVSPropertyOp27
 70
     1
  0
XRECORD
  5
3B1
102
{ACAD_REACTORS
330
3B0
102
}
330
3B0
100
AcDbXrecord
280
     1
102
RTVSPropertyOp0
 70
     1
102
RTVSPropertyOp1
 70
     1
102
RTVSPropertyOp2
 70
     1
102
RTVSPropertyOp3
 70
     1
102
RTVSPropertyOp4
 70
     1
102
RTVSPropertyOp5
 70
     1
102
RTVSPropertyOp6
 70
     1
102
RTVSPropertyOp7
 70
     1
102
RTVSPropertyOp8
 70
     1
102
RTVSPropertyOp9
 70
     1
102
RTVSPropertyOp10
 70
     1
102
RTVSPropertyOp11
 70
     1
102
RTVSPropertyOp12
 70
     1
102
RTVSPropertyOp13
 70
     1
102
RTVSPropertyOp14
 70
     1
102
RTVSPropertyOp15
 70
     1
102
RTVSPropertyOp16
 70
     1
102
RTVSPropertyOp17
 70
     1
102
RTVSPropertyOp18
 70
     1
102
RTVSPropertyOp19
 70
     1
102
RTVSPropertyOp20
 70
     1
102
RTVSPropertyOp21
 70
     1
102
RTVSPropertyOp22
 70
     1
102
RTVSPropertyOp23
 70
     1
102
RTVSPropertyOp24
 70
     1
102
RTVSPropertyOp25
 70
     1
102
RTVSPropertyOp26
 70
     1
102
RTVSPropertyOp27
 70
     1
  0
XRECORD
  5
3B3
102
{ACAD_REACTORS
330
3B2
102
}
330
3B2
100
AcDbXrecord
280
     1
102
RTVSPropertyOp0
 70
     1
102
RTVSPropertyOp1
 70
     1
102
RTVSPropertyOp2
 70
     1
102
RTVSPropertyOp3
 70
     1
102
RTVSPropertyOp4
 70
     1
102
RTVSPropertyOp5
 70
     1
102
RTVSPropertyOp6
 70
     1
102
RTVSPropertyOp7
 70
     1
102
RTVSPropertyOp8
 70
     1
102
RTVSPropertyOp9
 70
     1
102
RTVSPropertyOp10
 70
     1
102
RTVSPropertyOp11
 70
     1
102
RTVSPropertyOp12
 70
     1
102
RTVSPropertyOp13
 70
     1
102
RTVSPropertyOp14
 70
     1
102
RTVSPropertyOp15
 70
     1
102
RTVSPropertyOp16
 70
     1
102
RTVSPropertyOp17
 70
     1
102
RTVSPropertyOp18
 70
     1
102
RTVSPropertyOp19
 70
     1
102
RTVSPropertyOp20
 70
     1
102
RTVSPropertyOp21
 70
     1
102
RTVSPropertyOp22
 70
     1
102
RTVSPropertyOp23
 70
     1
102
RTVSPropertyOp24
 70
     1
102
RTVSPropertyOp25
 70
     1
102
RTVSPropertyOp26
 70
     1
102
RTVSPropertyOp27
 70
     1
  0
XRECORD
  5
3B5
102
{ACAD_REACTORS
330
3B4
102
}
330
3B4
100
AcDbXrecord
280
     1
102
RTVSPropertyOp0
 70
     1
102
RTVSPropertyOp1
 70
     1
102
RTVSPropertyOp2
 70
     1
102
RTVSPropertyOp3
 70
     1
102
RTVSPropertyOp4
 70
     1
102
RTVSPropertyOp5
 70
     1
102
RTVSPropertyOp6
 70
     1
102
RTVSPropertyOp7
 70
     1
102
RTVSPropertyOp8
 70
     1
102
RTVSPropertyOp9
 70
     1
102
RTVSPropertyOp10
 70
     1
102
RTVSPropertyOp11
 70
     1
102
RTVSPropertyOp12
 70
     1
102
RTVSPropertyOp13
 70
     1
102
RTVSPropertyOp14
 70
     1
102
RTVSPropertyOp15
 70
     1
102
RTVSPropertyOp16
 70
     1
102
RTVSPropertyOp17
 70
     1
102
RTVSPropertyOp18
 70
     1
102
RTVSPropertyOp19
 70
     1
102
RTVSPropertyOp20
 70
     1
102
RTVSPropertyOp21
 70
     1
102
RTVSPropertyOp22
 70
     1
102
RTVSPropertyOp23
 70
     1
102
RTVSPropertyOp24
 70
     1
102
RTVSPropertyOp25
 70
     1
102
RTVSPropertyOp26
 70
     1
102
RTVSPropertyOp27
 70
     1
  0
XRECORD
  5
3B7
102
{ACAD_REACTORS
330
3B6
102
}
330
3B6
100
AcDbXrecord
280
     1
102
RTVSPropertyOp0
 70
     1
102
RTVSPropertyOp1
 70
     1
102
RTVSPropertyOp2
 70
     1
102
RTVSPropertyOp3
 70
     1
102
RTVSPropertyOp4
 70
     1
102
RTVSPropertyOp5
 70
     1
102
RTVSPropertyOp6
 70
     1
102
RTVSPropertyOp7
 70
     1
102
RTVSPropertyOp8
 70
     1
102
RTVSPropertyOp9
 70
     1
102
RTVSPropertyOp10
 70
     1
102
RTVSPropertyOp11
 70
     1
102
RTVSPropertyOp12
 70
     1
102
RTVSPropertyOp13
 70
     1
102
RTVSPropertyOp14
 70
     1
102
RTVSPropertyOp15
 70
     1
102
RTVSPropertyOp16
 70
     1
102
RTVSPropertyOp17
 70
     1
102
RTVSPropertyOp18
 70
     1
102
RTVSPropertyOp19
 70
     1
102
RTVSPropertyOp20
 70
     1
102
RTVSPropertyOp21
 70
     1
102
RTVSPropertyOp22
 70
     1
102
RTVSPropertyOp23
 70
     1
102
RTVSPropertyOp24
 70
     1
102
RTVSPropertyOp25
 70
     1
102
RTVSPropertyOp26
 70
     1
102
RTVSPropertyOp27
 70
     1
  0
XRECORD
  5
3B9
102
{ACAD_REACTORS
330
3B8
102
}
330
3B8
100
AcDbXrecord
280
     1
102
RTVSPropertyOp0
 70
     1
102
RTVSPropertyOp1
 70
     1
102
RTVSPropertyOp2
 70
     1
102
RTVSPropertyOp3
 70
     1
102
RTVSPropertyOp4
 70
     1
102
RTVSPropertyOp5
 70
     1
102
RTVSPropertyOp6
 70
     1
102
RTVSPropertyOp7
 70
     1
102
RTVSPropertyOp8
 70
     1
102
RTVSPropertyOp9
 70
     1
102
RTVSPropertyOp10
 70
     1
102
RTVSPropertyOp11
 70
     1
102
RTVSPropertyOp12
 70
     1
102
RTVSPropertyOp13
 70
     1
102
RTVSPropertyOp14
 70
     1
102
RTVSPropertyOp15
 70
     1
102
RTVSPropertyOp16
 70
     1
102
RTVSPropertyOp17
 70
     1
102
RTVSPropertyOp18
 70
     1
102
RTVSPropertyOp19
 70
     1
102
RTVSPropertyOp20
 70
     1
102
RTVSPropertyOp21
 70
     1
102
RTVSPropertyOp22
 70
     1
102
RTVSPropertyOp23
 70
     1
102
RTVSPropertyOp24
 70
     1
102
RTVSPropertyOp25
 70
     1
102
RTVSPropertyOp26
 70
     1
102
RTVSPropertyOp27
 70
     1
  0
XRECORD
  5
3D3
102
{ACAD_REACTORS
330
3D2
102
}
330
3D2
100
AcDbXrecord
280
     1
102
RTVSPropertyOp0
 70
     0
102
RTVSPropertyOp1
 70
     0
102
RTVSPropertyOp2
 70
     0
102
RTVSPropertyOp3
 70
     0
102
RTVSPropertyOp4
 70
     0
102
RTVSPropertyOp5
 70
     0
102
RTVSPropertyOp6
 70
     0
102
RTVSPropertyOp7
 70
     0
102
RTVSPropertyOp8
 70
     0
102
RTVSPropertyOp9
 70
     0
102
RTVSPropertyOp10
 70
     0
102
RTVSPropertyOp11
 70
     0
102
RTVSPropertyOp12
 70
     0
102
RTVSPropertyOp13
 70
     0
102
RTVSPropertyOp14
 70
     2
102
RTVSPropertyOp15
 70
     0
102
RTVSPropertyOp16
 70
     0
102
RTVSPropertyOp17
 70
     0
102
RTVSPropertyOp18
 70
     0
102
RTVSPropertyOp19
 70
     0
102
RTVSPropertyOp20
 70
     0
102
RTVSPropertyOp21
 70
     0
102
RTVSPropertyOp22
 70
     0
102
RTVSPropertyOp23
 70
     0
102
RTVSPropertyOp24
 70
     0
102
RTVSPropertyOp25
 70
     0
102
RTVSPropertyOp26
 70
     0
102
RTVSPropertyOp27
 70
     0
  0
XRECORD
  5
3BB
102
{ACAD_REACTORS
330
3BA
102
}
330
3BA
100
AcDbXrecord
280
     1
102
RTVSPropertyOp0
 70
     1
102
RTVSPropertyOp1
 70
     1
102
RTVSPropertyOp2
 70
     1
102
RTVSPropertyOp3
 70
     1
102
RTVSPropertyOp4
 70
     1
102
RTVSPropertyOp5
 70
     1
102
RTVSPropertyOp6
 70
     1
102
RTVSPropertyOp7
 70
     1
102
RTVSPropertyOp8
 70
     1
102
RTVSPropertyOp9
 70
     1
102
RTVSPropertyOp10
 70
     1
102
RTVSPropertyOp11
 70
     1
102
RTVSPropertyOp12
 70
     1
102
RTVSPropertyOp13
 70
     1
102
RTVSPropertyOp14
 70
     1
102
RTVSPropertyOp15
 70
     1
102
RTVSPropertyOp16
 70
     1
102
RTVSPropertyOp17
 70
     1
102
RTVSPropertyOp18
 70
     1
102
RTVSPropertyOp19
 70
     1
102
RTVSPropertyOp20
 70
     1
102
RTVSPropertyOp21
 70
     1
102
RTVSPropertyOp22
 70
     1
102
RTVSPropertyOp23
 70
     1
102
RTVSPropertyOp24
 70
     1
102
RTVSPropertyOp25
 70
     1
102
RTVSPropertyOp26
 70
     1
102
RTVSPropertyOp27
 70
     1
  0
XRECORD
  5
3BD
102
{ACAD_REACTORS
330
3BC
102
}
330
3BC
100
AcDbXrecord
280
     1
102
RTVSPropertyOp0
 70
     1
102
RTVSPropertyOp1
 70
     1
102
RTVSPropertyOp2
 70
     1
102
RTVSPropertyOp3
 70
     1
102
RTVSPropertyOp4
 70
     1
102
RTVSPropertyOp5
 70
     1
102
RTVSPropertyOp6
 70
     1
102
RTVSPropertyOp7
 70
     1
102
RTVSPropertyOp8
 70
     1
102
RTVSPropertyOp9
 70
     1
102
RTVSPropertyOp10
 70
     1
102
RTVSPropertyOp11
 70
     1
102
RTVSPropertyOp12
 70
     1
102
RTVSPropertyOp13
 70
     1
102
RTVSPropertyOp14
 70
     1
102
RTVSPropertyOp15
 70
     1
102
RTVSPropertyOp16
 70
     1
102
RTVSPropertyOp17
 70
     1
102
RTVSPropertyOp18
 70
     1
102
RTVSPropertyOp19
 70
     1
102
RTVSPropertyOp20
 70
     1
102
RTVSPropertyOp21
 70
     1
102
RTVSPropertyOp22
 70
     1
102
RTVSPropertyOp23
 70
     1
102
RTVSPropertyOp24
 70
     1
102
RTVSPropertyOp25
 70
     1
102
RTVSPropertyOp26
 70
     1
102
RTVSPropertyOp27
 70
     1
  0
XRECORD
  5
3BF
102
{ACAD_REACTORS
330
3BE
102
}
330
3BE
100
AcDbXrecord
280
     1
102
RTVSPropertyOp0
 70
     1
102
RTVSPropertyOp1
 70
     1
102
RTVSPropertyOp2
 70
     1
102
RTVSPropertyOp3
 70
     1
102
RTVSPropertyOp4
 70
     1
102
RTVSPropertyOp5
 70
     1
102
RTVSPropertyOp6
 70
     1
102
RTVSPropertyOp7
 70
     1
102
RTVSPropertyOp8
 70
     1
102
RTVSPropertyOp9
 70
     1
102
RTVSPropertyOp10
 70
     1
102
RTVSPropertyOp11
 70
     1
102
RTVSPropertyOp12
 70
     1
102
RTVSPropertyOp13
 70
     1
102
RTVSPropertyOp14
 70
     1
102
RTVSPropertyOp15
 70
     1
102
RTVSPropertyOp16
 70
     1
102
RTVSPropertyOp17
 70
     1
102
RTVSPropertyOp18
 70
     1
102
RTVSPropertyOp19
 70
     1
102
RTVSPropertyOp20
 70
     1
102
RTVSPropertyOp21
 70
     1
102
RTVSPropertyOp22
 70
     1
102
RTVSPropertyOp23
 70
     1
102
RTVSPropertyOp24
 70
     1
102
RTVSPropertyOp25
 70
     1
102
RTVSPropertyOp26
 70
     1
102
RTVSPropertyOp27
 70
     1
  0
XRECORD
  5
3C1
102
{ACAD_REACTORS
330
3C0
102
}
330
3C0
100
AcDbXrecord
280
     1
102
RTVSPropertyOp0
 70
     1
102
RTVSPropertyOp1
 70
     1
102
RTVSPropertyOp2
 70
     1
102
RTVSPropertyOp3
 70
     1
102
RTVSPropertyOp4
 70
     1
102
RTVSPropertyOp5
 70
     1
102
RTVSPropertyOp6
 70
     1
102
RTVSPropertyOp7
 70
     1
102
RTVSPropertyOp8
 70
     1
102
RTVSPropertyOp9
 70
     1
102
RTVSPropertyOp10
 70
     1
102
RTVSPropertyOp11
 70
     1
102
RTVSPropertyOp12
 70
     1
102
RTVSPropertyOp13
 70
     1
102
RTVSPropertyOp14
 70
     1
102
RTVSPropertyOp15
 70
     1
102
RTVSPropertyOp16
 70
     1
102
RTVSPropertyOp17
 70
     1
102
RTVSPropertyOp18
 70
     1
102
RTVSPropertyOp19
 70
     1
102
RTVSPropertyOp20
 70
     1
102
RTVSPropertyOp21
 70
     1
102
RTVSPropertyOp22
 70
     1
102
RTVSPropertyOp23
 70
     1
102
RTVSPropertyOp24
 70
     1
102
RTVSPropertyOp25
 70
     1
102
RTVSPropertyOp26
 70
     1
102
RTVSPropertyOp27
 70
     1
  0
XRECORD
  5
3C3
102
{ACAD_REACTORS
330
3C2
102
}
330
3C2
100
AcDbXrecord
280
     1
102
RTVSPropertyOp0
 70
     1
102
RTVSPropertyOp1
 70
     1
102
RTVSPropertyOp2
 70
     1
102
RTVSPropertyOp3
 70
     1
102
RTVSPropertyOp4
 70
     1
102
RTVSPropertyOp5
 70
     1
102
RTVSPropertyOp6
 70
     1
102
RTVSPropertyOp7
 70
     1
102
RTVSPropertyOp8
 70
     1
102
RTVSPropertyOp9
 70
     1
102
RTVSPropertyOp10
 70
     1
102
RTVSPropertyOp11
 70
     1
102
RTVSPropertyOp12
 70
     1
102
RTVSPropertyOp13
 70
     1
102
RTVSPropertyOp14
 70
     1
102
RTVSPropertyOp15
 70
     1
102
RTVSPropertyOp16
 70
     1
102
RTVSPropertyOp17
 70
     1
102
RTVSPropertyOp18
 70
     1
102
RTVSPropertyOp19
 70
     1
102
RTVSPropertyOp20
 70
     1
102
RTVSPropertyOp21
 70
     1
102
RTVSPropertyOp22
 70
     1
102
RTVSPropertyOp23
 70
     1
102
RTVSPropertyOp24
 70
     1
102
RTVSPropertyOp25
 70
     1
102
RTVSPropertyOp26
 70
     1
102
RTVSPropertyOp27
 70
     1
  0
XRECORD
  5
3CD
102
{ACAD_REACTORS
330
3CC
102
}
330
3CC
100
AcDbXrecord
280
     1
102
RTVSPropertyOp0
 70
     1
102
RTVSPropertyOp1
 70
     1
102
RTVSPropertyOp2
 70
     1
102
RTVSPropertyOp3
 70
     1
102
RTVSPropertyOp4
 70
     1
102
RTVSPropertyOp5
 70
     1
102
RTVSPropertyOp6
 70
     1
102
RTVSPropertyOp7
 70
     1
102
RTVSPropertyOp8
 70
     1
102
RTVSPropertyOp9
 70
     1
102
RTVSPropertyOp10
 70
     1
102
RTVSPropertyOp11
 70
     1
102
RTVSPropertyOp12
 70
     1
102
RTVSPropertyOp13
 70
     1
102
RTVSPropertyOp14
 70
     1
102
RTVSPropertyOp15
 70
     1
102
RTVSPropertyOp16
 70
     1
102
RTVSPropertyOp17
 70
     1
102
RTVSPropertyOp18
 70
     1
102
RTVSPropertyOp19
 70
     1
102
RTVSPropertyOp20
 70
     1
102
RTVSPropertyOp21
 70
     1
102
RTVSPropertyOp22
 70
     1
102
RTVSPropertyOp23
 70
     1
102
RTVSPropertyOp24
 70
     1
102
RTVSPropertyOp25
 70
     1
102
RTVSPropertyOp26
 70
     1
102
RTVSPropertyOp27
 70
     1
  0
XRECORD
  5
3CF
102
{ACAD_REACTORS
330
3CE
102
}
330
3CE
100
AcDbXrecord
280
     1
102
RTVSPropertyOp0
 70
     0
102
RTVSPropertyOp1
 70
     0
102
RTVSPropertyOp2
 70
     0
102
RTVSPropertyOp3
 70
     0
102
RTVSPropertyOp4
 70
     0
102
RTVSPropertyOp5
 70
     0
102
RTVSPropertyOp6
 70
     0
102
RTVSPropertyOp7
 70
     0
102
RTVSPropertyOp8
 70
     0
102
RTVSPropertyOp9
 70
     0
102
RTVSPropertyOp10
 70
     0
102
RTVSPropertyOp11
 70
     0
102
RTVSPropertyOp12
 70
     0
102
RTVSPropertyOp13
 70
     0
102
RTVSPropertyOp14
 70
     2
102
RTVSPropertyOp15
 70
     0
102
RTVSPropertyOp16
 70
     0
102
RTVSPropertyOp17
 70
     0
102
RTVSPropertyOp18
 70
     0
102
RTVSPropertyOp19
 70
     0
102
RTVSPropertyOp20
 70
     0
102
RTVSPropertyOp21
 70
     0
102
RTVSPropertyOp22
 70
     0
102
RTVSPropertyOp23
 70
     0
102
RTVSPropertyOp24
 70
     0
102
RTVSPropertyOp25
 70
     0
102
RTVSPropertyOp26
 70
     0
102
RTVSPropertyOp27
 70
     0
  0
XRECORD
  5
3C5
102
{ACAD_REACTORS
330
3C4
102
}
330
3C4
100
AcDbXrecord
280
     1
102
RTVSPropertyOp0
 70
     1
102
RTVSPropertyOp1
 70
     1
102
RTVSPropertyOp2
 70
     1
102
RTVSPropertyOp3
 70
     1
102
RTVSPropertyOp4
 70
     1
102
RTVSPropertyOp5
 70
     1
102
RTVSPropertyOp6
 70
     1
102
RTVSPropertyOp7
 70
     1
102
RTVSPropertyOp8
 70
     1
102
RTVSPropertyOp9
 70
     1
102
RTVSPropertyOp10
 70
     1
102
RTVSPropertyOp11
 70
     1
102
RTVSPropertyOp12
 70
     1
102
RTVSPropertyOp13
 70
     1
102
RTVSPropertyOp14
 70
     1
102
RTVSPropertyOp15
 70
     1
102
RTVSPropertyOp16
 70
     1
102
RTVSPropertyOp17
 70
     1
102
RTVSPropertyOp18
 70
     1
102
RTVSPropertyOp19
 70
     1
102
RTVSPropertyOp20
 70
     1
102
RTVSPropertyOp21
 70
     1
102
RTVSPropertyOp22
 70
     1
102
RTVSPropertyOp23
 70
     1
102
RTVSPropertyOp24
 70
     1
102
RTVSPropertyOp25
 70
     1
102
RTVSPropertyOp26
 70
     1
102
RTVSPropertyOp27
 70
     1
  0
XRECORD
  5
3D1
102
{ACAD_REACTORS
330
3D0
102
}
330
3D0
100
AcDbXrecord
280
     1
102
RTVSPropertyOp0
 70
     0
102
RTVSPropertyOp1
 70
     0
102
RTVSPropertyOp2
 70
     0
102
RTVSPropertyOp3
 70
     0
102
RTVSPropertyOp4
 70
     0
102
RTVSPropertyOp5
 70
     0
102
RTVSPropertyOp6
 70
     0
102
RTVSPropertyOp7
 70
     0
102
RTVSPropertyOp8
 70
     0
102
RTVSPropertyOp9
 70
     0
102
RTVSPropertyOp10
 70
     0
102
RTVSPropertyOp11
 70
     0
102
RTVSPropertyOp12
 70
     0
102
RTVSPropertyOp13
 70
     0
102
RTVSPropertyOp14
 70
     2
102
RTVSPropertyOp15
 70
     0
102
RTVSPropertyOp16
 70
     0
102
RTVSPropertyOp17
 70
     0
102
RTVSPropertyOp18
 70
     0
102
RTVSPropertyOp19
 70
     0
102
RTVSPropertyOp20
 70
     0
102
RTVSPropertyOp21
 70
     0
102
RTVSPropertyOp22
 70
     0
102
RTVSPropertyOp23
 70
     0
102
RTVSPropertyOp24
 70
     0
102
RTVSPropertyOp25
 70
     0
102
RTVSPropertyOp26
 70
     0
102
RTVSPropertyOp27
 70
     0
  0
XRECORD
  5
3C7
102
{ACAD_REACTORS
330
3C6
102
}
330
3C6
100
AcDbXrecord
280
     1
102
RTVSPropertyOp0
 70
     1
102
RTVSPropertyOp1
 70
     1
102
RTVSPropertyOp2
 70
     1
102
RTVSPropertyOp3
 70
     1
102
RTVSPropertyOp4
 70
     1
102
RTVSPropertyOp5
 70
     1
102
RTVSPropertyOp6
 70
     1
102
RTVSPropertyOp7
 70
     1
102
RTVSPropertyOp8
 70
     1
102
RTVSPropertyOp9
 70
     1
102
RTVSPropertyOp10
 70
     1
102
RTVSPropertyOp11
 70
     1
102
RTVSPropertyOp12
 70
     1
102
RTVSPropertyOp13
 70
     1
102
RTVSPropertyOp14
 70
     1
102
RTVSPropertyOp15
 70
     1
102
RTVSPropertyOp16
 70
     1
102
RTVSPropertyOp17
 70
     1
102
RTVSPropertyOp18
 70
     1
102
RTVSPropertyOp19
 70
     1
102
RTVSPropertyOp20
 70
     1
102
RTVSPropertyOp21
 70
     1
102
RTVSPropertyOp22
 70
     1
102
RTVSPropertyOp23
 70
     1
102
RTVSPropertyOp24
 70
     1
102
RTVSPropertyOp25
 70
     1
102
RTVSPropertyOp26
 70
     1
102
RTVSPropertyOp27
 70
     1
  0
XRECORD
  5
3DD
102
{ACAD_REACTORS
330
3DC
102
}
330
3DC
100
AcDbXrecord
280
     1
102
RTVSPropertyOp0
 70
     1
102
RTVSPropertyOp1
 70
     1
102
RTVSPropertyOp2
 70
     1
102
RTVSPropertyOp3
 70
     1
102
RTVSPropertyOp4
 70
     1
102
RTVSPropertyOp5
 70
     1
102
RTVSPropertyOp6
 70
     1
102
RTVSPropertyOp7
 70
     1
102
RTVSPropertyOp8
 70
     1
102
RTVSPropertyOp9
 70
     1
102
RTVSPropertyOp10
 70
     1
102
RTVSPropertyOp11
 70
     1
102
RTVSPropertyOp12
 70
     1
102
RTVSPropertyOp13
 70
     1
102
RTVSPropertyOp14
 70
     1
102
RTVSPropertyOp15
 70
     1
102
RTVSPropertyOp16
 70
     1
102
RTVSPropertyOp17
 70
     1
102
RTVSPropertyOp18
 70
     1
102
RTVSPropertyOp19
 70
     1
102
RTVSPropertyOp20
 70
     1
102
RTVSPropertyOp21
 70
     1
102
RTVSPropertyOp22
 70
     1
102
RTVSPropertyOp23
 70
     1
102
RTVSPropertyOp24
 70
     1
102
RTVSPropertyOp25
 70
     1
102
RTVSPropertyOp26
 70
     1
102
RTVSPropertyOp27
 70
     1
  0
XRECORD
  5
3DB
102
{ACAD_REACTORS
330
3DA
102
}
330
3DA
100
AcDbXrecord
280
     1
102
RTVSPropertyOp0
 70
     1
102
RTVSPropertyOp1
 70
     1
102
RTVSPropertyOp2
 70
     1
102
RTVSPropertyOp3
 70
     1
102
RTVSPropertyOp4
 70
     1
102
RTVSPropertyOp5
 70
     1
102
RTVSPropertyOp6
 70
     1
102
RTVSPropertyOp7
 70
     1
102
RTVSPropertyOp8
 70
     1
102
RTVSPropertyOp9
 70
     1
102
RTVSPropertyOp10
 70
     1
102
RTVSPropertyOp11
 70
     1
102
RTVSPropertyOp12
 70
     1
102
RTVSPropertyOp13
 70
     1
102
RTVSPropertyOp14
 70
     1
102
RTVSPropertyOp15
 70
     1
102
RTVSPropertyOp16
 70
     1
102
RTVSPropertyOp17
 70
     1
102
RTVSPropertyOp18
 70
     1
102
RTVSPropertyOp19
 70
     1
102
RTVSPropertyOp20
 70
     1
102
RTVSPropertyOp21
 70
     1
102
RTVSPropertyOp22
 70
     1
102
RTVSPropertyOp23
 70
     1
102
RTVSPropertyOp24
 70
     1
102
RTVSPropertyOp25
 70
     1
102
RTVSPropertyOp26
 70
     1
102
RTVSPropertyOp27
 70
     1
  0
XRECORD
  5
3D5
102
{ACAD_REACTORS
330
3D4
102
}
330
3D4
100
AcDbXrecord
280
     1
102
RTVSPropertyOp0
 70
     1
102
RTVSPropertyOp1
 70
     1
102
RTVSPropertyOp2
 70
     1
102
RTVSPropertyOp3
 70
     1
102
RTVSPropertyOp4
 70
     1
102
RTVSPropertyOp5
 70
     1
102
RTVSPropertyOp6
 70
     1
102
RTVSPropertyOp7
 70
     1
102
RTVSPropertyOp8
 70
     1
102
RTVSPropertyOp9
 70
     1
102
RTVSPropertyOp10
 70
     1
102
RTVSPropertyOp11
 70
     1
102
RTVSPropertyOp12
 70
     1
102
RTVSPropertyOp13
 70
     1
102
RTVSPropertyOp14
 70
     1
102
RTVSPropertyOp15
 70
     1
102
RTVSPropertyOp16
 70
     1
102
RTVSPropertyOp17
 70
     1
102
RTVSPropertyOp18
 70
     1
102
RTVSPropertyOp19
 70
     1
102
RTVSPropertyOp20
 70
     1
102
RTVSPropertyOp21
 70
     1
102
RTVSPropertyOp22
 70
     1
102
RTVSPropertyOp23
 70
     1
102
RTVSPropertyOp24
 70
     1
102
RTVSPropertyOp25
 70
     1
102
RTVSPropertyOp26
 70
     1
102
RTVSPropertyOp27
 70
     1
  0
XRECORD
  5
3D7
102
{ACAD_REACTORS
330
3D6
102
}
330
3D6
100
AcDbXrecord
280
     1
102
RTVSPropertyOp0
 70
     1
102
RTVSPropertyOp1
 70
     1
102
RTVSPropertyOp2
 70
     1
102
RTVSPropertyOp3
 70
     1
102
RTVSPropertyOp4
 70
     1
102
RTVSPropertyOp5
 70
     1
102
RTVSPropertyOp6
 70
     1
102
RTVSPropertyOp7
 70
     1
102
RTVSPropertyOp8
 70
     1
102
RTVSPropertyOp9
 70
     1
102
RTVSPropertyOp10
 70
     1
102
RTVSPropertyOp11
 70
     1
102
RTVSPropertyOp12
 70
     1
102
RTVSPropertyOp13
 70
     1
102
RTVSPropertyOp14
 70
     1
102
RTVSPropertyOp15
 70
     1
102
RTVSPropertyOp16
 70
     1
102
RTVSPropertyOp17
 70
     1
102
RTVSPropertyOp18
 70
     1
102
RTVSPropertyOp19
 70
     1
102
RTVSPropertyOp20
 70
     1
102
RTVSPropertyOp21
 70
     1
102
RTVSPropertyOp22
 70
     1
102
RTVSPropertyOp23
 70
     1
102
RTVSPropertyOp24
 70
     1
102
RTVSPropertyOp25
 70
     1
102
RTVSPropertyOp26
 70
     1
102
RTVSPropertyOp27
 70
     1
  0
XRECORD
  5
3C9
102
{ACAD_REACTORS
330
3C8
102
}
330
3C8
100
AcDbXrecord
280
     1
102
RTVSPropertyOp0
 70
     1
102
RTVSPropertyOp1
 70
     1
102
RTVSPropertyOp2
 70
     1
102
RTVSPropertyOp3
 70
     1
102
RTVSPropertyOp4
 70
     1
102
RTVSPropertyOp5
 70
     1
102
RTVSPropertyOp6
 70
     1
102
RTVSPropertyOp7
 70
     1
102
RTVSPropertyOp8
 70
     1
102
RTVSPropertyOp9
 70
     1
102
RTVSPropertyOp10
 70
     1
102
RTVSPropertyOp11
 70
     1
102
RTVSPropertyOp12
 70
     1
102
RTVSPropertyOp13
 70
     1
102
RTVSPropertyOp14
 70
     1
102
RTVSPropertyOp15
 70
     1
102
RTVSPropertyOp16
 70
     1
102
RTVSPropertyOp17
 70
     1
102
RTVSPropertyOp18
 70
     1
102
RTVSPropertyOp19
 70
     1
102
RTVSPropertyOp20
 70
     1
102
RTVSPropertyOp21
 70
     1
102
RTVSPropertyOp22
 70
     1
102
RTVSPropertyOp23
 70
     1
102
RTVSPropertyOp24
 70
     1
102
RTVSPropertyOp25
 70
     1
102
RTVSPropertyOp26
 70
     1
102
RTVSPropertyOp27
 70
     1
  0
XRECORD
  5
3CB
102
{ACAD_REACTORS
330
3CA
102
}
330
3CA
100
AcDbXrecord
280
     1
102
RTVSPropertyOp0
 70
     1
102
RTVSPropertyOp1
 70
     1
102
RTVSPropertyOp2
 70
     1
102
RTVSPropertyOp3
 70
     1
102
RTVSPropertyOp4
 70
     1
102
RTVSPropertyOp5
 70
     1
102
RTVSPropertyOp6
 70
     1
102
RTVSPropertyOp7
 70
     1
102
RTVSPropertyOp8
 70
     1
102
RTVSPropertyOp9
 70
     1
102
RTVSPropertyOp10
 70
     1
102
RTVSPropertyOp11
 70
     1
102
RTVSPropertyOp12
 70
     1
102
RTVSPropertyOp13
 70
     1
102
RTVSPropertyOp14
 70
     1
102
RTVSPropertyOp15
 70
     1
102
RTVSPropertyOp16
 70
     1
102
RTVSPropertyOp17
 70
     1
102
RTVSPropertyOp18
 70
     1
102
RTVSPropertyOp19
 70
     1
102
RTVSPropertyOp20
 70
     1
102
RTVSPropertyOp21
 70
     1
102
RTVSPropertyOp22
 70
     1
102
RTVSPropertyOp23
 70
     1
102
RTVSPropertyOp24
 70
     1
102
RTVSPropertyOp25
 70
     1
102
RTVSPropertyOp26
 70
     1
102
RTVSPropertyOp27
 70
     1
  0
XRECORD
  5
3D9
102
{ACAD_REACTORS
330
3D8
102
}
330
3D8
100
AcDbXrecord
280
     1
102
RTVSPropertyOp0
 70
     1
102
RTVSPropertyOp1
 70
     1
102
RTVSPropertyOp2
 70
     1
102
RTVSPropertyOp3
 70
     1
102
RTVSPropertyOp4
 70
     1
102
RTVSPropertyOp5
 70
     1
102
RTVSPropertyOp6
 70
     1
102
RTVSPropertyOp7
 70
     1
102
RTVSPropertyOp8
 70
     1
102
RTVSPropertyOp9
 70
     1
102
RTVSPropertyOp10
 70
     1
102
RTVSPropertyOp11
 70
     1
102
RTVSPropertyOp12
 70
     1
102
RTVSPropertyOp13
 70
     1
102
RTVSPropertyOp14
 70
     1
102
RTVSPropertyOp15
 70
     1
102
RTVSPropertyOp16
 70
     1
102
RTVSPropertyOp17
 70
     1
102
RTVSPropertyOp18
 70
     1
102
RTVSPropertyOp19
 70
     1
102
RTVSPropertyOp20
 70
     1
102
RTVSPropertyOp21
 70
     1
102
RTVSPropertyOp22
 70
     1
102
RTVSPropertyOp23
 70
     1
102
RTVSPropertyOp24
 70
     1
102
RTVSPropertyOp25
 70
     1
102
RTVSPropertyOp26
 70
     1
102
RTVSPropertyOp27
 70
     1
  0
ENDSEC
  0
EOF
