  0
SECTION
  2
HEADER
  9
$ACADVER
  1
AC1018
  9
$ACADMAINTVER
 70
   104
  9
$DWGCODEPAGE
  3
ANSI_936
  9
$LASTSAVEDBY
  1
chaxiu.zhu
  9
$INSBASE
 10
0.0
 20
0.0
 30
0.0
  9
$EXTMIN
 10
526.4910062295999
 20
-2220.084910705183
 30
-0.00000001
  9
$EXTMAX
 10
2583.972523281511
 20
-578.4784596917528
 30
0.00000001
  9
$LIMMIN
 10
0.0
 20
0.0
  9
$LIMMAX
 10
558.8
 20
431.8
  9
$ORTHOMODE
 70
     1
  9
$REGENMODE
 70
     1
  9
$FILLMODE
 70
     1
  9
$QTEXTMODE
 70
     0
  9
$MIRRTEXT
 70
     0
  9
$LTSCALE
 40
30.734
  9
$ATTMODE
 70
     1
  9
$TEXTSIZE
 40
0.2
  9
$TRACEWID
 40
0.05
  9
$TEXTSTYLE
  7
STANDARD
  9
$CLAYER
  8
0
  9
$CELTYPE
  6
BYLAYER
  9
$CECOLOR
 62
   256
  9
$CELTSCALE
 40
1.0
  9
$DISPSILH
 70
     0
  9
$DIMSCALE
 40
1.0
  9
$DIMASZ
 40
3.5
  9
$DIMEXO
 40
3.4925
  9
$DIMDLI
 40
21.2344
  9
$DIMRND
 40
0.0
  9
$DIMDLE
 40
0.0
  9
$DIMEXE
 40
10.0584
  9
$DIMTP
 40
0.01
  9
$DIMTM
 40
0.01
  9
$DIMTXT
 40
3.5
  9
$DIMCEN
 40
5.0292
  9
$DIMTSZ
 40
0.0
  9
$DIMTOL
 70
     1
  9
$DIMLIM
 70
     0
  9
$DIMTIH
 70
     1
  9
$DIMTOH
 70
     1
  9
$DIMSE1
 70
     0
  9
$DIMSE2
 70
     0
  9
$DIMTAD
 70
     0
  9
$DIMZIN
 70
     0
  9
$DIMBLK
  1

  9
$DIMASO
 70
     1
  9
$DIMSHO
 70
     1
  9
$DIMPOST
  1

  9
$DIMAPOST
  1

  9
$DIMALT
 70
     0
  9
$DIMALTD
 70
     2
  9
$DIMALTF
 40
25.4
  9
$DIMLFAC
 40
1.0
  9
$DIMTOFL
 70
     0
  9
$DIMTVP
 40
0.0
  9
$DIMTIX
 70
     0
  9
$DIMSOXD
 70
     0
  9
$DIMSAH
 70
     0
  9
$DIMBLK1
  1

  9
$DIMBLK2
  1

  9
$DIMSTYLE
  2
STANDARD
  9
$DIMCLRD
 70
     0
  9
$DIMCLRE
 70
     0
  9
$DIMCLRT
 70
     0
  9
$DIMTFAC
 40
1.0
  9
$DIMGAP
 40
0.09
  9
$DIMJUST
 70
     0
  9
$DIMSD1
 70
     0
  9
$DIMSD2
 70
     0
  9
$DIMTOLJ
 70
     1
  9
$DIMTZIN
 70
     0
  9
$DIMALTZ
 70
     0
  9
$DIMALTTZ
 70
     0
  9
$DIMUPT
 70
     0
  9
$DIMDEC
 70
     4
  9
$DIMTDEC
 70
     4
  9
$DIMALTU
 70
     2
  9
$DIMALTTD
 70
     2
  9
$DIMTXSTY
  7
STANDARD
  9
$DIMAUNIT
 70
     0
  9
$DIMADEC
 70
     0
  9
$DIMALTRND
 40
0.0
  9
$DIMAZIN
 70
     0
  9
$DIMDSEP
 70
    46
  9
$DIMATFIT
 70
     3
  9
$DIMFRAC
 70
     0
  9
$DIMLDRBLK
  1

  9
$DIMLUNIT
 70
     2
  9
$DIMLWD
 70
    -2
  9
$DIMLWE
 70
    -2
  9
$DIMTMOVE
 70
     0
  9
$LUNITS
 70
     2
  9
$LUPREC
 70
     4
  9
$SKETCHINC
 40
0.1
  9
$FILLETRAD
 40
0.0
  9
$AUNITS
 70
     0
  9
$AUPREC
 70
     0
  9
$MENU
  1
.
  9
$ELEVATION
 40
0.0
  9
$PELEVATION
 40
0.0
  9
$THICKNESS
 40
0.0
  9
$LIMCHECK
 70
     0
  9
$CHAMFERA
 40
0.0
  9
$CHAMFERB
 40
0.0
  9
$CHAMFERC
 40
0.0
  9
$CHAMFERD
 40
0.0
  9
$SKPOLY
 70
     0
  9
$TDCREATE
 40
2458319.371017176
  9
$TDUCREATE
 40
2458319.037683843
  9
$TDUPDATE
 40
2458858.458612361
  9
$TDUUPDATE
 40
2458858.125279028
  9
$TDINDWG
 40
0.0209764005
  9
$TDUSRTIMER
 40
0.0209764005
  9
$USRTIMER
 70
     1
  9
$ANGBASE
 50
0.0
  9
$ANGDIR
 70
     0
  9
$PDMODE
 70
     3
  9
$PDSIZE
 40
8.0
  9
$PLINEWID
 40
0.0
  9
$SPLFRAME
 70
     0
  9
$SPLINETYPE
 70
     6
  9
$SPLINESEGS
 70
     8
  9
$HANDSEED
  5
B5B
  9
$SURFTAB1
 70
     6
  9
$SURFTAB2
 70
     6
  9
$SURFTYPE
 70
     6
  9
$SURFU
 70
     6
  9
$SURFV
 70
     6
  9
$UCSBASE
  2

  9
$UCSNAME
  2

  9
$UCSORG
 10
0.0
 20
0.0
 30
0.0
  9
$UCSXDIR
 10
1.0
 20
0.0
 30
0.0
  9
$UCSYDIR
 10
0.0
 20
1.0
 30
0.0
  9
$UCSORTHOREF
  2

  9
$UCSORTHOVIEW
 70
     0
  9
$UCSORGTOP
 10
0.0
 20
0.0
 30
0.0
  9
$UCSORGBOTTOM
 10
0.0
 20
0.0
 30
0.0
  9
$UCSORGLEFT
 10
0.0
 20
0.0
 30
0.0
  9
$UCSORGRIGHT
 10
0.0
 20
0.0
 30
0.0
  9
$UCSORGFRONT
 10
0.0
 20
0.0
 30
0.0
  9
$UCSORGBACK
 10
0.0
 20
0.0
 30
0.0
  9
$PUCSBASE
  2

  9
$PUCSNAME
  2

  9
$PUCSORG
 10
0.0
 20
0.0
 30
0.0
  9
$PUCSXDIR
 10
1.0
 20
0.0
 30
0.0
  9
$PUCSYDIR
 10
0.0
 20
1.0
 30
0.0
  9
$PUCSORTHOREF
  2

  9
$PUCSORTHOVIEW
 70
     0
  9
$PUCSORGTOP
 10
0.0
 20
0.0
 30
0.0
  9
$PUCSORGBOTTOM
 10
0.0
 20
0.0
 30
0.0
  9
$PUCSORGLEFT
 10
0.0
 20
0.0
 30
0.0
  9
$PUCSORGRIGHT
 10
0.0
 20
0.0
 30
0.0
  9
$PUCSORGFRONT
 10
0.0
 20
0.0
 30
0.0
  9
$PUCSORGBACK
 10
0.0
 20
0.0
 30
0.0
  9
$USERI1
 70
     0
  9
$USERI2
 70
     0
  9
$USERI3
 70
     0
  9
$USERI4
 70
     0
  9
$USERI5
 70
     0
  9
$USERR1
 40
0.0
  9
$USERR2
 40
0.0
  9
$USERR3
 40
0.0
  9
$USERR4
 40
0.0
  9
$USERR5
 40
0.0
  9
$WORLDVIEW
 70
     1
  9
$SHADEDGE
 70
     3
  9
$SHADEDIF
 70
    70
  9
$TILEMODE
 70
     1
  9
$MAXACTVP
 70
    64
  9
$PINSBASE
 10
0.0
 20
0.0
 30
0.0
  9
$PLIMCHECK
 70
     0
  9
$PEXTMIN
 10
1.000000000000000E+20
 20
1.000000000000000E+20
 30
1.000000000000000E+20
  9
$PEXTMAX
 10
-1.000000000000000E+20
 20
-1.000000000000000E+20
 30
-1.000000000000000E+20
  9
$PLIMMIN
 10
0.0
 20
0.0
  9
$PLIMMAX
 10
12.0
 20
9.0
  9
$UNITMODE
 70
     0
  9
$VISRETAIN
 70
     1
  9
$PLINEGEN
 70
     0
  9
$PSLTSCALE
 70
     1
  9
$TREEDEPTH
 70
  3020
  9
$CMLSTYLE
  2
Standard
  9
$CMLJUST
 70
     0
  9
$CMLSCALE
 40
1.0
  9
$PROXYGRAPHICS
 70
     1
  9
$MEASUREMENT
 70
     1
  9
$CELWEIGHT
370
    -1
  9
$ENDCAPS
280
     0
  9
$JOINSTYLE
280
     0
  9
$LWDISPLAY
290
     0
  9
$INSUNITS
 70
     4
  9
$HYPERLINKBASE
  1

  9
$STYLESHEET
  1

  9
$XEDIT
290
     1
  9
$CEPSNTYPE
380
     0
  9
$PSTYLEMODE
290
     1
  9
$FINGERPRINTGUID
  2
{B7A562D9-2F3D-47DE-A62E-17A1688E64A4}
  9
$VERSIONGUID
  2
{45F2A44D-ECDA-41AF-BDBE-BC976058AEA0}
  9
$EXTNAMES
290
     1
  9
$PSVPSCALE
 40
0.0
  9
$OLESTARTUP
290
     0
  9
$SORTENTS
280
   127
  9
$INDEXCTL
280
     0
  9
$HIDETEXT
280
     1
  9
$XCLIPFRAME
290
     0
  9
$HALOGAP
280
     0
  9
$OBSCOLOR
 70
   257
  9
$OBSLTYPE
280
     0
  9
$INTERSECTIONDISPLAY
280
     0
  9
$INTERSECTIONCOLOR
 70
   257
  9
$DIMASSOC
280
     2
  9
$PROJECTNAME
  1

  0
ENDSEC
  0
SECTION
  2
CLASSES
  0
CLASS
  1
ACDBDICTIONARYWDFLT
  2
AcDbDictionaryWithDefault
  3
ObjectDBX Classes
 90
        0
 91
        1
280
     0
281
     0
  0
CLASS
  1
MATERIAL
  2
AcDbMaterial
  3
ObjectDBX Classes
 90
        0
 91
        3
280
     0
281
     0
  0
CLASS
  1
VISUALSTYLE
  2
AcDbVisualStyle
  3
ObjectDBX Classes
 90
     4095
 91
       16
280
     0
281
     0
  0
CLASS
  1
TABLESTYLE
  2
AcDbTableStyle
  3
ObjectDBX Classes
 90
     4095
 91
        1
280
     0
281
     0
  0
CLASS
  1
DICTIONARYVAR
  2
AcDbDictionaryVar
  3
ObjectDBX Classes
 90
        0
 91
        2
280
     0
281
     0
  0
CLASS
  1
SORTENTSTABLE
  2
AcDbSortentsTable
  3
ObjectDBX Classes
 90
        0
 91
        0
280
     0
281
     0
  0
CLASS
  1
SCALE
  2
AcDbScale
  3
ObjectDBX Classes
 90
     1153
 91
       33
280
     0
281
     0
  0
CLASS
  1
MLEADERSTYLE
  2
AcDbMLeaderStyle
  3
ACDB_MLEADERSTYLE_CLASS
 90
     4095
 91
        1
280
     0
281
     0
  0
CLASS
  1
CELLSTYLEMAP
  2
AcDbCellStyleMap
  3
ObjectDBX Classes
 90
     1152
 91
        1
280
     0
281
     0
  0
ENDSEC
  0
SECTION
  2
TABLES
  0
TABLE
  2
VPORT
  5
8
330
0
100
AcDbSymbolTable
 70
     2
  0
VPORT
  5
B34
330
8
100
AcDbSymbolTableRecord
100
AcDbViewportTableRecord
  2
*Active
 70
     0
 10
0.0
 20
0.0
 11
1.0
 21
1.0
 12
2545.47064447789
 22
-1565.277858126225
 13
0.0
 23
0.0
 14
1.0
 24
1.0
 15
0.0
 25
0.0
 16
0.0
 26
0.0
 36
1.0
 17
0.0
 27
0.0
 37
0.0
 40
2577.40260916687
 41
1.857503152585119
 42
50.0
 43
0.0
 44
0.0
 50
0.0
 51
0.0
 71
     0
 72
   100
 73
     1
 74
     1
 75
     0
 76
     0
 77
     0
 78
     0
281
     0
 65
     1
110
0.0
120
0.0
130
0.0
111
1.0
121
0.0
131
0.0
112
0.0
122
1.0
132
0.0
 79
     0
146
0.0
  0
ENDTAB
  0
TABLE
  2
LTYPE
  5
5
330
0
100
AcDbSymbolTable
 70
     6
  0
LTYPE
  5
14
330
5
100
AcDbSymbolTableRecord
100
AcDbLinetypeTableRecord
  2
BYBLOCK
 70
     0
  3

 72
    65
 73
     0
 40
0.0
  0
LTYPE
  5
15
330
5
100
AcDbSymbolTableRecord
100
AcDbLinetypeTableRecord
  2
BYLAYER
 70
     0
  3

 72
    65
 73
     0
 40
0.0
  0
LTYPE
  5
16
330
5
100
AcDbSymbolTableRecord
100
AcDbLinetypeTableRecord
  2
CONTINUOUS
 70
     0
  3
Solid line
 72
    65
 73
     0
 40
0.0
  0
LTYPE
  5
1F5
330
5
100
AcDbSymbolTableRecord
100
AcDbLinetypeTableRecord
  2
CENTER
 70
     0
  3
____ _ ____ _ ____ _ ____ _ ____ _ ____ _ ____
 72
    65
 73
     4
 40
0.6
 49
0.375
 74
     0
 49
-0.075
 74
     0
 49
0.075
 74
     0
 49
-0.075
 74
     0
  0
LTYPE
  5
1F6
330
5
100
AcDbSymbolTableRecord
100
AcDbLinetypeTableRecord
  2
HIDDEN
 70
     0
  3
- - - - - - - - - - - - - - - - - - - -
 72
    65
 73
     2
 40
0.2
 49
0.1
 74
     0
 49
-0.1
 74
     0
  0
LTYPE
  5
1F7
330
5
100
AcDbSymbolTableRecord
100
AcDbLinetypeTableRecord
  2
PHANTOM
 70
     0
  3
_____ _ _ _____ _ _ _____ _ _ _____
 72
    65
 73
     6
 40
0.8
 49
0.45
 74
     0
 49
-0.05
 74
     0
 49
0.1
 74
     0
 49
-0.05
 74
     0
 49
0.1
 74
     0
 49
-0.05
 74
     0
  0
LTYPE
  5
1F8
330
5
100
AcDbSymbolTableRecord
100
AcDbLinetypeTableRecord
  2
DOT
 70
     0
  3
. . . . . . . . . . . . . . . . . . . .
 72
    65
 73
     2
 40
0.2
 49
0.1
 74
     0
 49
-0.1
 74
     0
  0
LTYPE
  5
1F9
330
5
100
AcDbSymbolTableRecord
100
AcDbLinetypeTableRecord
  2
DASHED
 70
     0
  3
- - - - - - - - - - - - - - - - - - - -
 72
    65
 73
     2
 40
0.2
 49
0.1
 74
     0
 49
-0.1
 74
     0
  0
ENDTAB
  0
TABLE
  2
LAYER
  5
2
102
{ACAD_XDICTIONARY
360
AF0
102
}
330
0
100
AcDbSymbolTable
 70
    19
  0
LAYER
  5
10
330
2
100
AcDbSymbolTableRecord
100
AcDbLayerTableRecord
  2
0
 70
     0
 62
     7
  6
CONTINUOUS
370
    -3
390
F
  0
LAYER
  5
1FA
330
2
100
AcDbSymbolTableRecord
100
AcDbLayerTableRecord
  2
DEFAULT_1
 70
     0
 62
     7
  6
CENTER
370
    -3
390
F
  0
LAYER
  5
1FB
330
2
100
AcDbSymbolTableRecord
100
AcDbLayerTableRecord
  2
DEFAULT_2
 70
     0
 62
     8
  6
HIDDEN
370
    -3
390
F
  0
LAYER
  5
1FC
330
2
100
AcDbSymbolTableRecord
100
AcDbLayerTableRecord
  2
DEFAULT_3
 70
     0
 62
     7
  6
PHANTOM
370
    -3
390
F
  0
LAYER
  5
1FD
330
2
100
AcDbSymbolTableRecord
100
AcDbLayerTableRecord
  2
01___PRT_ALL_DTM_PLN
 70
     0
 62
     7
  6
CONTINUOUS
370
    -3
390
F
  0
LAYER
  5
1FE
330
2
100
AcDbSymbolTableRecord
100
AcDbLayerTableRecord
  2
01___PRT_DEF_DTM_PLN
 70
     0
 62
     7
  6
CONTINUOUS
370
    -3
390
F
  0
LAYER
  5
1FF
330
2
100
AcDbSymbolTableRecord
100
AcDbLayerTableRecord
  2
02___PRT_ALL_AXES
 70
     0
 62
     7
  6
CONTINUOUS
370
    -3
390
F
  0
LAYER
  5
200
330
2
100
AcDbSymbolTableRecord
100
AcDbLayerTableRecord
  2
03___PRT_ALL_CURVES
 70
     0
 62
     7
  6
CONTINUOUS
370
    -3
390
F
  0
LAYER
  5
201
330
2
100
AcDbSymbolTableRecord
100
AcDbLayerTableRecord
  2
04___PRT_ALL_DTM_PNT
 70
     0
 62
     7
  6
CONTINUOUS
370
    -3
390
F
  0
LAYER
  5
202
330
2
100
AcDbSymbolTableRecord
100
AcDbLayerTableRecord
  2
05___PRT_ALL_DTM_CSYS
 70
     0
 62
     7
  6
CONTINUOUS
370
    -3
390
F
  0
LAYER
  5
203
330
2
100
AcDbSymbolTableRecord
100
AcDbLayerTableRecord
  2
05___PRT_DEF_DTM_CSYS
 70
     0
 62
     7
  6
CONTINUOUS
370
    -3
390
F
  0
LAYER
  5
204
330
2
100
AcDbSymbolTableRecord
100
AcDbLayerTableRecord
  2
06___PRT_ALL_SURFS
 70
     0
 62
     7
  6
CONTINUOUS
370
    -3
390
F
  0
LAYER
  5
205
330
2
100
AcDbSymbolTableRecord
100
AcDbLayerTableRecord
  2
LAY0001
 70
     0
 62
     7
  6
CONTINUOUS
370
    -3
390
F
  0
LAYER
  5
206
330
2
100
AcDbSymbolTableRecord
100
AcDbLayerTableRecord
  2
LAY0002
 70
     0
 62
     7
  6
CONTINUOUS
370
    -3
390
F
  0
LAYER
  5
207
330
2
100
AcDbSymbolTableRecord
100
AcDbLayerTableRecord
  2
LAY0003
 70
     0
 62
     7
  6
CONTINUOUS
370
    -3
390
F
  0
LAYER
  5
208
330
2
100
AcDbSymbolTableRecord
100
AcDbLayerTableRecord
  2
LAY0004
 70
     0
 62
     7
  6
CONTINUOUS
370
    -3
390
F
  0
LAYER
  5
209
330
2
100
AcDbSymbolTableRecord
100
AcDbLayerTableRecord
  2
LAY0005
 70
     0
 62
     7
  6
CONTINUOUS
370
    -3
390
F
  0
LAYER
  5
AEA
330
2
100
AcDbSymbolTableRecord
100
AcDbLayerTableRecord
  2
轮廓线.
 70
     0
 62
   255
  6
CONTINUOUS
370
    30
390
F
1001
AcAecLayerStandard
1000

1000

  0
LAYER
  5
AEB
330
2
100
AcDbSymbolTableRecord
100
AcDbLayerTableRecord
  2
尺寸标注
 70
     0
 62
    80
  6
CONTINUOUS
370
    18
390
F
1001
AcAecLayerStandard
1000

1000

  0
ENDTAB
  0
TABLE
  2
STYLE
  5
3
330
0
100
AcDbSymbolTable
 70
     2
  0
STYLE
  5
11
330
3
100
AcDbSymbolTableRecord
100
AcDbTextStyleTableRecord
  2
STANDARD
 70
     0
 40
0.0
 41
0.85
 50
0.0
 71
     0
 42
0.2
  3
txt
  4

  0
STYLE
  5
20A
330
3
100
AcDbSymbolTableRecord
100
AcDbTextStyleTableRecord
  2
TEXTSTYLE_1
 70
     0
 40
0.0
 41
0.8
 50
0.0
 71
     0
 42
0.2
  3
gdt
  4

  0
ENDTAB
  0
TABLE
  2
VIEW
  5
6
330
0
100
AcDbSymbolTable
 70
     0
  0
ENDTAB
  0
TABLE
  2
UCS
  5
7
330
0
100
AcDbSymbolTable
 70
     0
  0
ENDTAB
  0
TABLE
  2
APPID
  5
9
330
0
100
AcDbSymbolTable
 70
     5
  0
APPID
  5
20B
330
9
100
AcDbSymbolTableRecord
100
AcDbRegAppTableRecord
  2
ACAD
 70
     0
  0
APPID
  5
AE1
330
9
100
AcDbSymbolTableRecord
100
AcDbRegAppTableRecord
  2
ACAD_EXEMPT_FROM_CAD_STANDARDS
 70
     0
  0
APPID
  5
AEE
330
9
100
AcDbSymbolTableRecord
100
AcDbRegAppTableRecord
  2
ACAD_PSEXT
 70
     0
  0
APPID
  5
AEF
330
9
100
AcDbSymbolTableRecord
100
AcDbRegAppTableRecord
  2
AcAecLayerStandard
 70
     0
  0
APPID
  5
B5A
330
9
100
AcDbSymbolTableRecord
100
AcDbRegAppTableRecord
  2
ACAD_MLEADERVER
 70
     0
  0
ENDTAB
  0
TABLE
  2
DIMSTYLE
  5
A
330
0
100
AcDbSymbolTable
 70
     3
100
AcDbDimStyleTable
 71
     1
340
20E
  0
DIMSTYLE
105
20E
330
A
100
AcDbSymbolTableRecord
100
AcDbDimStyleTableRecord
  2
STANDARD
 70
     0
 41
3.5
 47
0.01
 48
0.01
 71
     1
 73
     0
 74
     0
 77
     1
 78
     8
140
3.5
271
     2
272
     2
284
     8
340
11
  0
DIMSTYLE
105
AEC
330
A
100
AcDbSymbolTableRecord
100
AcDbDimStyleTableRecord
  2
ISO-25
 70
     0
 40
9.0
 41
1.5
 42
0.625
 43
3.75
 44
0.5
 73
     0
 74
     0
 77
     1
 78
     8
140
2.5
141
2.5
143
0.03937007874016
147
0.3
171
     3
172
     1
271
     0
272
     0
274
     3
283
     0
284
     8
340
11
  0
DIMSTYLE
105
AED
330
A
100
AcDbSymbolTableRecord
100
AcDbDimStyleTableRecord
  2
副本 ISO-25
 70
     0
 40
7.0
 41
1.5
 42
0.625
 43
3.75
 44
0.5
 73
     0
 77
     1
 78
     8
140
2.5
141
2.5
143
0.03937007874016
147
0.3
171
     3
172
     1
271
     0
272
     0
274
     3
283
     0
284
     8
340
11
  0
ENDTAB
  0
TABLE
  2
BLOCK_RECORD
  5
1
330
0
100
AcDbSymbolTable
 70
     0
  0
BLOCK_RECORD
  5
20C
330
1
100
AcDbSymbolTableRecord
100
AcDbBlockTableRecord
  2
*Model_Space
340
AC1
  0
BLOCK_RECORD
  5
20D
330
1
100
AcDbSymbolTableRecord
100
AcDbBlockTableRecord
  2
*Paper_Space
340
AC2
  0
ENDTAB
  0
ENDSEC
  0
SECTION
  2
BLOCKS
  0
BLOCK
  5
20
330
20C
100
AcDbEntity
  8
0
100
AcDbBlockBegin
  2
*Model_Space
 70
     0
 10
0.0
 20
0.0
 30
0.0
  3
*Model_Space
  1

  0
ENDBLK
  5
21
330
20C
100
AcDbEntity
  8
0
100
AcDbBlockEnd
  0
BLOCK
  5
1C
330
20D
100
AcDbEntity
 67
     1
  8
0
100
AcDbBlockBegin
  2
*Paper_Space
 70
     0
 10
0.0
 20
0.0
 30
0.0
  3
*Paper_Space
  1

  0
ENDBLK
  5
1D
330
20D
100
AcDbEntity
 67
     1
  8
0
100
AcDbBlockEnd
  0
ENDSEC
  0
SECTION
  2
ENTITIES
  0
LINE
  5
213
330
20C
100
AcDbEntity
  8
0
  6
Continuous
 62
     7
100
AcDbLine
 10
566.4717637975
 20
-1266.4881848606
 30
0.0
 11
566.4717639584999
 21
-1261.3224089632
 31
0.0
  0
LINE
  5
214
330
20C
100
AcDbEntity
  8
0
  6
Continuous
 62
     7
100
AcDbLine
 10
569.9604718937
 20
-1146.4881848606
 30
0.0
 11
569.9604718937
 21
-1156.1566330768
 31
0.0
  0
LINE
  5
215
330
20C
100
AcDbEntity
  8
0
  6
Continuous
 62
     7
100
AcDbLine
 10
529.982463256
 20
-1156.1566330768
 30
0.0
 11
526.4937551598999
 21
-1261.3224089687
 31
0.0
  0
LINE
  5
216
330
20C
100
AcDbEntity
  8
0
  6
Continuous
 62
     7
100
AcDbLine
 10
569.9604718937
 20
-1156.1566330768
 30
0.0
 11
566.4717637975
 21
-1261.3224089687
 31
0.0
  0
LWPOLYLINE
  5
21B
330
20C
100
AcDbEntity
  8
0
  6
Continuous
 62
     7
100
AcDbPolyline
 90
        6
 70
     0
 43
0.0
 10
698.3224671242999
 20
-1279.8625651566
 10
698.8958223703999
 20
-1281.5938208606
 10
701.8443933163999
 20
-1286.2621108424
 10
706.2428224968999
 20
-1289.537931666
 10
711.4850563357999
 20
-1291.0050692793
 10
712.8131029083999
 20
-1291.0638068042
  0
LINE
  5
21C
330
20C
100
AcDbEntity
  8
0
  6
Continuous
 62
     7
100
AcDbLine
 10
698.3225391234
 20
-1279.8625460348
 30
0.0
 11
696.7448075102001
 21
-1273.9228780067
 31
0.0
  0
LINE
  5
252
330
20C
100
AcDbEntity
  8
0
  6
Continuous
 62
     7
100
AcDbLine
 10
866.7591739054479
 20
-1298.124874361175
 30
0.0
 11
868.4038810961999
 21
-1316.9239635744
 31
0.0
  0
LINE
  5
25E
330
20C
100
AcDbEntity
  8
0
  6
Continuous
 62
     7
100
AcDbLine
 10
945.8465721146001
 20
-1298.1298721255
 30
0.0
 11
944.2025163370001
 21
-1316.9239635744
 31
0.0
  0
LWPOLYLINE
  5
269
330
20C
100
AcDbEntity
  8
0
  6
Continuous
 62
     7
100
AcDbPolyline
 90
        6
 70
     0
 43
0.0
 10
945.8465721146001
 20
-1298.1298721255
 10
946.6978699910999
 20
-1294.8885557668
 10
948.7210996752001
 20
-1291.9670513987
 10
951.3684889007
 20
-1290.0714308949
 10
954.1787188739
 20
-1289.1768205314
 10
955.383121796
 20
-1289.0584131614
  0
LWPOLYLINE
  5
27D
330
20C
100
AcDbEntity
  8
0
  6
Continuous
 62
     7
100
AcDbPolyline
 90
        6
 70
     0
 43
0.0
 10
1055.2714655699
 20
-1278.6159974565
 10
1056.9703629587
 20
-1283.3751814384
 10
1060.1197215936
 20
-1287.2909169283
 10
1064.3512340186
 20
-1289.9368170595
 10
1069.1902514417
 20
-1291.0398416588
 10
1070.0376931182
 20
-1291.0633616023
  0
LINE
  5
27E
330
20C
100
AcDbEntity
  8
0
  6
Continuous
 62
     7
100
AcDbLine
 10
1055.2254185863
 20
-1278.2676156281
 30
0.0
 11
1055.2714655699
 21
-1278.6159974565
 31
0.0
  0
LINE
  5
297
330
20C
100
AcDbEntity
  8
0
  6
Continuous
 62
     7
100
AcDbLine
 10
955.3873025989
 20
-1289.0581957173
 30
0.0
 11
955.4409648930999
 21
-1289.0254488651
 31
0.0
  0
LWPOLYLINE
  5
2A7
330
20C
100
AcDbEntity
  8
06___PRT_ALL_SURFS
  6
Continuous
 62
     7
100
AcDbPolyline
 90
        4
 70
     0
 43
0.0
 10
758.4902714954999
 20
-1278.5316893497
 10
788.7556175308
 20
-1283.3885115001
 10
826.106299577
 20
-1287.3264598881
 10
857.2262382599999
 20
-1289.0584616767
  0
LINE
  5
2AF
330
20C
100
AcDbEntity
  8
0
  6
Continuous
 62
     7
100
AcDbLine
 10
758.4902714954999
 20
-1278.5316893497
 30
0.0
 11
758.4775870236
 21
-1278.5291518785
 31
0.0
  0
LWPOLYLINE
  5
2B9
330
20C
100
AcDbEntity
  8
0
  6
Continuous
 62
     7
100
AcDbPolyline
 90
        6
 70
     0
 43
0.0
 10
1739.793294062
 20
-1291.0639799387
 10
1741.4765756205
 20
-1290.9689109145
 10
1746.6912556947
 20
-1289.3720002757
 10
1751.0082981329
 20
-1285.9894569325
 10
1753.8391581674
 20
-1281.2604960481
 10
1754.2839319279
 20
-1279.8625656973
  0
LINE
  5
2BA
330
20C
100
AcDbEntity
  8
0
  6
Continuous
 62
     7
100
AcDbLine
 10
939.2215428464998
 20
-1321.4881848606
 30
0.0
 11
873.3848545866999
 21
-1321.4881848606
 31
0.0
  0
LINE
  5
2BB
330
20C
100
AcDbEntity
  8
0
  6
Continuous
 62
     7
100
AcDbLine
 10
1513.3848545867
 20
-1321.4881848606
 30
0.0
 11
1579.2215428465
 21
-1321.4881848606
 31
0.0
  0
LINE
  5
2BE
330
20C
100
AcDbEntity
  8
0
  6
Continuous
 62
     7
100
AcDbLine
 10
857.2190098511999
 20
-1289.0581808358
 30
0.0
 11
857.2213166241001
 21
-1289.0582800354
 31
0.0
  0
LWPOLYLINE
  5
2C1
330
20C
100
AcDbEntity
  8
0
  6
Continuous
 62
     7
100
AcDbPolyline
 90
        6
 70
     0
 43
0.0
 10
857.2220944058999
 20
-1289.0592600509
 10
858.3582030577
 20
-1289.1667725287
 10
861.1417596674
 20
-1290.0252935162
 10
863.7653109283
 20
-1291.8488735148
 10
865.8090649511999
 20
-1294.6749340945
 10
866.7602519081
 20
-1298.1287886962
  0
LINE
  5
2D0
330
20C
100
AcDbEntity
  8
0
  6
Continuous
 62
     7
100
AcDbLine
 10
1506.7156237635
 20
-1297.62709396095
 30
0.0
 11
1508.4038810962
 21
-1316.9239635744
 31
0.0
  0
LWPOLYLINE
  5
2D5
330
20C
100
AcDbEntity
  8
06___PRT_ALL_SURFS
  6
Continuous
 62
     7
100
AcDbPolyline
 90
        4
 70
     0
 43
0.0
 10
1595.3799537517
 20
-1289.0584692574
 10
1626.5000925346
 20
-1287.3264602945
 10
1663.8507779911
 20
-1283.3885117599
 10
1695.212960479728
 20
-1278.252853901197
  0
LWPOLYLINE
  5
2D6
330
20C
100
AcDbEntity
  8
06___PRT_ALL_SURFS
  6
Continuous
 62
     7
100
AcDbPolyline
 90
        4
 70
     0
 43
0.0
 10
955.3815852333
 20
-1289.0584090499
 10
986.5000772006
 20
-1287.3264614654
 10
1023.8507510926
 20
-1283.3885154168
 10
1055.21512914996
 20
-1278.266977682388
  0
LINE
  5
2D7
330
20C
100
AcDbEntity
  8
0
  6
Continuous
 62
     7
100
AcDbLine
 10
1595.3855227768
 20
-1289.0582637213
 30
0.0
 11
1595.3877801293
 21
-1289.0581669913
 31
0.0
  0
LWPOLYLINE
  5
2D8
330
20C
100
AcDbEntity
  8
0
  6
Continuous
 62
     7
100
AcDbPolyline
 90
        6
 70
     0
 43
0.0
 10
1382.5687037367
 20
-1291.0633623951
 10
1383.7701544981
 20
-1291.0156702571
 10
1388.5900804769
 20
-1289.7939010967
 10
1392.7591101931
 20
-1287.0432870022
 10
1395.8102777862
 20
-1283.0551449008
 10
1397.3928238974
 20
-1278.2663070644
  0
LWPOLYLINE
  5
2D9
330
20C
100
AcDbEntity
  8
0
  6
Continuous
 62
     7
100
AcDbPolyline
 90
        6
 70
     0
 43
0.0
 10
742.5687037366999
 20
-1291.0633623951
 10
743.7701544980999
 20
-1291.0156702571
 10
748.5900804768999
 20
-1289.7939010967
 10
752.7591101931
 20
-1287.0432870022
 10
755.8102777862
 20
-1283.0551449008
 10
757.8643081763332
 20
-1277.191723267242
  0
LINE
  5
2DA
330
20C
100
AcDbEntity
  8
0
  6
Continuous
 62
     7
100
AcDbLine
 10
955.3863191860001
 20
-1289.0582343286
 30
0.0
 11
955.3873025989
 21
-1289.0581957173
 31
0.0
  0
LINE
  5
2DE
330
20C
100
AcDbEntity
  8
0
  6
Continuous
 62
     7
100
AcDbLine
 10
1739.7932938969
 20
-1291.0643279776
 30
0.0
 11
1710.0376933701
 21
-1291.0643279776
 31
0.0
  0
LINE
  5
2DF
330
20C
100
AcDbEntity
  8
0
  6
Continuous
 62
     7
100
AcDbLine
 10
1382.5687031489
 20
-1291.0643279776
 30
0.0
 11
1070.0376933701
 21
-1291.0643279776
 31
0.0
  0
LINE
  5
2E0
330
20C
100
AcDbEntity
  8
0
  6
Continuous
 62
     7
100
AcDbLine
 10
742.5687031488999
 20
-1291.0643279776
 30
0.0
 11
712.8131030477
 21
-1291.0643279776
 31
0.0
  0
LINE
  5
2EF
330
20C
100
AcDbEntity
  8
0
  6
Continuous
 62
     7
100
AcDbLine
 10
1921.1153911937
 20
-1266.4881848606
 30
0.0
 11
531.4910062395999
 21
-1266.4881848606
 31
0.0
  0
LINE
  5
2F0
330
20C
100
AcDbEntity
  8
0
  6
Continuous
 62
     7
100
AcDbLine
 10
1886.1346336357
 20
-1261.3224089687
 30
0.0
 11
566.4717637975
 21
-1261.3224089687
 31
0.0
  0
LINE
  5
2F8
330
20C
100
AcDbEntity
  8
0
  6
Continuous
 62
     7
100
AcDbLine
 10
1497.2155197708
 20
-1289.0580644473
 30
0.0
 11
1497.2163724451
 21
-1289.0580975241
 31
0.0
  0
LWPOLYLINE
  5
2FA
330
20C
100
AcDbEntity
  8
0
  6
Continuous
 62
     7
100
AcDbPolyline
 90
        6
 70
     0
 43
0.0
 10
1497.2245453637
 20
-1289.0593513233
 10
1498.439680797
 20
-1289.1794843689
 10
1501.2471205807
 20
-1290.0762502487
 10
1503.8908397281
 20
-1291.9723824622
 10
1505.910461034
 20
-1294.8920911784
 10
1506.7598870315
 20
-1298.1288480554
  0
LWPOLYLINE
  5
2FE
330
20C
100
AcDbEntity
  8
06___PRT_ALL_SURFS
  6
Continuous
 62
     7
100
AcDbPolyline
 90
        4
 70
     0
 43
0.0
 10
1397.3928238974
 20
-1278.2663070644
 10
1428.7556565881
 20
-1283.38851681
 10
1466.1063462049
 20
-1287.3264634487
 10
1497.2258619784
 20
-1289.0584477908
  0
LINE
  5
301
330
20C
100
AcDbEntity
  8
06___PRT_ALL_SURFS
  6
Continuous
 62
     7
100
AcDbLine
 10
1398.4770743552
 20
-1278.5290589994
 30
0.0
 11
1398.4897482745
 21
-1278.5315933769
 31
0.0
  0
LINE
  5
302
330
20C
100
AcDbEntity
  8
0
  6
Continuous
 62
     7
100
AcDbLine
 10
1497.1654325402
 20
-1289.0254488651
 30
0.0
 11
1497.2155197708
 21
-1289.0580644473
 31
0.0
  0
LINE
  5
30B
330
20C
100
AcDbEntity
  8
0
  6
Continuous
 62
     7
100
AcDbLine
 10
569.9604718937
 20
-1156.1566330768
 30
0.0
 11
1882.6459255395
 21
-1156.1566330768
 31
0.0
  0
LINE
  5
30C
330
20C
100
AcDbEntity
  8
06___PRT_ALL_SURFS
  6
Continuous
 62
     6
100
AcDbLine
 10
651.9146220267999
 20
-1146.4900965299
 30
0.0
 11
651.2637276044
 21
-1146.4881904492
 31
0.0
  0
LINE
  5
314
330
20C
100
AcDbEntity
  8
0
  6
Continuous
 62
     7
100
AcDbLine
 10
1754.2838582829
 20
-1279.8625461362
 30
0.0
 11
1754.2821812922
 21
-1279.8621005711
 31
0.0
  0
LINE
  5
315
330
20C
100
AcDbEntity
  8
0
  6
Continuous
 62
     7
100
AcDbLine
 10
1755.4666436962
 20
-1275.4097275169
 30
0.0
 11
1755.4649666776
 21
-1275.4092820568
 31
0.0
  0
LINE
  5
317
330
20C
100
AcDbEntity
  8
0
  6
Continuous
 62
     7
100
AcDbLine
 10
1585.847464455205
 20
-1298.130094891705
 30
0.0
 11
1584.202516337
 21
-1316.9239635744
 31
0.0
  0
LINE
  5
319
330
20C
100
AcDbEntity
  8
0
  6
Continuous
 62
     7
100
AcDbLine
 10
1595.3877801293
 20
-1289.0581669913
 30
0.0
 11
1595.4409648931
 21
-1289.0254488651
 31
0.0
  0
LINE
  5
31E
330
20C
100
AcDbEntity
  8
0
  6
Continuous
 62
     7
100
AcDbLine
 10
698.3225391234
 20
-1279.8625460348
 30
0.0
 11
698.3242161419999
 21
-1279.8621005747
 31
0.0
  0
LINE
  5
320
330
20C
100
AcDbEntity
  8
06___PRT_ALL_SURFS
  6
Continuous
 62
     7
100
AcDbLine
 10
651.3044115118
 20
-1146.4880910338
 30
0.0
 11
651.3019859214
 21
-1146.4881750616
 31
0.0
  0
LINE
  5
321
330
20C
100
AcDbEntity
  8
06___PRT_ALL_SURFS
  6
Continuous
 62
     7
100
AcDbLine
 10
1915.4595327501
 20
-1146.4881848606
 30
0.0
 11
536.3091891264999
 21
-1146.4881848606
 31
0.0
  0
LINE
  5
322
330
20C
100
AcDbEntity
  8
0
  6
Continuous
 62
     7
100
AcDbLine
 10
539.9769654154
 20
-1146.4881848606
 30
0.0
 11
1912.6294320178
 21
-1146.4881848606
 31
0.0
  0
LINE
  5
324
330
20C
100
AcDbEntity
  8
0
  6
Continuous
 62
     7
100
AcDbLine
 10
696.7448075107
 20
-1273.9228780086
 30
0.0
 11
696.7464845278999
 21
-1273.9224325432
 31
0.0
  0
LINE
  5
32A
330
20C
100
AcDbEntity
  8
0
  6
Continuous
 62
     7
100
AcDbLine
 10
1755.4649016539
 20
-1275.4095268509
 30
0.0
 11
1754.2820822897
 21
-1279.8624732847
 31
0.0
  0
LINE
  5
32B
330
20C
100
AcDbEntity
  8
0
  6
Continuous
 62
     7
100
AcDbLine
 10
1886.1346336357
 20
-1261.3224089687
 30
0.0
 11
1882.6459255395
 21
-1156.1566330768
 31
0.0
  0
LINE
  5
32C
330
20C
100
AcDbEntity
  8
0
  6
Continuous
 62
     7
100
AcDbLine
 10
1882.6459255395
 20
-1146.4881848606
 30
0.0
 11
1882.6459253852
 21
-1156.156633074
 31
0.0
  0
LINE
  5
32D
330
20C
100
AcDbEntity
  8
0
  6
Continuous
 62
     7
100
AcDbLine
 10
1886.1346336357
 20
-1266.4881848606
 30
0.0
 11
1886.1346336357
 21
-1261.3224089687
 31
0.0
  0
LINE
  5
32E
330
20C
100
AcDbEntity
  8
0
  6
Continuous
 62
     7
100
AcDbLine
 10
1926.1126422734
 20
-1261.3224089687
 30
0.0
 11
1922.6239341772
 21
-1156.1566330768
 31
0.0
  0
LINE
  5
32F
330
20C
100
AcDbEntity
  8
0
  6
Continuous
 62
     7
100
AcDbLine
 10
2104.161121888811
 20
-1288.0643279776
 30
0.0
 11
2104.161121888811
 21
-1149.4881848606
 31
0.0
  0
LINE
  5
330
330
20C
100
AcDbEntity
  8
0
  6
Continuous
 62
     7
100
AcDbLine
 10
2107.161121888811
 20
-1266.4881848606
 30
0.0
 11
2107.161121888811
 21
-1146.4881848606
 31
0.0
  0
LINE
  5
331
330
20C
100
AcDbEntity
  8
0
  6
Continuous
 62
     7
100
AcDbLine
 10
2107.26314163331
 20
-1279.8623431931
 30
0.0
 11
2107.26314163331
 21
-1273.9229752849
 31
0.0
  0
LINE
  5
34A
330
20C
100
AcDbEntity
  8
0
  6
Continuous
 62
     7
100
AcDbLine
 10
2253.76180426841
 20
-1316.9239635744
 30
0.0
 11
2251.232569776565
 21
-1288.014681046067
 31
0.0
  0
LINE
  5
34F
330
20C
100
AcDbEntity
  8
0
  6
Continuous
 62
     7
100
AcDbLine
 10
2258.74277775891
 20
-1321.4881848606
 30
0.0
 11
2332.07427011691
 21
-1321.4881848606
 31
0.0
  0
LINE
  5
350
330
20C
100
AcDbEntity
  8
0
  6
Continuous
 62
     7
100
AcDbLine
 10
2268.704724741711
 20
-1316.9239635744
 30
0.0
 11
2337.06043950921
 21
-1316.9239635744
 31
0.0
  0
LINE
  5
395
330
20C
100
AcDbEntity
  8
0
  6
Continuous
 62
     7
100
AcDbLine
 10
2252.52212785451
 20
-1271.8243592985
 30
0.0
 11
2107.55529591261
 21
-1291.0383197125
 31
0.0
  0
LINE
  5
397
330
20C
100
AcDbEntity
  8
0
  6
Continuous
 62
     7
100
AcDbLine
 10
2311.871457271433
 20
-1266.4881848606
 30
0.0
 11
2261.27135907301
 21
-1270.8817184188
 31
0.0
  0
LINE
  5
39F
330
20C
100
AcDbEntity
  8
0
  6
Continuous
 62
     7
100
AcDbLine
 10
2578.973314365911
 20
-1266.4881848606
 30
0.0
 11
2107.161121888811
 21
-1266.4881848606
 31
0.0
  0
LINE
  5
3A0
330
20C
100
AcDbEntity
  8
0
  6
Continuous
 62
     7
100
AcDbLine
 10
2543.99255680951
 20
-1261.3224089687
 30
0.0
 11
2107.161121888811
 21
-1261.3224089687
 31
0.0
  0
LINE
  5
3A3
330
20C
100
AcDbEntity
  8
0
  6
Continuous
 62
     7
100
AcDbLine
 10
2340.46589040921
 20
-1277.9994816729
 30
0.0
 11
2337.06043950921
 21
-1316.9239635744
 31
0.0
  0
LINE
  5
41D
330
20C
100
AcDbEntity
  8
0
  6
Continuous
 62
     7
100
AcDbLine
 10
2107.161121888811
 20
-1156.1566330768
 30
0.0
 11
2540.49503190341
 21
-1156.1566330768
 31
0.0
  0
LINE
  5
454
330
20C
100
AcDbEntity
  8
06___PRT_ALL_SURFS
  6
Continuous
 62
     6
100
AcDbLine
 10
2562.950936414211
 20
-1146.4930317493
 30
0.0
 11
2563.299862379511
 21
-1146.4896064715
 31
0.0
  0
LINE
  5
455
330
20C
100
AcDbEntity
  8
06___PRT_ALL_SURFS
  6
Continuous
 62
     7
100
AcDbLine
 10
2200.13359003841
 20
-1146.4881875257
 30
0.0
 11
2200.13348519831
 21
-1146.4881885028
 31
0.0
  0
LINE
  5
456
330
20C
100
AcDbEntity
  8
06___PRT_ALL_SURFS
  6
Continuous
 62
     6
100
AcDbLine
 10
2563.299862379511
 20
-1146.4896064715
 30
0.0
 11
2563.764443698611
 21
-1146.4877193611
 31
0.0
  0
LINE
  5
457
330
20C
100
AcDbEntity
  8
06___PRT_ALL_SURFS
  6
Continuous
 62
     7
100
AcDbLine
 10
2570.48735519001
 20
-1146.4881848606
 30
0.0
 11
2104.161121888811
 21
-1146.4881848606
 31
0.0
  0
LINE
  5
458
330
20C
100
AcDbEntity
  8
0
  6
Continuous
 62
     7
100
AcDbLine
 10
2107.161121888811
 20
-1146.4881848606
 30
0.0
 11
2570.48735519001
 21
-1146.4881848606
 31
0.0
  0
LINE
  5
465
330
20C
100
AcDbEntity
  8
0
  6
Continuous
 62
     7
100
AcDbLine
 10
2540.49503190341
 20
-1156.1566330768
 30
0.0
 11
2543.99255680951
 21
-1261.3224089687
 31
0.0
  0
LINE
  5
466
330
20C
100
AcDbEntity
  8
0
  6
Continuous
 62
     7
100
AcDbLine
 10
2540.50384871171
 20
-1146.4881848606
 30
0.0
 11
2540.50384871401
 21
-1156.1566330728
 31
0.0
  0
LINE
  5
467
330
20C
100
AcDbEntity
  8
0
  6
Continuous
 62
     7
100
AcDbLine
 10
2543.992556807911
 20
-1266.4881848606
 30
0.0
 11
2543.992556807911
 21
-1261.3224089687
 31
0.0
  0
LINE
  5
46A
330
20C
100
AcDbEntity
  8
0
  6
Continuous
 62
     7
100
AcDbLine
 10
2580.48185734941
 20
-1156.1566330768
 30
0.0
 11
2583.970565445611
 21
-1261.3224089687
 31
0.0
  0
LINE
  5
46B
330
20C
100
AcDbEntity
  8
0
  6
Continuous
 62
     7
100
AcDbLine
 10
526.4910062395999
 20
-2180.104153147683
 30
0.0
 11
526.4910062395999
 21
-1743.272718228183
 31
0.0
  0
LINE
  5
46C
330
20C
100
AcDbEntity
  8
0
  6
Continuous
 62
     7
100
AcDbLine
 10
529.982463256
 20
-1743.272718228183
 30
0.0
 11
529.982463256
 21
-2176.606628242783
 31
0.0
  0
LINE
  5
46D
330
20C
100
AcDbEntity
  8
06___PRT_ALL_SURFS
  6
Continuous
 62
     7
100
AcDbLine
 10
536.3097119555999
 20
-2180.272718227983
 30
0.0
 11
536.3097119555999
 21
-1740.272718228183
 31
0.0
  0
LINE
  5
46F
330
20C
100
AcDbEntity
  8
0
  6
Continuous
 62
     7
100
AcDbLine
 10
566.4717639363999
 20
-2220.084910705183
 30
0.0
 11
566.4717639584999
 21
-2220.082161784782
 31
0.0
  0
LINE
  5
471
330
20C
100
AcDbEntity
  8
0
  6
Continuous
 62
     7
100
AcDbLine
 10
651.3031987166
 20
-1896.272718228183
 30
0.0
 11
651.3031987166
 21
-2140.272718228183
 31
0.0
  0
LINE
  5
472
330
20C
100
AcDbEntity
  8
06___PRT_ALL_SURFS
  6
Continuous
 62
     7
100
AcDbLine
 10
651.3031987166
 20
-1896.272718228183
 30
0.0
 11
651.3031987166
 21
-2140.272718228183
 31
0.0
  0
LINE
  5
476
330
20C
100
AcDbEntity
  8
0
  6
Continuous
 62
     7
100
AcDbLine
 10
726.3031987166
 20
-2048.272718228183
 30
0.0
 11
726.3031987166
 21
-1917.272718228183
 31
0.0
  0
LINE
  5
48F
330
20C
100
AcDbEntity
  8
0
  6
Continuous
 62
     7
100
AcDbLine
 10
1086.3031987166
 20
-1917.272718228183
 30
0.0
 11
1086.3031987166
 21
-2048.272718228183
 31
0.0
  0
LINE
  5
491
330
20C
100
AcDbEntity
  8
0
  6
Continuous
 62
     7
100
AcDbLine
 10
1161.3031987166
 20
-1896.272718228183
 30
0.0
 11
1161.3031987166
 21
-2140.272718228183
 31
0.0
  0
LINE
  5
492
330
20C
100
AcDbEntity
  8
06___PRT_ALL_SURFS
  6
Continuous
 62
     7
100
AcDbLine
 10
1161.3031987166
 20
-1896.272718228183
 30
0.0
 11
1161.3031987166
 21
-2140.272718228183
 31
0.0
  0
LINE
  5
493
330
20C
100
AcDbEntity
  8
0
  6
Continuous
 62
     7
100
AcDbLine
 10
1886.1346336357
 20
-2220.084910705183
 30
0.0
 11
566.4717639415
 21
-2220.084910705183
 31
0.0
  0
LINE
  5
494
330
20C
100
AcDbEntity
  8
06___PRT_ALL_SURFS
  6
Continuous
 62
     7
100
AcDbLine
 10
1290.4652329786
 20
-1930.243939788982
 30
0.0
 11
1290.4651147055
 21
-2040.243938733983
 31
0.0
  0
LINE
  5
496
330
20C
100
AcDbEntity
  8
0
  6
Continuous
 62
     7
100
AcDbLine
 10
569.9604718937
 20
-2216.593453688783
 30
0.0
 11
1882.6459255395
 21
-2216.593453688783
 31
0.0
  0
LINE
  5
497
330
20C
100
AcDbEntity
  8
06___PRT_ALL_SURFS
  6
Continuous
 62
     7
100
AcDbLine
 10
1885.8843684979
 20
-2209.847374770082
 30
0.0
 11
565.8843684976
 21
-2209.847374770082
 31
0.0
  0
LINE
  5
499
330
20C
100
AcDbEntity
  8
0
  6
Continuous
 62
     7
100
AcDbLine
 10
711.3031987166
 20
-2200.272718228183
 30
0.0
 11
1101.3031987166
 21
-2200.272718228183
 31
0.0
  0
LINE
  5
49A
330
20C
100
AcDbEntity
  8
06___PRT_ALL_SURFS
  6
Continuous
 62
     7
100
AcDbLine
 10
711.3031987166
 20
-2200.272718228183
 30
0.0
 11
1101.3031987166
 21
-2200.272718228183
 31
0.0
  0
LINE
  5
49B
330
20C
100
AcDbEntity
  8
06___PRT_ALL_SURFS
  6
Continuous
 62
     7
100
AcDbLine
 10
1351.3031987166
 20
-2200.272718228183
 30
0.0
 11
1741.3031987166
 21
-2200.272718228183
 31
0.0
  0
LINE
  5
49C
330
20C
100
AcDbEntity
  8
0
  6
Continuous
 62
     7
100
AcDbLine
 10
526.4910062395999
 20
-2180.104153148083
 30
0.0
 11
526.4937551598999
 21
-2180.104153147283
 31
0.0
  0
LINE
  5
49D
330
20C
100
AcDbEntity
  8
0
  6
Continuous
 62
     7
100
AcDbLine
 10
1926.1153911936
 20
-2180.104153162683
 30
0.0
 11
1926.1126422731
 21
-2180.104153153083
 31
0.0
  0
LINE
  5
4A1
330
20C
100
AcDbEntity
  8
06___PRT_ALL_SURFS
  6
Continuous
 62
     7
100
AcDbLine
 10
1366.3031987166
 20
-1917.272718228183
 30
0.0
 11
1366.3031987166
 21
-2048.272718228183
 31
0.0
  0
LINE
  5
4A5
330
20C
100
AcDbEntity
  8
0
  6
Continuous
 62
     7
100
AcDbLine
 10
786.3031987166
 20
-2108.272718228183
 30
0.0
 11
1026.3031987166
 21
-2108.272718228183
 31
0.0
  0
LINE
  5
4A6
330
20C
100
AcDbEntity
  8
06___PRT_ALL_SURFS
  6
Continuous
 62
     7
100
AcDbLine
 10
1426.3031987166
 20
-2108.272718228183
 30
0.0
 11
1666.3031987166
 21
-2108.272718228183
 31
0.0
  0
LINE
  5
4C1
330
20C
100
AcDbEntity
  8
0
  6
Continuous
 62
     7
100
AcDbLine
 10
766.3031987166
 20
-1877.272718228183
 30
0.0
 11
1046.3031987166
 21
-1877.272718228183
 31
0.0
  0
LINE
  5
4C2
330
20C
100
AcDbEntity
  8
06___PRT_ALL_SURFS
  6
Continuous
 62
     7
100
AcDbLine
 10
1406.3031987166
 20
-1877.272718228183
 30
0.0
 11
1686.3031987166
 21
-1877.272718228183
 31
0.0
  0
LINE
  5
4C3
330
20C
100
AcDbEntity
  8
0
  6
Continuous
 62
     7
100
AcDbLine
 10
711.3031987166
 20
-1836.272718228183
 30
0.0
 11
1101.3031987166
 21
-1836.272718228183
 31
0.0
  0
LINE
  5
4C4
330
20C
100
AcDbEntity
  8
06___PRT_ALL_SURFS
  6
Continuous
 62
     7
100
AcDbLine
 10
711.3031987166
 20
-1836.272718228183
 30
0.0
 11
1101.3031987166
 21
-1836.272718228183
 31
0.0
  0
LINE
  5
4C5
330
20C
100
AcDbEntity
  8
06___PRT_ALL_SURFS
  6
Continuous
 62
     7
100
AcDbLine
 10
1351.3031987166
 20
-1836.272718228183
 30
0.0
 11
1741.3031987166
 21
-1836.272718228183
 31
0.0
  0
LINE
  5
4C8
330
20C
100
AcDbEntity
  8
0
  6
Continuous
 62
     7
100
AcDbLine
 10
1886.1346336357
 20
-2220.082161784882
 30
0.0
 11
1882.6459255395
 21
-2216.593453688783
 31
0.0
  0
LINE
  5
4C9
330
20C
100
AcDbEntity
  8
0
  6
Continuous
 62
     7
100
AcDbLine
 10
1926.1126422734
 20
-2180.104153148783
 30
0.0
 11
1922.6239341772
 21
-2176.606667395382
 31
0.0
  0
LINE
  5
4CB
330
20C
100
AcDbEntity
  8
06___PRT_ALL_SURFS
  6
Continuous
 62
     7
100
AcDbLine
 10
1726.3031987166
 20
-2048.272718228183
 30
0.0
 11
1726.3031987166
 21
-1917.272718228183
 31
0.0
  0
LINE
  5
4CC
330
20C
100
AcDbEntity
  8
0
  6
Continuous
 62
     7
100
AcDbLine
 10
526.4910062395999
 20
-1743.272718228183
 30
0.0
 11
1926.1126422734
 21
-1743.272718228183
 31
0.0
  0
LINE
  5
4CD
330
20C
100
AcDbEntity
  8
06___PRT_ALL_SURFS
  6
Continuous
 62
     7
100
AcDbLine
 10
536.3097119555999
 20
-1740.272718228183
 30
0.0
 11
1915.4590250399
 21
-1740.272718228183
 31
0.0
  0
LINE
  5
4CE
330
20C
100
AcDbEntity
  8
0
  6
Continuous
 62
     7
100
AcDbLine
 10
529.4921058077
 20
-1740.272718228183
 30
0.0
 11
1923.1142916255
 21
-1740.272718228183
 31
0.0
  0
LINE
  5
4CF
330
20C
100
AcDbEntity
  8
06___PRT_ALL_SURFS
  6
Continuous
 62
     7
100
AcDbLine
 10
1800.4656726579
 20
-2040.243936684483
 30
0.0
 11
1800.4655543893
 21
-1930.243939543183
 31
0.0
  0
LINE
  5
4D2
330
20C
100
AcDbEntity
  8
0
  6
Continuous
 62
     7
100
AcDbLine
 10
1886.1346336357
 20
-2220.084910705183
 30
0.0
 11
1886.1346336357
 21
-2220.082161784882
 31
0.0
  0
LINE
  5
4D4
330
20C
100
AcDbEntity
  8
06___PRT_ALL_SURFS
  6
Continuous
 62
     7
100
AcDbLine
 10
1915.4590250399
 20
-1740.272718228183
 30
0.0
 11
1915.4590250399
 21
-2180.272718227983
 31
0.0
  0
LINE
  5
4D5
330
20C
100
AcDbEntity
  8
0
  6
Continuous
 62
     7
100
AcDbLine
 10
1922.6239341772
 20
-2176.606667395382
 30
0.0
 11
1922.6239341772
 21
-1743.272718228183
 31
0.0
  0
LINE
  5
4D6
330
20C
100
AcDbEntity
  8
0
  6
Continuous
 62
     7
100
AcDbLine
 10
1926.1126422734
 20
-1743.272718228183
 30
0.0
 11
1926.1126422734
 21
-2180.104153148783
 31
0.0
  0
ARC
  5
4DC
330
20C
100
AcDbEntity
  8
0
  6
Continuous
 62
     7
100
AcDbCircle
 10
539.9777506994
 20
-1156.4881848606
 30
0.0
 40
10.0
100
AcDbArc
 50
90.00449934549999
 51
178.1001491425
  0
ARC
  5
4DD
330
20C
100
AcDbEntity
  8
0
  6
Continuous
 62
     7
100
AcDbCircle
 10
531.4910062395999
 20
-1261.4881848606
 30
0.0
 40
5.0
100
AcDbArc
 50
178.1
 51
270.0
  0
ARC
  5
4E2
330
20C
100
AcDbEntity
  8
0
  6
Continuous
 62
     7
100
AcDbCircle
 10
678.0341648449242
 20
-1288.789502820443
 30
0.0
 40
25.25491444898567
100
AcDbArc
 50
52.1800910494251
 51
62.01233510141566
  0
ARC
  5
4E6
330
20C
100
AcDbEntity
  8
0
  6
Continuous
 62
     7
100
AcDbCircle
 10
737.5840518911478
 20
-1336.515903900193
 30
0.0
 40
69.73684251369435
100
AcDbArc
 50
75.93710133074473
 51
83.42689483729792
  0
ARC
  5
4FC
330
20C
100
AcDbEntity
  8
0
  6
Continuous
 62
     7
100
AcDbCircle
 10
753.8881115160001
 20
-1270.7095304109
 30
0.0
 40
1.9488845719
100
AcDbArc
 50
67.0840661271
 51
70.7950664918
  0
ARC
  5
521
330
20C
100
AcDbEntity
  8
0
  6
Continuous
 62
     7
100
AcDbCircle
 10
939.2215428464998
 20
-1316.4881848606
 30
0.0
 40
5.0
100
AcDbArc
 50
270.0000000002
 51
355.0
  0
ARC
  5
522
330
20C
100
AcDbEntity
  8
0
  6
Continuous
 62
     7
100
AcDbCircle
 10
873.3848545866999
 20
-1316.4881848606
 30
0.0
 40
5.0
100
AcDbArc
 50
185.0
 51
270.0
  0
ARC
  5
57C
330
20C
100
AcDbEntity
  8
0
  6
Continuous
 62
     7
100
AcDbCircle
 10
1496.7877557697
 20
-1299.0387737927
 30
0.0
 40
10.026488876
100
AcDbArc
 50
37.0761345636
 51
56.5697591017
  0
ARC
  5
57E
330
20C
100
AcDbEntity
  8
0
  6
Continuous
 62
     7
100
AcDbCircle
 10
1496.9145600601
 20
-1298.9256802235
 30
0.0
 40
9.857148229799999
100
AcDbArc
 50
29.27913067349999
 51
36.9960205065
  0
ARC
  5
57F
330
20C
100
AcDbEntity
  8
0
  6
Continuous
 62
     7
100
AcDbCircle
 10
1496.8950241505
 20
-1298.8982746931
 30
0.0
 40
9.8501453585
100
AcDbArc
 50
56.6402444134
 51
61.92083001770001
  0
ARC
  5
580
330
20C
100
AcDbEntity
  8
0
  6
Continuous
 62
     7
100
AcDbCircle
 10
1513.3848545867
 20
-1316.4881848606
 30
0.0
 40
5.0
100
AcDbArc
 50
185.0
 51
270.0
  0
ARC
  5
588
330
20C
100
AcDbEntity
  8
0
  6
Continuous
 62
     7
100
AcDbCircle
 10
1595.7942774498
 20
-1299.0036290016
 30
0.0
 40
9.985096423699999
100
AcDbArc
 50
92.02791690099999
 51
174.9811320283
  0
ARC
  5
589
330
20C
100
AcDbEntity
  8
0
  6
Continuous
 62
     7
100
AcDbCircle
 10
1579.2215428465
 20
-1316.4881848606
 30
0.0
 40
5.0
100
AcDbArc
 50
270.0000000002
 51
355.0
  0
ARC
  5
59B
330
20C
100
AcDbEntity
  8
0
  6
Continuous
 62
     7
100
AcDbCircle
 10
1710.2074533261
 20
-1275.9577165089
 30
0.0
 40
15.1691288929
100
AcDbArc
 50
188.7024551142
 51
201.9566265565
  0
ARC
  5
5A2
330
20C
100
AcDbEntity
  8
0
  6
Continuous
 62
     7
100
AcDbCircle
 10
1710.0407048529
 20
-1276.1160441839
 30
0.0
 40
14.9222758323
100
AcDbArc
 50
201.9714872758
 51
269.9884405788
  0
ARC
  5
5AE
330
20C
100
AcDbEntity
  8
0
  6
Continuous
 62
     7
100
AcDbCircle
 10
1767.0942644953
 20
-1278.5510859953
 30
0.0
 40
12.0670215454
100
AcDbArc
 50
94.1774850476
 51
138.748703004
  0
ARC
  5
5B0
330
20C
100
AcDbEntity
  8
0
  6
Continuous
 62
     7
100
AcDbCircle
 10
1921.1144744275
 20
-1261.4881848606
 30
0.0
 40
5.0
100
AcDbArc
 50
270.0105053664
 51
1.899651843199999
  0
ARC
  5
5B1
330
20C
100
AcDbEntity
  8
0
  6
Continuous
 62
     7
100
AcDbCircle
 10
1912.6294320178
 20
-1156.4881848606
 30
0.0
 40
10.0
100
AcDbArc
 50
1.9
 51
90.0
  0
ARC
  5
5B6
330
20C
100
AcDbEntity
  8
0
  6
Continuous
 62
     7
100
AcDbCircle
 10
2107.104290318611
 20
-1339.354283162
 30
0.0
 40
78.0318948888
100
AcDbArc
 50
89.95827078899989
 51
91.05972275579892
  0
ARC
  5
5B8
330
20C
100
AcDbEntity
  8
0
  6
Continuous
 62
     7
100
AcDbCircle
 10
2107.161121888811
 20
-1288.0643279776
 30
0.0
 40
3.0
100
AcDbArc
 50
180.0
 51
277.549999999999
  0
ARC
  5
5B9
330
20C
100
AcDbEntity
  8
0
  6
Continuous
 62
     7
100
AcDbCircle
 10
2107.161121888811
 20
-1263.4881848606
 30
0.0
 40
3.0
100
AcDbArc
 50
180.0
 51
270.0
  0
ARC
  5
5BA
330
20C
100
AcDbEntity
  8
0
  6
Continuous
 62
     7
100
AcDbCircle
 10
2107.161121888811
 20
-1149.4881848606
 30
0.0
 40
3.0
100
AcDbArc
 50
90.0
 51
180.0
  0
ARC
  5
5BD
330
20C
100
AcDbEntity
  8
0
  6
Continuous
 62
     7
100
AcDbCircle
 10
2241.27069740861
 20
-1288.8870913031
 30
0.0
 40
10.0000000366
100
AcDbArc
 50
4.999998430299904
 51
48.23571510709955
  0
ARC
  5
5C0
330
20C
100
AcDbEntity
  8
0
  6
Continuous
 62
     7
100
AcDbCircle
 10
2258.74277775891
 20
-1316.4881848606
 30
0.0
 40
5.0
100
AcDbArc
 50
184.9999999999999
 51
270.0
  0
ARC
  5
5C4
330
20C
100
AcDbEntity
  8
0
  6
Continuous
 62
     7
100
AcDbCircle
 10
2276.17256928281
 20
-1450.2638633895
 30
0.0
 40
180.0
100
AcDbArc
 50
94.74863704669919
 51
97.54999213720132
  0
ARC
  5
5C7
330
20C
100
AcDbEntity
  8
0
  6
Continuous
 62
     7
100
AcDbCircle
 10
2287.99422685641
 20
-1236.4810153937
 30
0.0
 40
60.2102949817
100
AcDbArc
 50
223.0287244475996
 51
228.2883519694989
  0
ARC
  5
5C8
330
20C
100
AcDbEntity
  8
0
  6
Continuous
 62
     7
100
AcDbCircle
 10
2282.86656887691
 20
-1241.2651700767
 30
0.0
 40
53.1973776669
100
AcDbArc
 50
217.2856460884993
 51
223.0305133334995
  0
ARC
  5
5E7
330
20C
100
AcDbEntity
  8
0
  6
Continuous
 62
     7
100
AcDbCircle
 10
2332.07946601871
 20
-1316.4881848606
 30
0.0
 40
5.0
100
AcDbArc
 50
270.0
 51
355.0000000000001
  0
ARC
  5
5EC
330
20C
100
AcDbEntity
  8
0
  6
Continuous
 62
     7
100
AcDbCircle
 10
2354.714544781153
 20
-1281.030831637537
 30
0.0
 40
14.56781466041064
100
AcDbArc
 50
93.36842063206503
 51
167.989726114331
  0
ARC
  5
5F6
330
20C
100
AcDbEntity
  8
0
  6
Continuous
 62
     7
100
AcDbCircle
 10
2570.48667743331
 20
-1156.4881848606
 30
0.0
 40
10.0
100
AcDbArc
 50
1.899871274599962
 51
89.99611674029868
  0
ARC
  5
5F7
330
20C
100
AcDbEntity
  8
0
  6
Continuous
 62
     7
100
AcDbCircle
 10
2578.972523271511
 20
-1261.4881848606
 30
0.0
 40
5.0
100
AcDbArc
 50
270.0090652733009
 51
1.899699549999979
  0
ARC
  5
607
330
20C
100
AcDbEntity
  8
0
  6
Continuous
 62
     7
100
AcDbCircle
 10
786.3035599124
 20
-2048.259850626683
 30
0.0
 40
60.01291361779999
100
AcDbArc
 50
199.1592677988993
 51
269.9996551576
  0
ARC
  5
614
330
20C
100
AcDbEntity
  8
0
  6
Continuous
 62
     7
100
AcDbCircle
 10
766.4497786115999
 20
-1917.305380676782
 30
0.0
 40
40.1483277556
100
AcDbArc
 50
169.0857549905003
 51
170.6986785964002
  0
ARC
  5
615
330
20C
100
AcDbEntity
  8
0
  6
Continuous
 62
     7
100
AcDbCircle
 10
766.3346172978999
 20
-1917.299942631782
 30
0.0
 40
40.0392786286
100
AcDbArc
 50
127.8299951179993
 51
154.0813392778993
  0
ARC
  5
616
330
20C
100
AcDbEntity
  8
0
  6
Continuous
 62
     7
100
AcDbCircle
 10
766.3161722211
 20
-1917.283707196782
 30
0.0
 40
40.01297501349999
100
AcDbArc
 50
170.6983838662985
 51
179.9842645658992
  0
ARC
  5
617
330
20C
100
AcDbEntity
  8
0
  6
Continuous
 62
     7
100
AcDbCircle
 10
569.9674288175999
 20
-2176.608486366483
 30
0.0
 40
39.9848851232
100
AcDbArc
 50
179.9973421635002
 51
269.9900311942999
  0
ARC
  5
618
330
20C
100
AcDbEntity
  8
0
  6
Continuous
 62
     7
100
AcDbCircle
 10
566.4710133952
 20
-2180.104903549583
 30
0.0
 40
39.9771231669
100
AcDbArc
 50
179.9989245185986
 51
270.0010754836
  0
ARC
  5
619
330
20C
100
AcDbEntity
  8
0
  6
Continuous
 62
     7
100
AcDbCircle
 10
766.2475834438001
 20
-1917.247294394982
 30
0.0
 40
39.93879782349999
100
AcDbArc
 50
154.0946962973986
 51
169.1126564867991
  0
ARC
  5
61D
330
20C
100
AcDbEntity
  8
0
  6
Continuous
 62
     7
100
AcDbCircle
 10
529.4910062396
 20
-1743.272718228183
 30
0.0
 40
3.0
100
AcDbArc
 50
90.0
 51
180.0
  0
ARC
  5
61E
330
20C
100
AcDbEntity
  8
0
  6
Continuous
 62
     7
100
AcDbCircle
 10
532.9807087084
 20
-1743.270964192282
 30
0.0
 40
2.998245966
100
AcDbArc
 50
89.99798973999999
 51
180.0335192172001
  0
ARC
  5
629
330
20C
100
AcDbEntity
  8
0
  6
Continuous
 62
     7
100
AcDbCircle
 10
1026.3028375208
 20
-2048.259850627283
 30
0.0
 40
60.01291361709999
100
AcDbArc
 50
270.0003448423
 51
340.8407348934009
  0
ARC
  5
636
330
20C
100
AcDbEntity
  8
0
  6
Continuous
 62
     7
100
AcDbCircle
 10
1046.1566188216
 20
-1917.305380676782
 30
0.0
 40
40.1483277556
100
AcDbArc
 50
9.301321403599812
 51
10.91424500949969
  0
ARC
  5
637
330
20C
100
AcDbEntity
  8
0
  6
Continuous
 62
     7
100
AcDbCircle
 10
1046.2717801353
 20
-1917.299942631782
 30
0.0
 40
40.0392786286
100
AcDbArc
 50
25.91866072210066
 51
52.1700048820007
  0
ARC
  5
638
330
20C
100
AcDbEntity
  8
0
  6
Continuous
 62
     7
100
AcDbCircle
 10
1046.2902252121
 20
-1917.283707196782
 30
0.0
 40
40.01297501349999
100
AcDbArc
 50
0.0157354341007339
 51
9.301616133701458
  0
ARC
  5
639
330
20C
100
AcDbEntity
  8
0
  6
Continuous
 62
     7
100
AcDbCircle
 10
1046.3588139894
 20
-1917.247294394982
 30
0.0
 40
39.93879782349999
100
AcDbArc
 50
10.88734351320093
 51
25.90530370260135
  0
ARC
  5
646
330
20C
100
AcDbEntity
  8
06___PRT_ALL_SURFS
  6
Continuous
 62
     7
100
AcDbCircle
 10
1426.3035599124
 20
-2048.259850627283
 30
0.0
 40
60.0129136172
100
AcDbArc
 50
199.1592651126985
 51
269.9996551577
  0
ARC
  5
64C
330
20C
100
AcDbEntity
  8
06___PRT_ALL_SURFS
  6
Continuous
 62
     7
100
AcDbCircle
 10
1406.4497786116
 20
-1917.305380676782
 30
0.0
 40
40.1483277556
100
AcDbArc
 50
169.0857549905003
 51
170.6986785964002
  0
ARC
  5
64D
330
20C
100
AcDbEntity
  8
06___PRT_ALL_SURFS
  6
Continuous
 62
     7
100
AcDbCircle
 10
1406.3346172979
 20
-1917.299942631782
 30
0.0
 40
40.0392786286
100
AcDbArc
 50
127.8299951179993
 51
154.0813392778993
  0
ARC
  5
64E
330
20C
100
AcDbEntity
  8
06___PRT_ALL_SURFS
  6
Continuous
 62
     7
100
AcDbCircle
 10
1406.3161722211
 20
-1917.283707196782
 30
0.0
 40
40.01297501349999
100
AcDbArc
 50
170.6983838662985
 51
179.9842645658992
  0
ARC
  5
64F
330
20C
100
AcDbEntity
  8
06___PRT_ALL_SURFS
  6
Continuous
 62
     7
100
AcDbCircle
 10
1406.2475834437
 20
-1917.247294394882
 30
0.0
 40
39.9387978234
100
AcDbArc
 50
154.0946962973986
 51
169.1126564867991
  0
ARC
  5
656
330
20C
100
AcDbEntity
  8
06___PRT_ALL_SURFS
  6
Continuous
 62
     7
100
AcDbCircle
 10
1666.3028375208
 20
-2048.259850627283
 30
0.0
 40
60.0129136172
100
AcDbArc
 50
270.0003448424
 51
340.8407322172989
  0
ARC
  5
65C
330
20C
100
AcDbEntity
  8
06___PRT_ALL_SURFS
  6
Continuous
 62
     7
100
AcDbCircle
 10
1686.1566188204
 20
-1917.305380676982
 30
0.0
 40
40.1483277569
100
AcDbArc
 50
9.301321403599812
 51
10.91424500949969
  0
ARC
  5
65D
330
20C
100
AcDbEntity
  8
06___PRT_ALL_SURFS
  6
Continuous
 62
     7
100
AcDbCircle
 10
1686.2717801353
 20
-1917.299942631782
 30
0.0
 40
40.0392786286
100
AcDbArc
 50
25.91866072210066
 51
52.1700048820007
  0
ARC
  5
65E
330
20C
100
AcDbEntity
  8
06___PRT_ALL_SURFS
  6
Continuous
 62
     7
100
AcDbCircle
 10
1686.2902252121
 20
-1917.283707196782
 30
0.0
 40
40.01297501349999
100
AcDbArc
 50
0.0157354341007339
 51
9.301616133701458
  0
ARC
  5
65F
330
20C
100
AcDbEntity
  8
0
  6
Continuous
 62
     7
100
AcDbCircle
 10
1882.6389798757
 20
-2176.608497631883
 30
0.0
 40
39.9848851349
100
AcDbArc
 50
270.0099526737
 51
0.0026178978000921
  0
ARC
  5
660
330
20C
100
AcDbEntity
  8
0
  6
Continuous
 62
     7
100
AcDbCircle
 10
1886.1349970267
 20
-2180.104516538483
 30
0.0
 40
39.9775991918
100
AcDbArc
 50
269.9994791896
 51
0.000520808398914
  0
ARC
  5
661
330
20C
100
AcDbEntity
  8
06___PRT_ALL_SURFS
  6
Continuous
 62
     7
100
AcDbCircle
 10
1686.3588139895
 20
-1917.247294394882
 30
0.0
 40
39.9387978234
100
AcDbArc
 50
10.88734351320093
 51
25.90530370260135
  0
ARC
  5
666
330
20C
100
AcDbEntity
  8
0
  6
Continuous
 62
     7
100
AcDbCircle
 10
1919.6256887447
 20
-1743.270964171982
 30
0.0
 40
2.998245945599999
100
AcDbArc
 50
359.9664803932989
 51
90.00201063969997
  0
SPLINE
  5
667
330
20C
100
AcDbEntity
  8
0
  6
Continuous
 62
     7
100
AcDbSpline
210
0.0
220
0.0
230
1.0
 70
     8
 71
     3
 72
     8
 73
     4
 74
     0
 42
0.0000000001
 43
0.0000000001
 40
0.0
 40
0.0
 40
0.0
 40
0.0
 40
1.0
 40
1.0
 40
1.0
 40
1.0
 10
696.7466288677
 20
-1273.9229752888
 30
0.0
 10
696.2311596318
 20
-1271.9833153621
 30
0.0
 10
695.0559119580999
 20
-1270.1314846929
 30
0.0
 10
693.5200131171001
 20
-1268.839585349
 30
0.0
  0
SPLINE
  5
668
330
20C
100
AcDbEntity
  8
0
  6
Continuous
 62
     7
100
AcDbSpline
210
0.0
220
0.0
230
1.0
 70
     8
 71
     3
 72
     8
 73
     4
 74
     0
 42
0.0000000001
 43
0.0000000001
 40
0.0
 40
0.0
 40
0.0
 40
0.0
 40
1.0
 40
1.0
 40
1.0
 40
1.0
 10
1758.0343550266
 20
-1270.5865502169
 30
0.0
 10
1756.8340926351
 20
-1271.9567702429
 30
0.0
 10
1755.9326968858
 20
-1273.6490438796
 30
0.0
 10
1755.464901596
 20
-1275.4095268516
 30
0.0
  0
SPLINE
  5
669
330
20C
100
AcDbEntity
  8
0
  6
Continuous
 62
     7
100
AcDbSpline
210
0.0
220
0.0
230
1.0
 70
     8
 71
     3
 72
     9
 73
     5
 74
     0
 42
0.0000000001
 43
0.0000000001
 40
0.0
 40
0.0
 40
0.0
 40
0.0
 40
0.2646015252
 40
1.0
 40
1.0
 40
1.0
 40
1.0
 10
737.2451519986
 20
-1266.5976128343
 30
0.0
 10
737.7982926821999
 20
-1266.6199763824
 30
0.0
 10
739.8881678414999
 20
-1266.7182384361
 30
0.0
 10
741.97556748
 20
-1266.8712781111
 30
0.0
 10
745.5668871974681
 20
-1267.237468985337
 30
0.0
  0
SPLINE
  5
684
330
20C
100
AcDbEntity
  8
0
  6
Continuous
 62
     7
100
AcDbSpline
210
0.0
220
0.0
230
1.0
 70
     8
 71
     3
 72
     8
 73
     4
 74
     0
 42
0.0000000001
 43
0.0000000001
 40
0.0
 40
0.0
 40
0.0
 40
0.0
 40
1.0
 40
1.0
 40
1.0
 40
1.0
 10
1497.1654084512
 20
-1289.0261036479
 30
0.0
 10
1498.6720824707
 20
-1289.080884978
 30
0.0
 10
1500.2011485573
 20
-1289.4979350378
 30
0.0
 10
1501.5314004046
 20
-1290.2075106982
 30
0.0
  0
SPLINE
  5
685
330
20C
100
AcDbEntity
  8
0
  6
Continuous
 62
     7
100
AcDbSpline
210
0.0
220
0.0
230
1.0
 70
     8
 71
     3
 72
     8
 73
     4
 74
     0
 42
0.0000000001
 43
0.0000000001
 40
0.0
 40
0.0
 40
0.0
 40
0.0
 40
1.0
 40
1.0
 40
1.0
 40
1.0
 10
1505.5124326303
 20
-1294.1048962115
 30
0.0
 10
1506.1993852827
 20
-1295.3301283297
 30
0.0
 10
1506.6376385467
 20
-1296.7306713118
 30
0.0
 10
1506.7599894857
 20
-1298.1300025584
 30
0.0
  0
SPLINE
  5
69E
330
20C
100
AcDbEntity
  8
0
  6
Continuous
 62
     7
100
AcDbSpline
210
0.0
220
0.0
230
1.0
 70
     8
 71
     3
 72
    22
 73
    18
 74
     0
 42
0.0000000001
 43
0.0000000001
 40
0.0
 40
0.0
 40
0.0
 40
0.0
 40
0.1950657017
 40
0.3826837977
 40
0.5555544318
 40
0.7070938165000001
 40
0.7729979479000001
 40
0.8314469752
 40
0.8818960381
 40
0.9238465323999999
 40
0.9569013105999999
 40
0.969994814
 40
0.9807481693999999
 40
0.9891370468999999
 40
0.9951485287
 40
0.998770889
 40
1.0
 40
1.0
 40
1.0
 40
1.0
 10
566.4717637975
 20
-1261.3224089687
 30
0.0
 10
563.8722591578999
 20
-1261.3116482204
 30
0.0
 10
558.7724898358999
 20
-1261.2925947861
 30
0.0
 10
551.3689716494999
 20
-1261.2710334995
 30
0.0
 10
544.5454790059999
 20
-1261.2575426704
 30
0.0
 10
539.3440023494999
 20
-1261.2531278688
 30
0.0
 10
535.6673215066999
 20
-1261.254486785
 30
0.0
 10
533.3378884441
 20
-1261.2577113488
 30
0.0
 10
531.3274654220999
 20
-1261.2628948688
 30
0.0
 10
529.6560711026
 20
-1261.2705863327
 30
0.0
 10
528.4810154059999
 20
-1261.277988217
 30
0.0
 10
527.7243654819
 20
-1261.2871583234
 30
0.0
 10
527.2914296321999
 20
-1261.2906677161
 30
0.0
 10
526.9650650836
 20
-1261.3033520495
 30
0.0
 10
526.7050064739
 20
-1261.2954244551
 30
0.0
 10
526.5955983103
 20
-1261.3272348093
 30
0.0
 10
526.4942866369999
 20
-1261.3060379478
 30
0.0
 10
526.4937551598999
 20
-1261.3224089687
 30
0.0
  0
SPLINE
  5
69F
330
20C
100
AcDbEntity
  8
0
  6
Continuous
 62
     7
100
AcDbSpline
210
0.0
220
0.0
230
1.0
 70
     8
 71
     3
 72
    22
 73
    18
 74
     0
 42
0.0000000001
 43
0.0000000001
 40
0.0
 40
0.0
 40
0.0
 40
0.0
 40
0.0012757346
 40
0.0049098737
 40
0.0109248621
 40
0.0193138713
 40
0.0300663227
 40
0.0431589736
 40
0.0762120198
 40
0.1181593744
 40
0.1686032717
 40
0.227045906
 40
0.2929431333
 40
0.4444679813000001
 40
0.6173257089000001
 40
0.8049358698999999
 40
1.0
 40
1.0
 40
1.0
 40
1.0
 10
529.9824609330999
 20
-1156.1567323752
 30
0.0
 10
529.9827960783999
 20
-1156.1397331396
 30
0.0
 10
530.0817316955999
 20
-1156.1441866681
 30
0.0
 10
530.1946429776998
 20
-1156.1169226276
 30
0.0
 10
530.4528395958
 20
-1156.1120618813
 30
0.0
 10
530.7799146635
 20
-1156.095788073
 30
0.0
 10
531.2124318165
 20
-1156.0852455273
 30
0.0
 10
531.9691303097999
 20
-1156.0685647162
 30
0.0
 10
533.1440452397999
 20
-1156.0526873786
 30
0.0
 10
534.8154549170999
 20
-1156.0377640139
 30
0.0
 10
536.8258344206999
 20
-1156.027216515
 30
0.0
 10
539.1552358161
 20
-1156.0208063745
 30
0.0
 10
542.831883476
 20
-1156.018056211
 30
0.0
 10
548.0333830401
 20
-1156.0269015472
 30
0.0
 10
554.856996156
 20
-1156.05386971
 30
0.0
 10
562.2608073079
 20
-1156.0969842299
 30
0.0
 10
567.3608151441999
 20
-1156.1351255023
 30
0.0
 10
569.9604718937
 20
-1156.1566330768
 30
0.0
  0
SPLINE
  5
6A0
330
20C
100
AcDbEntity
  8
0
  6
Continuous
 62
     7
100
AcDbSpline
210
0.0
220
0.0
230
1.0
 70
     8
 71
     3
 72
    22
 73
    18
 74
     0
 42
0.0000000001
 43
0.0000000001
 40
0.0
 40
0.0
 40
0.0
 40
0.0
 40
0.0012291128
 40
0.004851474
 40
0.0108629554
 40
0.0192518308
 40
0.030005182
 40
0.0430986795
 40
0.0761534525
 40
0.1181039701
 40
0.1685530789
 40
0.2270021433
 40
0.2929063007999999
 40
0.4444456095
 40
0.6173161644
 40
0.8049343104
 40
1.0
 40
1.0
 40
1.0
 40
1.0
 10
1926.1126422734
 20
-1261.3224089687
 30
0.0
 10
1926.1121106217
 20
-1261.3060379297
 30
0.0
 10
1926.010799299
 20
-1261.3272348294
 30
0.0
 10
1925.9013907096
 20
-1261.2954244725
 30
0.0
 10
1925.6413323537
 20
-1261.3033520802
 30
0.0
 10
1925.3149677896
 20
-1261.2906677556
 30
0.0
 10
1924.882032143
 20
-1261.2871583581
 30
0.0
 10
1924.125382402699
 20
-1261.2779882277
 30
0.0
 10
1922.9503265558
 20
-1261.270586301
 30
0.0
 10
1921.2789313788
 20
-1261.2628948276
 30
0.0
 10
1919.2685069428
 20
-1261.2577113369
 30
0.0
 10
1916.9390724254
 20
-1261.254486793
 30
0.0
 10
1913.2623917532
 20
-1261.2531278775
 30
0.0
 10
1908.0609168174
 20
-1261.2575426781
 30
0.0
 10
1901.237425576
 20
-1261.2710335232
 30
0.0
 10
1893.8339079402
 20
-1261.2925947301
 30
0.0
 10
1888.7341381135
 20
-1261.3116482266
 30
0.0
 10
1886.1346336357
 20
-1261.3224089687
 30
0.0
  0
SPLINE
  5
6A1
330
20C
100
AcDbEntity
  8
0
  6
Continuous
 62
     7
100
AcDbSpline
210
0.0
220
0.0
230
1.0
 70
     8
 71
     3
 72
    22
 73
    18
 74
     0
 42
0.0000000001
 43
0.0000000001
 40
0.0
 40
0.0
 40
0.0
 40
0.0
 40
0.195064011
 40
0.382674067
 40
0.5555317164
 40
0.7070565237000001
 40
0.7729537483
 40
0.8313963932
 40
0.8818403131999998
 40
0.9237877006999999
 40
0.9568407944
 40
0.9699334778
 40
0.9806859693999999
 40
0.9890750237999998
 40
0.9950900573
 40
0.9987242366
 40
1.0
 40
1.0
 40
1.0
 40
1.0
 10
1882.6459255395
 20
-1156.1566330768
 30
0.0
 10
1885.245580695199
 20
-1156.1351255165
 30
0.0
 10
1890.3455855311
 20
-1156.0969842598
 30
0.0
 10
1897.7493926333
 20
-1156.0538697561
 30
0.0
 10
1904.5730027456
 20
-1156.0269015836
 30
0.0
 10
1909.7745006736
 20
-1156.0180562235
 30
0.0
 10
1913.4511478852
 20
-1156.0208063534
 30
0.0
 10
1915.7805496844
 20
-1156.0272164617
 30
0.0
 10
1917.7909300554
 20
-1156.0377639216
 30
0.0
 10
1919.4623411284
 20
-1156.0526872656
 30
0.0
 10
1920.6372574986
 20
-1156.0685645651
 30
0.0
 10
1921.3939576885
 20
-1156.0852453635
 30
0.0
 10
1921.8264762195
 20
-1156.0957878136
 30
0.0
 10
1922.1535535125
 20
-1156.1120617458
 30
0.0
 10
1922.4117508266
 20
-1156.1169220427
 30
0.0
 10
1922.5246653454
 20
-1156.1441868405
 30
0.0
 10
1922.6236003264
 20
-1156.1397323348
 30
0.0
 10
1922.6239364941
 20
-1156.1567319342
 30
0.0
  0
SPLINE
  5
70D
330
20C
100
AcDbEntity
  8
0
  6
Continuous
 62
     7
100
AcDbSpline
210
0.0
220
0.0
230
1.0
 70
     8
 71
     3
 72
     9
 73
     5
 74
     0
 42
0.0000000001
 43
0.0000000001
 40
0.0
 40
0.0
 40
0.0
 40
0.0
 40
0.6055691052000001
 40
1.0
 40
1.0
 40
1.0
 40
1.0
 10
757.9260336106
 20
-1273.4380814997
 30
0.0
 10
757.4629111989999
 20
-1272.3936474283
 30
0.0
 10
756.6417409948
 20
-1270.7244894416
 30
0.0
 10
755.3325299188001
 20
-1269.2039051884
 30
0.0
 10
754.6469684155
 20
-1268.9144573537
 30
0.0
  0
SPLINE
  5
715
330
20C
100
AcDbEntity
  8
0
  6
Continuous
 62
     7
100
AcDbSpline
210
0.0
220
0.0
230
1.0
 70
     8
 71
     3
 72
    10
 73
     6
 74
     0
 42
0.0000000001
 43
0.0000000001
 40
0.0
 40
0.0
 40
0.0
 40
0.0
 40
0.1076701505
 40
0.3018413691
 40
1.0
 40
1.0
 40
1.0
 40
1.0
 10
758.4802070422
 20
-1278.5151584508
 30
0.0
 10
758.2947750697999
 20
-1278.4761459637
 30
0.0
 10
757.9354850152
 20
-1277.971631764
 30
0.0
 10
757.7579927386
 20
-1276.2444435274
 30
0.0
 10
757.8345848841999
 20
-1274.6522118095
 30
0.0
 10
757.927676114
 20
-1273.4270364542
 30
0.0
  0
LINE
  5
753
330
20C
100
AcDbEntity
  8
06___PRT_ALL_SURFS
  6
Continuous
 62
     7
100
AcDbLine
 10
791.303063915
 20
-1146.4881875235
 30
0.0
 11
651.3030647406
 21
-1146.4881875252
 31
0.0
  0
LINE
  5
7B2
330
20C
100
AcDbEntity
  8
06___PRT_ALL_SURFS
  6
Continuous
 62
     7
100
AcDbLine
 10
651.3031656536
 20
-1146.4881875145
 30
0.0
 11
791.3030567794
 21
-1146.4881875254
 31
0.0
  0
SPLINE
  5
835
330
20C
100
AcDbEntity
  8
0
  6
Continuous
 62
     7
100
AcDbSpline
210
0.0
220
0.0
230
1.0
 70
     8
 71
     3
 72
    13
 73
     9
 74
     0
 42
0.0000000001
 43
0.0000000001
 40
0.0
 40
0.0
 40
0.0
 40
0.0
 40
0.0204263909
 40
0.077538581
 40
0.1697536826
 40
0.2939483997
 40
0.6184729021999999
 40
1.0
 40
1.0
 40
1.0
 40
1.0
 10
2104.161121888811
 20
-1156.2560986119
 30
0.0
 10
2104.161121888811
 20
-1156.2356365308
 30
0.0
 10
2104.27942170161
 20
-1156.2404494224
 30
0.0
 10
2104.410459074911
 20
-1156.2075857521
 30
0.0
 10
2104.70480908811
 20
-1156.200999388
 30
0.0
 10
2105.23467676461
 20
-1156.1750089121
 30
0.0
 10
2106.07411051161
 20
-1156.1622318666
 30
0.0
 10
2106.778928164711
 20
-1156.156633092
 30
0.0
 10
2107.161121888811
 20
-1156.156633092
 30
0.0
  0
SPLINE
  5
836
330
20C
100
AcDbEntity
  8
0
  6
Continuous
 62
     7
100
AcDbSpline
210
0.0
220
0.0
230
1.0
 70
     8
 71
     3
 72
    11
 73
     7
 74
     0
 42
0.0000000001
 43
0.0000000001
 40
0.0
 40
0.0
 40
0.0
 40
0.0
 40
0.0705220999
 40
0.2698358725
 40
0.5867824596000001
 40
1.0
 40
1.0
 40
1.0
 40
1.0
 10
2104.161121888811
 20
-1261.4218745039
 30
0.0
 10
2104.161121888811
 20
-1261.3865015381
 30
0.0
 10
2104.37233175471
 20
-1261.4120616409
 30
0.0
 10
2104.595166125011
 20
-1261.3519101445
 30
0.0
 10
2105.099749954911
 20
-1261.3553504624
 30
0.0
 10
2105.45389495711
 20
-1261.3396824781
 30
0.0
 10
2105.661121889911
 20
-1261.3357348236
 30
0.0
  0
SPLINE
  5
83A
330
20C
100
AcDbEntity
  8
0
  6
Continuous
 62
     7
100
AcDbSpline
210
0.0
220
0.0
230
1.0
 70
     8
 71
     3
 72
    16
 73
    12
 74
     0
 42
0.0000000001
 43
0.0000000001
 40
0.0
 40
0.0
 40
0.0
 40
0.0
 40
0.4007341434000001
 40
0.5735056195000001
 40
0.7214455069
 40
0.8407915283000001
 40
0.9283478002999999
 40
0.9594593573
 40
0.9818364799999999
 40
0.9953493812999999
 40
1.0
 40
1.0
 40
1.0
 40
1.0
 10
2107.263146992011
 20
-1273.9229752888
 30
0.0
 10
2107.26035614871
 20
-1272.9295490935
 30
0.0
 10
2107.254153696611
 20
-1271.5076310104
 30
0.0
 10
2107.23928907811
 20
-1269.7196552613
 30
0.0
 10
2107.22755180311
 20
-1268.6277949172
 30
0.0
 10
2107.21215656571
 20
-1267.7509856585
 30
0.0
 10
2107.202268240511
 20
-1267.1551911807
 30
0.0
 10
2107.18580353161
 20
-1266.8138031086
 30
0.0
 10
2107.185370840911
 20
-1266.6344278264
 30
0.0
 10
2107.16477886981
 20
-1266.5581876105
 30
0.0
 10
2107.172651353311
 20
-1266.4881823774
 30
0.0
 10
2107.16112235161
 20
-1266.4881848607
 30
0.0
  0
SPLINE
  5
83B
330
20C
100
AcDbEntity
  8
0
  6
Continuous
 62
     7
100
AcDbSpline
210
0.0
220
0.0
230
1.0
 70
     8
 71
     3
 72
    22
 73
    18
 74
     0
 42
0.0000000001
 43
0.0000000001
 40
0.0
 40
0.0
 40
0.0
 40
0.0
 40
0.0012321587
 40
0.0048550303
 40
0.0108654444
 40
0.0192526547
 40
0.0300047065
 40
0.0430976999
 40
0.0761529233
 40
0.1181041265
 40
0.1685532391
 40
0.2270020977
 40
0.2929062224
 40
0.4444456228
 40
0.6173161615
 40
0.8049343143999999
 40
1.0
 40
1.0
 40
1.0
 40
1.0
 10
2583.970565445611
 20
-1261.3224089687
 30
0.0
 10
2583.969655976711
 20
-1261.3060139146
 30
0.0
 10
2583.86915817841
 20
-1261.3272298191
 30
0.0
 10
2583.758848859011
 20
-1261.2954286657
 30
0.0
 10
2583.49932164891
 20
-1261.3033453694
 30
0.0
 10
2583.17278947951
 20
-1261.2906716183
 30
0.0
 10
2582.739985078311
 20
-1261.2871643925
 30
0.0
 10
2581.983313287411
 20
-1261.2780000419
 30
0.0
 10
2580.80827495791
 20
-1261.2706006999
 30
0.0
 10
2579.136853506111
 20
-1261.2629076958
 30
0.0
 10
2577.126426629311
 20
-1261.257718465
 30
0.0
 10
2574.79699399761
 20
-1261.2544887761
 30
0.0
 10
2571.12031591341
 20
-1261.2531272463
 30
0.0
 10
2565.91884022661
 20
-1261.2575346554
 30
0.0
 10
2559.095348152411
 20
-1261.2710157991
 30
0.0
 10
2551.69183088141
 20
-1261.2925926787
 30
0.0
 10
2546.59206121091
 20
-1261.3116586394
 30
0.0
 10
2543.99255680951
 20
-1261.3224089687
 30
0.0
  0
SPLINE
  5
83C
330
20C
100
AcDbEntity
  8
0
  6
Continuous
 62
     7
100
AcDbSpline
210
0.0
220
0.0
230
1.0
 70
     8
 71
     3
 72
    22
 73
    18
 74
     0
 42
0.0000000001
 43
0.0000000001
 40
0.0
 40
0.0
 40
0.0
 40
0.0
 40
0.1950261565
 40
0.3826079493
 40
0.5554478632000001
 40
0.7069667678
 40
0.7728654816000001
 40
0.8313126333999999
 40
0.8817639009999998
 40
0.9237214194999999
 40
0.9567873553
 40
0.9698875939
 40
0.9806484397
 40
0.9890464848999998
 40
0.9950709626
 40
0.9987148434999999
 40
1.0
 40
1.0
 40
1.0
 40
1.0
 10
2540.49503520451
 20
-1156.1567323752
 30
0.0
 10
2543.09475692811
 20
-1156.1352282532
 30
0.0
 10
2548.195000449311
 20
-1156.0970341915
 30
0.0
 10
2555.59931627721
 20
-1156.0538890727
 30
0.0
 10
2562.42373351451
 20
-1156.026912875
 30
0.0
 10
2567.62607924571
 20
-1156.0180586875
 30
0.0
 10
2571.30353491191
 20
-1156.0208012125
 30
0.0
 10
2573.633627709211
 20
-1156.0272065345
 30
0.0
 10
2575.644738869911
 20
-1156.0377481678
 30
0.0
 10
2577.31693270641
 20
-1156.0526681985
 30
0.0
 10
2578.492488245511
 20
-1156.0685330312
 30
0.0
 10
2579.24977826751
 20
-1156.0852081195
 30
0.0
 10
2579.682641044011
 20
-1156.0957210481
 30
0.0
 10
2580.01036061451
 20
-1156.1120272131
 30
0.0
 10
2580.26852055891
 20
-1156.1167648081
 30
0.0
 10
2580.38262900691
 20
-1156.144248044
 30
0.0
 10
2580.48109942391
 20
-1156.1395179759
 30
0.0
 10
2580.48185734941
 20
-1156.1566330768
 30
0.0
  0
SPLINE
  5
85D
330
20C
100
AcDbEntity
  8
0
  6
Continuous
 62
     7
100
AcDbSpline
210
0.0
220
0.0
230
1.0
 70
     8
 71
     3
 72
    18
 73
    14
 74
     0
 42
0.0000000001
 43
0.0000000001
 40
0.0
 40
0.0
 40
0.0
 40
0.0
 40
0.0057078681
 40
0.0204747858
 40
0.0445047413
 40
0.0776758167
 40
0.1196663403
 40
0.1700710016
 40
0.2942969496
 40
0.4455221159000001
 40
0.6180352599
 40
0.8054490819999999
 40
1.0
 40
1.0
 40
1.0
 40
1.0
 10
2253.76181989651
 20
-1316.9241347475
 30
0.0
 10
2253.76414554381
 20
-1316.9525027376
 30
0.0
 10
2253.90287395161
 20
-1316.9738453606
 30
0.0
 10
2254.087709666411
 20
-1317.0095882801
 30
0.0
 10
2254.464908600811
 20
-1317.0343943175
 30
0.0
 10
2254.95063537051
 20
-1317.0597416952
 30
0.0
 10
2255.57969087151
 20
-1317.0783544128
 30
0.0
 10
2256.65828244041
 20
-1317.0984378453
 30
0.0
 10
2258.284174997911
 20
-1317.1057079138
 30
0.0
 10
2260.51762589611
 20
-1317.0927613402
 30
0.0
 10
2263.06646901521
 20
-1317.0575185033
 30
0.0
 10
2265.830864027911
 20
-1317.0013385012
 30
0.0
 10
2267.73496640131
 20
-1316.9518085306
 30
0.0
 10
2268.704724741711
 20
-1316.9239635743
 30
0.0
  0
LINE
  5
86D
330
20C
100
AcDbEntity
  8
0
  6
Continuous
 62
     7
100
AcDbLine
 10
2107.55529591261
 20
-1291.0383197125
 30
0.0
 11
2107.263149127211
 21
-1279.8623421993
 31
0.0
  0
LINE
  5
898
330
20C
100
AcDbEntity
  8
06___PRT_ALL_SURFS
  6
Continuous
 62
     7
100
AcDbLine
 10
2564.132365971211
 20
-1146.4881875235
 30
0.0
 11
2404.13234034521
 21
-1146.4881875252
 31
0.0
  0
LINE
  5
8EA
330
20C
100
AcDbEntity
  8
06___PRT_ALL_SURFS
  6
Continuous
 62
     7
100
AcDbLine
 10
2314.13240665641
 20
-1146.4881875229
 30
0.0
 11
2294.13234344961
 21
-1146.4881875601
 31
0.0
  0
LINE
  5
8EB
330
20C
100
AcDbEntity
  8
06___PRT_ALL_SURFS
  6
Continuous
 62
     7
100
AcDbLine
 10
2294.13234344961
 20
-1146.4881875145
 30
0.0
 11
2200.13234303401
 21
-1146.4881875254
 31
0.0
  0
SPLINE
  5
942
330
20C
100
AcDbEntity
  8
0
  6
Continuous
 62
     7
100
AcDbSpline
210
0.0
220
0.0
230
1.0
 70
     8
 71
     3
 72
     8
 73
     4
 74
     0
 42
0.0000000001
 43
0.0000000001
 40
0.0
 40
0.0
 40
0.0
 40
0.0
 40
1.0
 40
1.0
 40
1.0
 40
1.0
 10
1923.1142916255
 20
-1740.272718228183
 30
0.0
 10
1923.6316641424
 20
-1740.272718228183
 30
0.0
 10
1924.164930862
 20
-1740.416785720482
 30
0.0
 10
1924.6134668071
 20
-1740.674641934583
 30
0.0
  0
SPLINE
  5
943
330
20C
100
AcDbEntity
  8
0
  6
Continuous
 62
     7
100
AcDbSpline
210
0.0
220
0.0
230
1.0
 70
     8
 71
     3
 72
     9
 73
     5
 74
     0
 42
0.0000000001
 43
0.0000000001
 40
0.0
 40
0.0
 40
0.0
 40
0.0
 40
0.4999404836
 40
1.0
 40
1.0
 40
1.0
 40
1.0
 10
1924.6134668071
 20
-1740.674641934583
 30
0.0
 10
1925.0621096701
 20
-1740.932559614083
 30
0.0
 10
1925.8346279156
 20
-1741.701823869482
 30
0.0
 10
1926.1126422734
 20
-1742.755099172082
 30
0.0
 10
1926.1126422734
 20
-1743.272718228183
 30
0.0
  0
SPLINE
  5
963
330
20C
100
AcDbEntity
  8
0
  6
Continuous
 62
     7
100
AcDbSpline
210
0.0
220
0.0
230
1.0
 70
     8
 71
     3
 72
     9
 73
     5
 74
     0
 42
0.0000000001
 43
0.0000000001
 40
0.0
 40
0.0
 40
0.0
 40
0.0
 40
0.2761258057
 40
1.0
 40
1.0
 40
1.0
 40
1.0
 10
729.620999425
 20
-2067.947694206183
 30
0.0
 10
729.0170139996
 20
-2066.207665281483
 30
0.0
 10
727.079582581
 20
-2059.818929891083
 30
0.0
 10
726.3033634595
 20
-2053.101259701283
 30
0.0
 10
726.303361106
 20
-2048.272718228083
 30
0.0
  0
SPLINE
  5
966
330
20C
100
AcDbEntity
  8
0
  6
Continuous
 62
     7
100
AcDbSpline
210
0.0
220
0.0
230
1.0
 70
     8
 71
     3
 72
     9
 73
     5
 74
     0
 42
0.0000000001
 43
0.0000000001
 40
0.0
 40
0.0
 40
0.0
 40
0.0
 40
0.4983985582
 40
1.0
 40
1.0
 40
1.0
 40
1.0
 10
741.7772875080999
 20
-1885.675023448183
 30
0.0
 10
745.2265836915
 20
-1882.998877220382
 30
0.0
 10
753.0936261782001
 20
-1878.759314396583
 30
0.0
 10
761.9094355569
 20
-1877.272718228183
 30
0.0
 10
766.3031987166
 20
-1877.272718228183
 30
0.0
  0
SPLINE
  5
972
330
20C
100
AcDbEntity
  8
0
  6
Continuous
 62
     7
100
AcDbSpline
210
0.0
220
0.0
230
1.0
 70
     8
 71
     3
 72
     9
 73
     5
 74
     0
 42
0.0000000001
 43
0.0000000001
 40
0.0
 40
0.0
 40
0.0
 40
0.0
 40
0.2749179586
 40
1.0
 40
1.0
 40
1.0
 40
1.0
 10
1086.3030352977
 20
-2048.272718228083
 30
0.0
 10
1086.3030343983
 20
-2050.106518152583
 30
0.0
 10
1086.0393110062
 20
-2056.777181413983
 30
0.0
 10
1084.5713946801
 20
-2063.378573554383
 30
0.0
 10
1082.9853968303
 20
-2067.947693797383
 30
0.0
  0
SPLINE
  5
975
330
20C
100
AcDbEntity
  8
06___PRT_ALL_SURFS
  6
Continuous
 62
     7
100
AcDbSpline
210
0.0
220
0.0
230
1.0
 70
     8
 71
     3
 72
     9
 73
     5
 74
     0
 42
0.0000000001
 43
0.0000000001
 40
0.0
 40
0.0
 40
0.0
 40
0.0
 40
0.4983985582
 40
1.0
 40
1.0
 40
1.0
 40
1.0
 10
1070.8291099251
 20
-1885.675023448183
 30
0.0
 10
1067.3798137417
 20
-1882.998877220382
 30
0.0
 10
1059.512771255
 20
-1878.759314396583
 30
0.0
 10
1050.6969618763
 20
-1877.272718228183
 30
0.0
 10
1046.3031987166
 20
-1877.272718228183
 30
0.0
  0
SPLINE
  5
979
330
20C
100
AcDbEntity
  8
06___PRT_ALL_SURFS
  6
Continuous
 62
     7
100
AcDbSpline
210
0.0
220
0.0
230
1.0
 70
     8
 71
     3
 72
     9
 73
     5
 74
     0
 42
0.0000000001
 43
0.0000000001
 40
0.0
 40
0.0
 40
0.0
 40
0.0
 40
0.4983985582
 40
1.0
 40
1.0
 40
1.0
 40
1.0
 10
1381.7772875081
 20
-1885.675023448183
 30
0.0
 10
1385.2265836915
 20
-1882.998877220382
 30
0.0
 10
1393.0936261782
 20
-1878.759314396583
 30
0.0
 10
1401.9094355569
 20
-1877.272718228183
 30
0.0
 10
1406.3031987166
 20
-1877.272718228183
 30
0.0
  0
SPLINE
  5
97C
330
20C
100
AcDbEntity
  8
06___PRT_ALL_SURFS
  6
Continuous
 62
     7
100
AcDbSpline
210
0.0
220
0.0
230
1.0
 70
     8
 71
     3
 72
     9
 73
     5
 74
     0
 42
0.0000000001
 43
0.0000000001
 40
0.0
 40
0.0
 40
0.0
 40
0.0
 40
0.2749179586
 40
1.0
 40
1.0
 40
1.0
 40
1.0
 10
1366.3033621355
 20
-2048.272718228083
 30
0.0
 10
1366.3033630349
 20
-2050.106518152583
 30
0.0
 10
1366.567086427
 20
-2056.777181413983
 30
0.0
 10
1368.0350027532
 20
-2063.378573554383
 30
0.0
 10
1369.621000603
 20
-2067.947693797383
 30
0.0
  0
SPLINE
  5
98A
330
20C
100
AcDbEntity
  8
06___PRT_ALL_SURFS
  6
Continuous
 62
     7
100
AcDbSpline
210
0.0
220
0.0
230
1.0
 70
     8
 71
     3
 72
     9
 73
     5
 74
     0
 42
0.0000000001
 43
0.0000000001
 40
0.0
 40
0.0
 40
0.0
 40
0.0
 40
0.4983985582
 40
1.0
 40
1.0
 40
1.0
 40
1.0
 10
1710.8291099251
 20
-1885.675023448183
 30
0.0
 10
1707.3798137417
 20
-1882.998877220382
 30
0.0
 10
1699.512771255
 20
-1878.759314396583
 30
0.0
 10
1690.6969618763
 20
-1877.272718228183
 30
0.0
 10
1686.3031987166
 20
-1877.272718228183
 30
0.0
  0
SPLINE
  5
98D
330
20C
100
AcDbEntity
  8
06___PRT_ALL_SURFS
  6
Continuous
 62
     7
100
AcDbSpline
210
0.0
220
0.0
230
1.0
 70
     8
 71
     3
 72
     9
 73
     5
 74
     0
 42
0.0000000001
 43
0.0000000001
 40
0.0
 40
0.0
 40
0.0
 40
0.0
 40
0.2761258057
 40
1.0
 40
1.0
 40
1.0
 40
1.0
 10
1722.9853980082
 20
-2067.947694206183
 30
0.0
 10
1723.5893834336
 20
-2066.207665281483
 30
0.0
 10
1725.5268148522
 20
-2059.818929891083
 30
0.0
 10
1726.3030339737
 20
-2053.101259701283
 30
0.0
 10
1726.3030363272
 20
-2048.272718228083
 30
0.0
  0
SPLINE
  5
9CC
330
20C
100
AcDbEntity
  8
06___PRT_ALL_SURFS
  6
Continuous
 62
     7
100
AcDbSpline
210
0.0
220
0.0
230
1.0
 70
     8
 71
     3
 72
    12
 73
     8
 74
     0
 42
0.0000000001
 43
0.0000000001
 40
0.0
 40
0.0
 40
0.0
 40
0.0
 40
0.1955367441
 40
0.3985049334
 40
0.6026882718
 40
0.8050583679
 40
1.0
 40
1.0
 40
1.0
 40
1.0
 10
1915.4590250399
 20
-2180.272718227983
 30
0.0
 10
1915.4764760072
 20
-2183.288245349283
 30
0.0
 10
1914.511470832
 20
-2189.478338118083
 30
0.0
 10
1910.2474581471
 20
-2197.905911324482
 30
0.0
 10
1903.4779547158
 20
-2204.662340624783
 30
0.0
 10
1895.0620940668
 20
-2208.905739949383
 30
0.0
 10
1888.8907163014
 20
-2209.865050915983
 30
0.0
 10
1885.8843684979
 20
-2209.847374770082
 30
0.0
  0
SPLINE
  5
9CD
330
20C
100
AcDbEntity
  8
06___PRT_ALL_SURFS
  6
Continuous
 62
     7
100
AcDbSpline
210
0.0
220
0.0
230
1.0
 70
     8
 71
     3
 72
    12
 73
     8
 74
     0
 42
0.0000000001
 43
0.0000000001
 40
0.0
 40
0.0
 40
0.0
 40
0.0
 40
0.1955367441
 40
0.3985049334
 40
0.6026882718
 40
0.8050583679
 40
1.0
 40
1.0
 40
1.0
 40
1.0
 10
565.8843684976
 20
-2209.847374770082
 30
0.0
 10
562.8688413766999
 20
-2209.864825737683
 30
0.0
 10
556.6787486081999
 20
-2208.899820562583
 30
0.0
 10
548.2511754017999
 20
-2204.635807877883
 30
0.0
 10
541.4947461011999
 20
-2197.866304446483
 30
0.0
 10
537.2513467763
 20
-2189.450443797282
 30
0.0
 10
536.2920358096999
 20
-2183.279066031682
 30
0.0
 10
536.3097119555999
 20
-2180.272718227983
 30
0.0
  0
SPLINE
  5
9D2
330
20C
100
AcDbEntity
  8
06___PRT_ALL_SURFS
  6
Continuous
 62
     7
100
AcDbSpline
210
0.0
220
0.0
230
1.0
 70
     8
 71
     3
 72
    19
 73
    15
 74
     0
 42
0.0000000001
 43
0.0000000001
 40
0.0
 40
0.0
 40
0.0
 40
0.0
 40
0.095345254
 40
0.1833034589
 40
0.2647512881
 40
0.338682557
 40
0.4075616084000001
 40
0.4751600564000001
 40
0.5437899960000001
 40
0.6182973896
 40
0.7020457283
 40
0.7934013684000001
 40
0.8925043756999999
 40
1.0
 40
1.0
 40
1.0
 40
1.0
 10
1021.3036227144
 20
-2200.243878068282
 30
0.0
 10
1030.0070071326
 20
-2200.238014566183
 30
0.0
 10
1046.7347671058
 20
-2200.238386152083
 30
0.0
 10
1070.9213479317
 20
-2200.240965934383
 30
0.0
 10
1093.0711241351
 20
-2200.344657394383
 30
0.0
 10
1113.7469325711
 20
-2200.184808925583
 30
0.0
 10
1131.9863138725
 20
-2192.905349857983
 30
0.0
 10
1146.6988150508
 20
-2180.946648198183
 30
0.0
 10
1157.4958339143
 20
-2164.561760974183
 30
0.0
 10
1162.0298982503
 20
-2143.949801976383
 30
0.0
 10
1161.159719874
 20
-2121.137358321383
 30
0.0
 10
1161.3275994712
 20
-2096.115443922883
 30
0.0
 10
1161.3009818882
 20
-2068.914718538783
 30
0.0
 10
1161.3080190701
 20
-2050.056442511082
 30
0.0
 10
1161.3036222901
 20
-2040.243936684483
 30
0.0
  0
SPLINE
  5
9D3
330
20C
100
AcDbEntity
  8
06___PRT_ALL_SURFS
  6
Continuous
 62
     7
100
AcDbSpline
210
0.0
220
0.0
230
1.0
 70
     8
 71
     3
 72
    17
 73
    13
 74
     0
 42
0.0000000001
 43
0.0000000001
 40
0.0
 40
0.0
 40
0.0
 40
0.0
 40
0.1028164474
 40
0.2001694217
 40
0.2886471786
 40
0.3733277204999999
 40
0.4574414388
 40
0.5458164273000001
 40
0.6449344941
 40
0.7536500739000001
 40
0.8715755804999998
 40
1.0
 40
1.0
 40
1.0
 40
1.0
 10
1161.3035040169
 20
-1930.243939750883
 30
0.0
 10
1161.3660574689
 20
-1923.120194235082
 30
0.0
 10
1161.031829817
 20
-1909.275701362183
 30
0.0
 10
1161.9233600569
 20
-1889.170038168083
 30
0.0
 10
1156.6559422824
 20
-1870.800864994882
 30
0.0
 10
1146.6786036363
 20
-1855.750446658483
 30
0.0
 10
1132.8985310033
 20
-1844.036799370082
 30
0.0
 10
1115.0663620454
 20
-1836.966090419582
 30
0.0
 10
1094.4111056113
 20
-1835.637569121482
 30
0.0
 10
1071.8831991383
 20
-1836.555876340382
 30
0.0
 10
1047.2680527254
 20
-1836.105635761183
 30
0.0
 10
1030.2019427505
 20
-1836.214157499282
 30
0.0
 10
1021.3036298486
 20
-1836.244251101183
 30
0.0
  0
SPLINE
  5
9D4
330
20C
100
AcDbEntity
  8
06___PRT_ALL_SURFS
  6
Continuous
 62
     7
100
AcDbSpline
210
0.0
220
0.0
230
1.0
 70
     8
 71
     3
 72
    17
 73
    13
 74
     0
 42
0.0000000001
 43
0.0000000001
 40
0.0
 40
0.0
 40
0.0
 40
0.0
 40
0.1277128125
 40
0.2444755281
 40
0.3516493263
 40
0.4492995343
 40
0.5370163861
 40
0.6217369865000001
 40
0.7075729419
 40
0.7967585538
 40
0.8955282406
 40
1.0
 40
1.0
 40
1.0
 40
1.0
 10
791.303056736
 20
-1836.244251101082
 30
0.0
 10
782.4538362366
 20
-1836.226470487282
 30
0.0
 10
765.5173723903
 20
-1836.152607834482
 30
0.0
 10
741.1381401674999
 20
-1836.450199538083
 30
0.0
 10
718.8987803763
 20
-1835.791929445482
 30
0.0
 10
698.4932633278999
 20
-1836.737568186983
 30
0.0
 10
680.6483504832999
 20
-1843.482360502382
 30
0.0
 10
666.5946014433999
 20
-1854.991200344082
 30
0.0
 10
656.2900676087
 20
-1870.034320227983
 30
0.0
 10
650.6959610144999
 20
-1888.566091268782
 30
0.0
 10
651.5986354694
 20
-1908.952172625082
 30
0.0
 10
651.2372361498001
 20
-1923.005377590182
 30
0.0
 10
651.3031826059999
 20
-1930.243939788982
 30
0.0
  0
SPLINE
  5
9D5
330
20C
100
AcDbEntity
  8
06___PRT_ALL_SURFS
  6
Continuous
 62
     7
100
AcDbSpline
210
0.0
220
0.0
230
1.0
 70
     8
 71
     3
 72
    20
 73
    16
 74
     0
 42
0.0000000001
 43
0.0000000001
 40
0.0
 40
0.0
 40
0.0
 40
0.0
 40
0.0984650788
 40
0.1896630085
 40
0.2741863052
 40
0.3524200115
 40
0.4235486845000001
 40
0.4878655478000001
 40
0.5507716035
 40
0.6140929056000001
 40
0.6791195929000001
 40
0.7503521216
 40
0.8276061052999999
 40
0.9105954941
 40
1.0
 40
1.0
 40
1.0
 40
1.0
 10
651.3030643377
 20
-2040.243935321683
 30
0.0
 10
651.304450657
 20
-2049.233530814383
 30
0.0
 10
651.3264649184999
 20
-2066.550162253283
 30
0.0
 10
651.2322593699
 20
-2091.578873563083
 30
0.0
 10
651.506972338
 20
-2114.776549927383
 30
0.0
 10
650.7965109964
 20
-2136.088965119083
 30
0.0
 10
652.3742239844999
 20
-2155.727450916983
 30
0.0
 10
659.6925899244999
 20
-2172.668612239983
 30
0.0
 10
671.2621348087999
 20
-2185.956569555482
 30
0.0
 10
686.0315288397
 20
-2195.720760229182
 30
0.0
 10
703.9192827338999
 20
-2200.625896903083
 30
0.0
 10
723.4957096388999
 20
-2200.192371628183
 30
0.0
 10
744.6035678136999
 20
-2200.276940031383
 30
0.0
 10
767.4034376747
 20
-2200.225282451583
 30
0.0
 10
783.140675926
 20
-2200.238551387283
 30
0.0
 10
791.3030639147
 20
-2200.243956594583
 30
0.0
  0
SPLINE
  5
9D6
330
20C
100
AcDbEntity
  8
06___PRT_ALL_SURFS
  6
Continuous
 62
     7
100
AcDbSpline
210
0.0
220
0.0
230
1.0
 70
     8
 71
     3
 72
    19
 73
    15
 74
     0
 42
0.0000000001
 43
0.0000000001
 40
0.0
 40
0.0
 40
0.0
 40
0.0
 40
0.0953453904
 40
0.1833037052
 40
0.2647516113
 40
0.3386829442
 40
0.407562043
 40
0.4751604902000001
 40
0.5437905160000001
 40
0.6182979437000001
 40
0.7020460583000001
 40
0.7934015575
 40
0.8925044454
 40
1.0
 40
1.0
 40
1.0
 40
1.0
 10
1660.4656730821
 20
-2200.243956594583
 30
0.0
 10
1669.169083335
 20
-2200.238056290583
 30
0.0
 10
1685.896891618
 20
-2200.238368640782
 30
0.0
 10
1710.0835389913
 20
-2200.240977987083
 30
0.0
 10
1732.2333728828
 20
-2200.344630908483
 30
0.0
 10
1752.9092281213
 20
-2200.184883501982
 30
0.0
 10
1771.1486846856
 20
-2192.905490935383
 30
0.0
 10
1785.8612351462
 20
-2180.946770263883
 30
0.0
 10
1796.6582349807
 20
-2164.561820663183
 30
0.0
 10
1801.1922854558
 20
-2143.949833498683
 30
0.0
 10
1800.3219944804
 20
-2121.137384757383
 30
0.0
 10
1800.489824314899
 20
-2096.115476350982
 30
0.0
 10
1800.4631156294
 20
-2068.914739011883
 30
0.0
 10
1800.4700985602
 20
-2050.056451245382
 30
0.0
 10
1800.4656726579
 20
-2040.243936684483
 30
0.0
  0
SPLINE
  5
9D7
330
20C
100
AcDbEntity
  8
06___PRT_ALL_SURFS
  6
Continuous
 62
     7
100
AcDbSpline
210
0.0
220
0.0
230
1.0
 70
     8
 71
     3
 72
    17
 73
    13
 74
     0
 42
0.0000000001
 43
0.0000000001
 40
0.0
 40
0.0
 40
0.0
 40
0.0
 40
0.1039804095
 40
0.2024644993
 40
0.2916583580999999
 40
0.3775017115
 40
0.4625801661
 40
0.5508045495000001
 40
0.6490197291
 40
0.7566394595000001
 40
0.8732274608
 40
1.0
 40
1.0
 40
1.0
 40
1.0
 10
1800.4655543893
 20
-1930.243939543183
 30
0.0
 10
1800.525419315
 20
-1923.039426935982
 30
0.0
 10
1800.1633430021
 20
-1909.039135485482
 30
0.0
 10
1801.0803887496
 20
-1888.710802595582
 30
0.0
 10
1795.5504822039
 20
-1870.181841080082
 30
0.0
 10
1785.2696909892
 20
-1855.088865914282
 30
0.0
 10
1771.1893671551
 20
-1843.515283041483
 30
0.0
 10
1753.2533682806
 20
-1836.709949038782
 30
0.0
 10
1732.7374087778
 20
-1835.810189674883
 30
0.0
 10
1710.4417237118
 20
-1836.444088395483
 30
0.0
 10
1686.108694303
 20
-1836.153785542082
 30
0.0
 10
1669.2496797719
 20
-1836.225795498382
 30
0.0
 10
1660.4656802158
 20
-1836.244251101183
 30
0.0
  0
SPLINE
  5
9D8
330
20C
100
AcDbEntity
  8
06___PRT_ALL_SURFS
  6
Continuous
 62
     7
100
AcDbSpline
210
0.0
220
0.0
230
1.0
 70
     8
 71
     3
 72
    17
 73
    13
 74
     0
 42
0.0000000001
 43
0.0000000001
 40
0.0
 40
0.0
 40
0.0
 40
0.0
 40
0.1221547576
 40
0.2350133915
 40
0.3396347628
 40
0.435274904
 40
0.5232797665
 40
0.6103756431000001
 40
0.6986871094
 40
0.7895631536
 40
0.8903040725
 40
1.0
 40
1.0
 40
1.0
 40
1.0
 10
1430.46510802
 20
-1836.244251101183
 30
0.0
 10
1422.0007030765
 20
-1836.244215957583
 30
0.0
 10
1405.7194500797
 20
-1836.250139498982
 30
0.0
 10
1382.1713026587
 20
-1836.226331972083
 30
0.0
 10
1360.5200557822
 20
-1836.305974890582
 30
0.0
 10
1340.3958116402
 20
-1836.024592694182
 30
0.0
 10
1322.2644989864
 20
-1842.179747711682
 30
0.0
 10
1307.4034208796
 20
-1853.210810483483
 30
0.0
 10
1296.230455984
 20
-1868.246868027282
 30
0.0
 10
1290.0931883438
 20
-1887.075734399783
 30
0.0
 10
1290.5189843353
 20
-1908.095329877783
 30
0.0
 10
1290.2762989412
 20
-1922.645186408282
 30
0.0
 10
1290.4652329786
 20
-1930.243939788982
 30
0.0
  0
SPLINE
  5
9D9
330
20C
100
AcDbEntity
  8
06___PRT_ALL_SURFS
  6
Continuous
 62
     7
100
AcDbSpline
210
0.0
220
0.0
230
1.0
 70
     8
 71
     3
 72
    20
 73
    16
 74
     0
 42
0.0000000001
 43
0.0000000001
 40
0.0
 40
0.0
 40
0.0
 40
0.0
 40
0.0984646945
 40
0.1896623203
 40
0.2741853705
 40
0.3524188922
 40
0.4235474692000001
 40
0.4878643191
 40
0.5507705195
 40
0.6140920216
 40
0.6791188468000002
 40
0.7503515446
 40
0.8276057189999999
 40
0.9105952985
 40
1.0
 40
1.0
 40
1.0
 40
1.0
 10
1290.4651147055
 20
-2040.243938733983
 30
0.0
 10
1290.4665279005
 20
-2049.233485136883
 30
0.0
 10
1290.4885926998
 20
-2066.550026732282
 30
0.0
 10
1290.3944675835
 20
-2091.578613954283
 30
0.0
 10
1290.6692333496
 20
-2114.776186498982
 30
0.0
 10
1289.9588831334
 20
-2136.088521749883
 30
0.0
 10
1291.536505446
 20
-2155.726948075182
 30
0.0
 10
1298.8547563665
 20
-2172.668130731082
 30
0.0
 10
1310.4242197762
 20
-2185.956161409082
 30
0.0
 10
1325.1935388809
 20
-2195.720486410183
 30
0.0
 10
1343.0812604847
 20
-2200.625818156582
 30
0.0
 10
1362.6577117145
 20
-2200.192422008683
 30
0.0
 10
1383.7655843959
 20
-2200.276913677283
 30
0.0
 10
1406.5654723287
 20
-2200.225304061383
 30
0.0
 10
1422.302721125
 20
-2200.238510397783
 30
0.0
 10
1430.4651142824
 20
-2200.243878068282
 30
0.0
  0
LINE
  5
9E0
330
20C
100
AcDbEntity
  8
06___PRT_ALL_SURFS
  6
Continuous
 62
     7
100
AcDbLine
 10
811.3031240006
 20
-2200.243937159383
 30
0.0
 11
791.3030639155
 21
-2200.243964600283
 31
0.0
  0
SPLINE
  5
9E5
330
20C
100
AcDbEntity
  8
06___PRT_ALL_SURFS
  6
Continuous
 62
     7
100
AcDbSpline
210
0.0
220
0.0
230
1.0
 70
     8
 71
     3
 72
    21
 73
    17
 74
     0
 42
0.0000000001
 43
0.0000000001
 40
0.0
 40
0.0
 40
0.0
 40
0.0
 40
0.0918934822
 40
0.1772935074
 40
0.2567751081
 40
0.3297674895
 40
0.3958021641
 40
0.4593167270000001
 40
0.5233879121000001
 40
0.5838627346000001
 40
0.6421914329999999
 40
0.7033106175000001
 40
0.7698093747
 40
0.841150144
 40
0.9176745082
 40
1.0
 40
1.0
 40
1.0
 40
1.0
 10
791.303063915
 20
-2200.243962310583
 30
0.0
 10
782.9122203566001
 20
-2200.238155773382
 30
0.0
 10
766.7272246149
 20
-2200.220249547683
 30
0.0
 10
743.2653125939999
 20
-2200.291156772482
 30
0.0
 10
721.5961649422
 20
-2200.161663316583
 30
0.0
 10
701.4759543737
 20
-2200.570840623183
 30
0.0
 10
683.6425728118999
 20
-2194.446434144083
 30
0.0
 10
669.0375306076
 20
-2184.071801063083
 30
0.0
 10
658.4630398726999
 20
-2170.255310241183
 30
0.0
 10
652.0897721969
 20
-2154.521651635983
 30
0.0
 10
651.0813273059
 20
-2137.979693505083
 30
0.0
 10
651.3643296996999
 20
-2121.032696319883
 30
0.0
 10
651.2814419170999
 20
-2102.856116775983
 30
0.0
 10
651.3100858701999
 20
-2083.285286251183
 30
0.0
 10
651.2992681619
 20
-2062.265584246183
 30
0.0
 10
651.3023084837999
 20
-2047.761123630683
 30
0.0
 10
651.3030647406
 20
-2040.243936684483
 30
0.0
  0
LINE
  5
A50
330
20C
100
AcDbEntity
  8
06___PRT_ALL_SURFS
  6
Continuous
 62
     7
100
AcDbLine
 10
651.3031283474999
 20
-1950.244002995782
 30
0.0
 11
651.3032713097
 21
-1930.243939788982
 31
0.0
  0
SPLINE
  5
A51
330
20C
100
AcDbEntity
  8
06___PRT_ALL_SURFS
  6
Continuous
 62
     7
100
AcDbSpline
210
0.0
220
0.0
230
1.0
 70
     8
 71
     3
 72
    30
 73
    26
 74
     0
 42
0.0000000001
 43
0.0000000001
 40
0.0
 40
0.0
 40
0.0
 40
0.0
 40
0.0397136038
 40
0.083555031
 40
0.1273964583
 40
0.1712378855
 40
0.2150793128
 40
0.25892074
 40
0.3027621673
 40
0.3466035945000001
 40
0.3904450218
 40
0.434286449
 40
0.4781278763000001
 40
0.5219693035000001
 40
0.5658107308
 40
0.609652158
 40
0.6534935853000001
 40
0.6973350125
 40
0.7411764398000001
 40
0.7850178671
 40
0.8288592943000001
 40
0.8727007216
 40
0.9165421487999999
 40
0.9603835761
 40
1.0
 40
1.0
 40
1.0
 40
1.0
 10
651.3056678144001
 20
-1930.244089733383
 30
0.0
 10
651.3061705725
 20
-1927.485684451182
 30
0.0
 10
651.3080984703999
 20
-1921.685402030883
 30
0.0
 10
651.294086283
 20
-1912.838256999982
 30
0.0
 10
651.3478347996
 20
-1903.761495547283
 30
0.0
 10
651.1470899422
 20
-1894.579630055682
 30
0.0
 10
652.0329759262
 20
-1885.461399896882
 30
0.0
 10
654.3647542837999
 20
-1876.617416995082
 30
0.0
 10
657.9993775698
 20
-1868.198705621082
 30
0.0
 10
662.8701621581999
 20
-1860.442291380183
 30
0.0
 10
668.8427101144
 20
-1853.527696338683
 30
0.0
 10
675.8021904242
 20
-1847.590070438283
 30
0.0
 10
683.5802850452999
 20
-1842.770483050983
 30
0.0
 10
692.0457135255999
 20
-1839.179995664483
 30
0.0
 10
700.8808421121999
 20
-1836.906144857482
 30
0.0
 10
710.0083552377
 20
-1836.090959694182
 30
0.0
 10
719.1391191725
 20
-1836.286929009882
 30
0.0
 10
728.2775946989
 20
-1836.234454108282
 30
0.0
 10
737.4135307542999
 20
-1836.248560756182
 30
0.0
 10
746.5369733152999
 20
-1836.244836029083
 30
0.0
 10
755.6804219135999
 20
-1836.245896231282
 30
0.0
 10
764.7611564257
 20
-1836.245678485683
 30
0.0
 10
773.9334350886999
 20
-1836.245803941183
 30
0.0
 10
782.7376383878998
 20
-1836.245835002683
 30
0.0
 10
788.5503522286
 20
-1836.245870097183
 30
0.0
 10
791.3031872521001
 20
-1836.245886237183
 30
0.0
  0
SPLINE
  5
A5D
330
20C
100
AcDbEntity
  8
06___PRT_ALL_SURFS
  6
Continuous
 62
     7
100
AcDbSpline
210
0.0
220
0.0
230
1.0
 70
     8
 71
     3
 72
    14
 73
    10
 74
     0
 42
0.0000000001
 43
0.0000000001
 40
0.0
 40
0.0
 40
0.0
 40
0.0
 40
0.1249954695
 40
0.250007884
 40
0.4375265058
 40
0.6250451276
 40
0.8125637493999999
 40
0.9063230602999999
 40
1.0
 40
1.0
 40
1.0
 40
1.0
 10
791.3030577687
 20
-1836.243815701182
 30
0.0
 10
791.9696919193
 20
-1836.243815700282
 30
0.0
 10
793.3126255997
 20
-1836.243819276683
 30
0.0
 10
796.0452389391
 20
-1836.243968445082
 30
0.0
 10
799.7918929408999
 20
-1836.244371953183
 30
0.0
 10
804.2933288336
 20
-1836.244932950182
 30
0.0
 10
807.5930837709
 20
-1836.245231743982
 30
0.0
 10
809.8001702882001
 20
-1836.245309235482
 30
0.0
 10
810.80321986
 20
-1836.245310508582
 30
0.0
 10
811.3028259574001
 20
-1836.245310510182
 30
0.0
  0
LINE
  5
A75
330
20C
100
AcDbEntity
  8
06___PRT_ALL_SURFS
  6
Continuous
 62
     7
100
AcDbLine
 10
651.3030648696
 20
-2040.243340931283
 30
0.0
 11
651.3030629994999
 21
-2020.243937919083
 31
0.0
  0
MTEXT
  5
AF9
330
20C
100
AcDbEntity
  8
尺寸标注
100
AcDbMText
 10
1224.908666745465
 20
-595.1451263584194
 30
0.0
 40
75.0
 41
801.6353349369019
 71
     2
 72
     5
  1
{\fSimSun|b0|i0|c0|p2;SCALE\P1:1}
 73
     1
 44
1.0
  0
ENDSEC
  0
SECTION
  2
OBJECTS
  0
DICTIONARY
  5
C
330
0
100
AcDbDictionary
281
     1
  3
ACAD_COLOR
350
ADA
  3
ACAD_GROUP
350
D
  3
ACAD_LAYOUT
350
1A
  3
ACAD_MATERIAL
350
AC5
  3
ACAD_MLEADERSTYLE
350
B2C
  3
ACAD_MLINESTYLE
350
17
  3
ACAD_PLOTSETTINGS
350
19
  3
ACAD_PLOTSTYLENAME
350
E
  3
ACAD_SCALELIST
350
B0A
  3
ACAD_TABLESTYLE
350
ADB
  3
ACAD_VISUALSTYLE
350
AC9
  3
ACDB_RECOMPOSE_DATA
350
B59
  3
ACDBHEADERROUNDTRIPXREC
350
B35
  3
AcDbVariableDictionary
350
AE7
  0
DICTIONARY
  5
AF0
330
2
100
AcDbDictionary
280
     1
281
     1
  3
ACAD_LAYERSTATES
360
AF1
  0
DICTIONARY
  5
ADA
102
{ACAD_REACTORS
330
C
102
}
330
C
100
AcDbDictionary
281
     1
  0
DICTIONARY
  5
D
102
{ACAD_REACTORS
330
C
102
}
330
C
100
AcDbDictionary
281
     1
  0
DICTIONARY
  5
1A
102
{ACAD_REACTORS
330
C
102
}
330
C
100
AcDbDictionary
281
     1
  3
Layout1
350
AC2
  3
Model
350
AC1
  0
DICTIONARY
  5
AC5
102
{ACAD_REACTORS
330
C
102
}
330
C
100
AcDbDictionary
281
     1
  3
ByBlock
350
AC7
  3
ByLayer
350
AC6
  3
Global
350
AC8
  0
DICTIONARY
  5
B2C
102
{ACAD_REACTORS
330
C
102
}
330
C
100
AcDbDictionary
281
     1
  3
Standard
350
B2D
  0
DICTIONARY
  5
17
102
{ACAD_REACTORS
330
C
102
}
330
C
100
AcDbDictionary
281
     1
  3
Standard
350
18
  0
DICTIONARY
  5
19
102
{ACAD_REACTORS
330
C
102
}
330
C
100
AcDbDictionary
281
     1
  0
ACDBDICTIONARYWDFLT
  5
E
102
{ACAD_REACTORS
330
C
102
}
330
C
100
AcDbDictionary
281
     1
  3
Normal
350
F
100
AcDbDictionaryWithDefault
340
F
  0
DICTIONARY
  5
B0A
102
{ACAD_REACTORS
330
C
102
}
330
C
100
AcDbDictionary
281
     1
  3
A0
350
B0B
  3
A1
350
B0C
  3
A2
350
B0D
  3
A3
350
B0E
  3
A4
350
B0F
  3
A5
350
B10
  3
A6
350
B11
  3
A7
350
B12
  3
A8
350
B13
  3
A9
350
B14
  3
B0
350
B15
  3
B1
350
B16
  3
B2
350
B17
  3
B3
350
B18
  3
B4
350
B19
  3
B5
350
B1A
  3
B6
350
B1B
  3
B7
350
B1C
  3
B8
350
B1D
  3
B9
350
B1E
  3
C0
350
B1F
  3
C1
350
B20
  3
C2
350
B21
  3
C3
350
B22
  3
C4
350
B23
  3
C5
350
B24
  3
C6
350
B25
  3
C7
350
B26
  3
C8
350
B27
  3
C9
350
B28
  3
D0
350
B29
  3
D1
350
B2A
  3
D2
350
B2B
  0
DICTIONARY
  5
ADB
102
{ACAD_REACTORS
330
C
102
}
330
C
100
AcDbDictionary
281
     1
  3
Standard
350
ADC
  0
DICTIONARY
  5
AC9
102
{ACAD_REACTORS
330
C
102
}
330
C
100
AcDbDictionary
281
     1
  3
2dWireframe
350
ACF
  3
3D Hidden
350
AD1
  3
3dWireframe
350
AD0
  3
Basic
350
ACE
  3
Brighten
350
AD5
  3
ColorChange
350
AD9
  3
Conceptual
350
AD2
  3
Dim
350
AD4
  3
Facepattern
350
AD8
  3
Flat
350
ACA
  3
FlatWithEdges
350
ACB
  3
Gouraud
350
ACC
  3
GouraudWithEdges
350
ACD
  3
Linepattern
350
AD7
  3
Realistic
350
AD3
  3
Thicken
350
AD6
  0
XRECORD
  5
B59
102
{ACAD_REACTORS
330
C
102
}
330
C
100
AcDbXrecord
280
     1
 90
        1
330
ADC
  0
DICTIONARY
  5
B35
102
{ACAD_REACTORS
330
C
102
}
330
C
100
AcDbDictionary
281
     1
  0
DICTIONARY
  5
AE7
102
{ACAD_REACTORS
330
C
102
}
330
C
100
AcDbDictionary
281
     1
  3
CMLEADERSTYLE
350
B33
  3
CTABLESTYLE
350
AE8
  0
DICTIONARY
  5
AF1
102
{ACAD_REACTORS
330
AF0
102
}
330
AF0
100
AcDbDictionary
281
     1
  0
LAYOUT
  5
AC2
102
{ACAD_REACTORS
330
1A
102
}
330
1A
100
AcDbPlotSettings
  1

  2
none_device
  4
ANSI_C_(22.00_x_17.00_Inches)
  6

 40
0.0
 41
0.0
 42
0.0
 43
0.0
 44
558.8
 45
431.8
 46
0.0
 47
0.0
 48
0.0
 49
0.0
140
0.0
141
0.0
142
1.0
143
1.0
 70
     0
 72
     1
 73
     0
 74
     0
  7

 75
     0
147
1.0
 76
     0
 77
     2
 78
   300
148
0.0
149
0.0
100
AcDbLayout
  1
Layout1
 70
     1
 71
     1
 10
0.0
 20
0.0
 11
12.0
 21
9.0
 12
0.0
 22
0.0
 32
0.0
 14
1.000000000000000E+20
 24
1.000000000000000E+20
 34
1.000000000000000E+20
 15
-1.000000000000000E+20
 25
-1.000000000000000E+20
 35
-1.000000000000000E+20
146
0.0
 13
0.0
 23
0.0
 33
0.0
 16
1.0
 26
0.0
 36
0.0
 17
0.0
 27
1.0
 37
0.0
 76
     0
330
20D
  0
LAYOUT
  5
AC1
102
{ACAD_REACTORS
330
1A
102
}
330
1A
100
AcDbPlotSettings
  1

  2
none_device
  4
ANSI_C_(22.00_x_17.00_Inches)
  6

 40
0.0
 41
0.0
 42
0.0
 43
0.0
 44
558.8
 45
431.8
 46
0.0
 47
0.0
 48
0.0
 49
0.0
140
0.0
141
0.0
142
1.0
143
1.0
 70
  1024
 72
     1
 73
     0
 74
     0
  7

 75
     0
147
1.0
 76
     0
 77
     2
 78
   300
148
0.0
149
0.0
100
AcDbLayout
  1
Model
 70
     0
 71
     0
 10
0.0
 20
0.0
 11
558.8
 21
431.8
 12
0.0
 22
0.0
 32
0.0
 14
0.0
 24
0.0
 34
0.0
 15
0.0
 25
0.0
 35
0.0
146
0.0
 13
0.0
 23
0.0
 33
0.0
 16
1.0
 26
0.0
 36
0.0
 17
0.0
 27
1.0
 37
0.0
 76
     0
330
20C
331
1F4
  0
MATERIAL
  5
AC7
102
{ACAD_REACTORS
330
AC5
102
}
330
AC5
100
AcDbMaterial
  1
ByBlock
  2

  0
MATERIAL
  5
AC6
102
{ACAD_REACTORS
330
AC5
102
}
330
AC5
100
AcDbMaterial
  1
ByLayer
  2

  0
MATERIAL
  5
AC8
102
{ACAD_REACTORS
330
AC5
102
}
330
AC5
100
AcDbMaterial
  1
Global
  2

  0
MLEADERSTYLE
  5
B2D
102
{ACAD_REACTORS
330
B2C
102
}
330
B2C
100
AcDbMLeaderStyle
170
     2
171
     1
172
     0
 90
        2
 40
0.0
 41
0.0
173
     1
 91
-1056964608
340
14
 92
       -2
290
     1
 42
0.09
291
     1
 43
8.0
  3
Standard
341
0
 44
0.18
300

342
11
174
     1
178
     1
175
     1
176
     0
 93
-1056964608
 45
0.18
292
     0
297
     0
 46
0.18
343
0
 94
-1056964608
 47
1.0
 49
1.0
140
1.0
293
     1
141
0.0
294
     1
177
     0
142
1.0
295
     0
296
     0
143
3.75
1001
ACAD_MLEADERVER
1070
     2
  0
MLINESTYLE
  5
18
102
{ACAD_REACTORS
330
17
102
}
330
17
100
AcDbMlineStyle
  2
STANDARD
 70
     0
  3

 62
   256
 51
90.0
 52
90.0
 71
     2
 49
0.5
 62
   256
  6
BYLAYER
 49
-0.5
 62
   256
  6
BYLAYER
  0
ACDBPLACEHOLDER
  5
F
102
{ACAD_REACTORS
330
E
102
}
330
E
  0
SCALE
  5
B0B
102
{ACAD_REACTORS
330
B0A
102
}
330
B0A
100
AcDbScale
 70
     0
300
1:1
140
1.0
141
1.0
290
     1
  0
SCALE
  5
B0C
102
{ACAD_REACTORS
330
B0A
102
}
330
B0A
100
AcDbScale
 70
     0
300
1:2
140
1.0
141
2.0
290
     0
  0
SCALE
  5
B0D
102
{ACAD_REACTORS
330
B0A
102
}
330
B0A
100
AcDbScale
 70
     0
300
1:4
140
1.0
141
4.0
290
     0
  0
SCALE
  5
B0E
102
{ACAD_REACTORS
330
B0A
102
}
330
B0A
100
AcDbScale
 70
     0
300
1:5
140
1.0
141
5.0
290
     0
  0
SCALE
  5
B0F
102
{ACAD_REACTORS
330
B0A
102
}
330
B0A
100
AcDbScale
 70
     0
300
1:8
140
1.0
141
8.0
290
     0
  0
SCALE
  5
B10
102
{ACAD_REACTORS
330
B0A
102
}
330
B0A
100
AcDbScale
 70
     0
300
1:10
140
1.0
141
10.0
290
     0
  0
SCALE
  5
B11
102
{ACAD_REACTORS
330
B0A
102
}
330
B0A
100
AcDbScale
 70
     0
300
1:16
140
1.0
141
16.0
290
     0
  0
SCALE
  5
B12
102
{ACAD_REACTORS
330
B0A
102
}
330
B0A
100
AcDbScale
 70
     0
300
1:20
140
1.0
141
20.0
290
     0
  0
SCALE
  5
B13
102
{ACAD_REACTORS
330
B0A
102
}
330
B0A
100
AcDbScale
 70
     0
300
1:30
140
1.0
141
30.0
290
     0
  0
SCALE
  5
B14
102
{ACAD_REACTORS
330
B0A
102
}
330
B0A
100
AcDbScale
 70
     0
300
1:40
140
1.0
141
40.0
290
     0
  0
SCALE
  5
B15
102
{ACAD_REACTORS
330
B0A
102
}
330
B0A
100
AcDbScale
 70
     0
300
1:50
140
1.0
141
50.0
290
     0
  0
SCALE
  5
B16
102
{ACAD_REACTORS
330
B0A
102
}
330
B0A
100
AcDbScale
 70
     0
300
1:100
140
1.0
141
100.0
290
     0
  0
SCALE
  5
B17
102
{ACAD_REACTORS
330
B0A
102
}
330
B0A
100
AcDbScale
 70
     0
300
2:1
140
2.0
141
1.0
290
     0
  0
SCALE
  5
B18
102
{ACAD_REACTORS
330
B0A
102
}
330
B0A
100
AcDbScale
 70
     0
300
4:1
140
4.0
141
1.0
290
     0
  0
SCALE
  5
B19
102
{ACAD_REACTORS
330
B0A
102
}
330
B0A
100
AcDbScale
 70
     0
300
8:1
140
8.0
141
1.0
290
     0
  0
SCALE
  5
B1A
102
{ACAD_REACTORS
330
B0A
102
}
330
B0A
100
AcDbScale
 70
     0
300
10:1
140
10.0
141
1.0
290
     0
  0
SCALE
  5
B1B
102
{ACAD_REACTORS
330
B0A
102
}
330
B0A
100
AcDbScale
 70
     0
300
100:1
140
100.0
141
1.0
290
     0
  0
SCALE
  5
B1C
102
{ACAD_REACTORS
330
B0A
102
}
330
B0A
100
AcDbScale
 70
     0
300
1/128" = 1'-0"
140
0.0078125
141
12.0
290
     0
  0
SCALE
  5
B1D
102
{ACAD_REACTORS
330
B0A
102
}
330
B0A
100
AcDbScale
 70
     0
300
1/64" = 1'-0"
140
0.015625
141
12.0
290
     0
  0
SCALE
  5
B1E
102
{ACAD_REACTORS
330
B0A
102
}
330
B0A
100
AcDbScale
 70
     0
300
1/32" = 1'-0"
140
0.03125
141
12.0
290
     0
  0
SCALE
  5
B1F
102
{ACAD_REACTORS
330
B0A
102
}
330
B0A
100
AcDbScale
 70
     0
300
1/16" = 1'-0"
140
0.0625
141
12.0
290
     0
  0
SCALE
  5
B20
102
{ACAD_REACTORS
330
B0A
102
}
330
B0A
100
AcDbScale
 70
     0
300
3/32" = 1'-0"
140
0.09375
141
12.0
290
     0
  0
SCALE
  5
B21
102
{ACAD_REACTORS
330
B0A
102
}
330
B0A
100
AcDbScale
 70
     0
300
1/8" = 1'-0"
140
0.125
141
12.0
290
     0
  0
SCALE
  5
B22
102
{ACAD_REACTORS
330
B0A
102
}
330
B0A
100
AcDbScale
 70
     0
300
3/16" = 1'-0"
140
0.1875
141
12.0
290
     0
  0
SCALE
  5
B23
102
{ACAD_REACTORS
330
B0A
102
}
330
B0A
100
AcDbScale
 70
     0
300
1/4" = 1'-0"
140
0.25
141
12.0
290
     0
  0
SCALE
  5
B24
102
{ACAD_REACTORS
330
B0A
102
}
330
B0A
100
AcDbScale
 70
     0
300
3/8" = 1'-0"
140
0.375
141
12.0
290
     0
  0
SCALE
  5
B25
102
{ACAD_REACTORS
330
B0A
102
}
330
B0A
100
AcDbScale
 70
     0
300
1/2" = 1'-0"
140
0.5
141
12.0
290
     0
  0
SCALE
  5
B26
102
{ACAD_REACTORS
330
B0A
102
}
330
B0A
100
AcDbScale
 70
     0
300
3/4" = 1'-0"
140
0.75
141
12.0
290
     0
  0
SCALE
  5
B27
102
{ACAD_REACTORS
330
B0A
102
}
330
B0A
100
AcDbScale
 70
     0
300
1" = 1'-0"
140
1.0
141
12.0
290
     0
  0
SCALE
  5
B28
102
{ACAD_REACTORS
330
B0A
102
}
330
B0A
100
AcDbScale
 70
     0
300
1-1/2" = 1'-0"
140
1.5
141
12.0
290
     0
  0
SCALE
  5
B29
102
{ACAD_REACTORS
330
B0A
102
}
330
B0A
100
AcDbScale
 70
     0
300
3" = 1'-0"
140
3.0
141
12.0
290
     0
  0
SCALE
  5
B2A
102
{ACAD_REACTORS
330
B0A
102
}
330
B0A
100
AcDbScale
 70
     0
300
6" = 1'-0"
140
6.0
141
12.0
290
     0
  0
SCALE
  5
B2B
102
{ACAD_REACTORS
330
B0A
102
}
330
B0A
100
AcDbScale
 70
     0
300
1'-0" = 1'-0"
140
12.0
141
12.0
290
     0
  0
TABLESTYLE
  5
ADC
102
{ACAD_XDICTIONARY
360
B56
102
}
102
{ACAD_REACTORS
330
ADB
102
}
330
ADB
100
AcDbTableStyle
  3
Standard
 70
     0
 71
     0
 40
1.5
 41
1.5
280
     0
281
     0
  7
STANDARD
140
4.5
170
     2
 62
     0
 63
   257
283
     0
274
    -2
284
     1
 64
     0
275
    -2
285
     1
 65
     0
276
    -2
286
     1
 66
     0
277
    -2
287
     1
 67
     0
278
    -2
288
     1
 68
     0
279
    -2
289
     1
 69
     0
  7
STANDARD
140
6.0
170
     5
 62
     0
 63
   257
283
     0
274
    -2
284
     1
 64
     0
275
    -2
285
     1
 65
     0
276
    -2
286
     1
 66
     0
277
    -2
287
     1
 67
     0
278
    -2
288
     1
 68
     0
279
    -2
289
     1
 69
     0
  7
STANDARD
140
4.5
170
     5
 62
     0
 63
   257
283
     0
274
    -2
284
     1
 64
     0
275
    -2
285
     1
 65
     0
276
    -2
286
     1
 66
     0
277
    -2
287
     1
 67
     0
278
    -2
288
     1
 68
     0
279
    -2
289
     1
 69
     0
  0
VISUALSTYLE
  5
ACF
102
{ACAD_XDICTIONARY
360
B40
102
}
102
{ACAD_REACTORS
330
AC9
102
}
330
AC9
100
AcDbVisualStyle
  2
2dWireframe
 70
     4
 71
     0
 72
     2
 73
     0
 90
        0
 40
-0.6
 41
-30.0
 62
     5
 63
     7
421
 16777215
 74
     1
 91
        4
 64
     7
 65
   257
 75
     1
175
     1
 42
1.0
 92
        0
 66
   257
 43
1.0
 76
     1
 77
     6
 78
     2
 67
     7
 79
     5
170
     0
171
     0
290
     0
174
     0
 93
        1
 44
0.0
173
     0
291
     0
 45
0.0
1001
ACAD
1000
AcDbSavedByObjectVersion
1070
     0
  0
VISUALSTYLE
  5
AD1
102
{ACAD_XDICTIONARY
360
B44
102
}
102
{ACAD_REACTORS
330
AC9
102
}
330
AC9
100
AcDbVisualStyle
  2
3D Hidden
 70
     6
 71
     1
 72
     2
 73
     2
 90
        0
 40
-0.6
 41
-30.0
 62
     5
 63
     7
421
 16777215
 74
     2
 91
        2
 64
     7
 65
   257
 75
     2
175
     1
 42
40.0
 92
        0
 66
   257
 43
1.0
 76
     1
 77
     6
 78
     2
 67
     7
 79
     3
170
     0
171
     0
290
     0
174
     0
 93
        1
 44
0.0
173
     0
291
     0
 45
0.0
1001
ACAD
1000
AcDbSavedByObjectVersion
1070
     0
  0
VISUALSTYLE
  5
AD0
102
{ACAD_XDICTIONARY
360
B42
102
}
102
{ACAD_REACTORS
330
AC9
102
}
330
AC9
100
AcDbVisualStyle
  2
3dWireframe
 70
     5
 71
     0
 72
     2
 73
     0
 90
        0
 40
-0.6
 41
-30.0
 62
     5
 63
     7
421
 16777215
 74
     1
 91
        4
 64
     7
 65
   257
 75
     1
175
     1
 42
1.0
 92
        0
 66
   257
 43
1.0
 76
     1
 77
     6
 78
     2
 67
     7
 79
     5
170
     0
171
     0
290
     0
174
     0
 93
        1
 44
0.0
173
     0
291
     0
 45
0.0
1001
ACAD
1000
AcDbSavedByObjectVersion
1070
     0
  0
VISUALSTYLE
  5
ACE
102
{ACAD_XDICTIONARY
360
B3E
102
}
102
{ACAD_REACTORS
330
AC9
102
}
330
AC9
100
AcDbVisualStyle
  2
Basic
 70
     7
 71
     1
 72
     0
 73
     1
 90
        0
 40
-0.6
 41
-30.0
 62
     5
 63
     7
421
 16777215
 74
     0
 91
        4
 64
     7
 65
   257
 75
     1
175
     1
 42
1.0
 92
        8
 66
     7
 43
1.0
 76
     1
 77
     6
 78
     2
 67
     7
 79
     5
170
     0
171
     0
290
     0
174
     0
 93
        1
 44
0.0
173
     0
291
     1
 45
0.0
1001
ACAD
1000
AcDbSavedByObjectVersion
1070
     0
  0
VISUALSTYLE
  5
AD5
102
{ACAD_XDICTIONARY
360
B4C
102
}
102
{ACAD_REACTORS
330
AC9
102
}
330
AC9
100
AcDbVisualStyle
  2
Brighten
 70
    12
 71
     2
 72
     2
 73
     0
 90
        0
 40
-0.6
 41
-30.0
 62
     5
 63
     7
421
 16777215
 74
     1
 91
        4
 64
     7
 65
   257
 75
     1
175
     1
 42
1.0
 92
        8
 66
     7
 43
1.0
 76
     1
 77
     6
 78
     2
 67
     7
 79
     5
170
     0
171
     0
290
     0
174
     0
 93
        1
 44
50.0
173
     0
291
     1
 45
0.0
1001
ACAD
1000
AcDbSavedByObjectVersion
1070
     0
  0
VISUALSTYLE
  5
AD9
102
{ACAD_XDICTIONARY
360
B54
102
}
102
{ACAD_REACTORS
330
AC9
102
}
330
AC9
100
AcDbVisualStyle
  2
ColorChange
 70
    16
 71
     2
 72
     2
 73
     3
 90
        0
 40
-0.6
 41
-30.0
 62
     5
 63
     8
421
  8421504
 74
     1
 91
        4
 64
     7
 65
   257
 75
     1
175
     1
 42
1.0
 92
        8
 66
     8
424
  8421504
 43
1.0
 76
     1
 77
     6
 78
     2
 67
     7
 79
     5
170
     0
171
     0
290
     0
174
     0
 93
        1
 44
0.0
173
     0
291
     1
 45
0.0
1001
ACAD
1000
AcDbSavedByObjectVersion
1070
     0
  0
VISUALSTYLE
  5
AD2
102
{ACAD_XDICTIONARY
360
B46
102
}
102
{ACAD_REACTORS
330
AC9
102
}
330
AC9
100
AcDbVisualStyle
  2
Conceptual
 70
     9
 71
     3
 72
     2
 73
     0
 90
        0
 40
-0.6
 41
-30.0
 62
     5
 63
     7
421
 16777215
 74
     2
 91
        2
 64
     7
 65
   257
 75
     1
175
     1
 42
40.0
 92
        8
 66
     7
 43
1.0
 76
     1
 77
     6
 78
     2
 67
     7
 79
     3
170
     0
171
     0
290
     0
174
     0
 93
        1
 44
0.0
173
     0
291
     0
 45
0.0
1001
ACAD
1000
AcDbSavedByObjectVersion
1070
     0
  0
VISUALSTYLE
  5
AD4
102
{ACAD_XDICTIONARY
360
B4A
102
}
102
{ACAD_REACTORS
330
AC9
102
}
330
AC9
100
AcDbVisualStyle
  2
Dim
 70
    11
 71
     2
 72
     2
 73
     0
 90
        0
 40
-0.6
 41
-30.0
 62
     5
 63
     7
421
 16777215
 74
     1
 91
        4
 64
     7
 65
   257
 75
     1
175
     1
 42
1.0
 92
        8
 66
     7
 43
1.0
 76
     1
 77
     6
 78
     2
 67
     7
 79
     5
170
     0
171
     0
290
     0
174
     0
 93
        1
 44
-50.0
173
     0
291
     1
 45
0.0
1001
ACAD
1000
AcDbSavedByObjectVersion
1070
     0
  0
VISUALSTYLE
  5
AD8
102
{ACAD_XDICTIONARY
360
B52
102
}
102
{ACAD_REACTORS
330
AC9
102
}
330
AC9
100
AcDbVisualStyle
  2
Facepattern
 70
    15
 71
     2
 72
     2
 73
     0
 90
        0
 40
-0.6
 41
-30.0
 62
     5
 63
     7
421
 16777215
 74
     1
 91
        4
 64
     7
 65
   257
 75
     1
175
     1
 42
1.0
 92
        8
 66
     7
 43
1.0
 76
     1
 77
     6
 78
     2
 67
     7
 79
     5
170
     0
171
     0
290
     0
174
     0
 93
        1
 44
0.0
173
     0
291
     1
 45
0.0
1001
ACAD
1000
AcDbSavedByObjectVersion
1070
     0
  0
VISUALSTYLE
  5
ACA
102
{ACAD_XDICTIONARY
360
B36
102
}
102
{ACAD_REACTORS
330
AC9
102
}
330
AC9
100
AcDbVisualStyle
  2
Flat
 70
     0
 71
     2
 72
     1
 73
     1
 90
        2
 40
-0.6
 41
30.0
 62
     5
 63
     7
421
 16777215
 74
     0
 91
        4
 64
     7
 65
   257
 75
     1
175
     1
 42
1.0
 92
        8
 66
     7
 43
1.0
 76
     1
 77
     6
 78
     2
 67
     7
 79
     5
170
     0
171
     0
290
     0
174
     0
 93
       13
 44
0.0
173
     0
291
     1
 45
0.0
1001
ACAD
1000
AcDbSavedByObjectVersion
1070
     0
  0
VISUALSTYLE
  5
ACB
102
{ACAD_XDICTIONARY
360
B38
102
}
102
{ACAD_REACTORS
330
AC9
102
}
330
AC9
100
AcDbVisualStyle
  2
FlatWithEdges
 70
     1
 71
     2
 72
     1
 73
     1
 90
        2
 40
-0.6
 41
30.0
 62
     5
 63
     7
421
 16777215
 74
     1
 91
        4
 64
     7
 65
   257
 75
     1
175
     1
 42
1.0
 92
        0
 66
   257
 43
1.0
 76
     1
 77
     6
 78
     2
 67
     7
 79
     5
170
     0
171
     0
290
     0
174
     0
 93
       13
 44
0.0
173
     0
291
     1
 45
0.0
1001
ACAD
1000
AcDbSavedByObjectVersion
1070
     0
  0
VISUALSTYLE
  5
ACC
102
{ACAD_XDICTIONARY
360
B3A
102
}
102
{ACAD_REACTORS
330
AC9
102
}
330
AC9
100
AcDbVisualStyle
  2
Gouraud
 70
     2
 71
     2
 72
     2
 73
     1
 90
        2
 40
-0.6
 41
30.0
 62
     5
 63
     7
421
 16777215
 74
     0
 91
        4
 64
     7
 65
   257
 75
     1
175
     1
 42
1.0
 92
        0
 66
     7
 43
1.0
 76
     1
 77
     6
 78
     2
 67
     7
 79
     5
170
     0
171
     0
290
     0
174
     0
 93
       13
 44
0.0
173
     0
291
     1
 45
0.0
1001
ACAD
1000
AcDbSavedByObjectVersion
1070
     0
  0
VISUALSTYLE
  5
ACD
102
{ACAD_XDICTIONARY
360
B3C
102
}
102
{ACAD_REACTORS
330
AC9
102
}
330
AC9
100
AcDbVisualStyle
  2
GouraudWithEdges
 70
     3
 71
     2
 72
     2
 73
     1
 90
        2
 40
-0.6
 41
30.0
 62
     5
 63
     7
421
 16777215
 74
     1
 91
        4
 64
     7
 65
   257
 75
     1
175
     1
 42
1.0
 92
        0
 66
   257
 43
1.0
 76
     1
 77
     6
 78
     2
 67
     7
 79
     5
170
     0
171
     0
290
     0
174
     0
 93
       13
 44
0.0
173
     0
291
     1
 45
0.0
1001
ACAD
1000
AcDbSavedByObjectVersion
1070
     0
  0
VISUALSTYLE
  5
AD7
102
{ACAD_XDICTIONARY
360
B50
102
}
102
{ACAD_REACTORS
330
AC9
102
}
330
AC9
100
AcDbVisualStyle
  2
Linepattern
 70
    14
 71
     2
 72
     2
 73
     0
 90
        0
 40
-0.6
 41
-30.0
 62
     5
 63
     7
421
 16777215
 74
     1
 91
        4
 64
     7
 65
   257
 75
     7
175
     7
 42
1.0
 92
        8
 66
     7
 43
1.0
 76
     1
 77
     6
 78
     2
 67
     7
 79
     5
170
     0
171
     0
290
     0
174
     0
 93
        1
 44
0.0
173
     0
291
     1
 45
0.0
1001
ACAD
1000
AcDbSavedByObjectVersion
1070
     0
  0
VISUALSTYLE
  5
AD3
102
{ACAD_XDICTIONARY
360
B48
102
}
102
{ACAD_REACTORS
330
AC9
102
}
330
AC9
100
AcDbVisualStyle
  2
Realistic
 70
     8
 71
     2
 72
     2
 73
     0
 90
        0
 40
-0.6
 41
-30.0
 62
     5
 63
     7
421
 16777215
 74
     1
 91
        0
 64
     7
 65
   257
 75
     1
175
     1
 42
1.0
 92
        8
 66
     8
424
  7895160
 43
1.0
 76
     1
 77
     6
 78
     2
 67
     7
 79
     5
170
     0
171
     0
290
     0
174
     0
 93
       13
 44
0.0
173
     0
291
     0
 45
0.0
1001
ACAD
1000
AcDbSavedByObjectVersion
1070
     0
  0
VISUALSTYLE
  5
AD6
102
{ACAD_XDICTIONARY
360
B4E
102
}
102
{ACAD_REACTORS
330
AC9
102
}
330
AC9
100
AcDbVisualStyle
  2
Thicken
 70
    13
 71
     2
 72
     2
 73
     0
 90
        0
 40
-0.6
 41
-30.0
 62
     5
 63
     7
421
 16777215
 74
     1
 91
        4
 64
     7
 65
   257
 75
     1
175
     1
 42
1.0
 92
       12
 66
     7
 43
1.0
 76
     1
 77
     6
 78
     2
 67
     7
 79
     5
170
     0
171
     0
290
     0
174
     0
 93
        1
 44
0.0
173
     0
291
     1
 45
0.0
1001
ACAD
1000
AcDbSavedByObjectVersion
1070
     0
  0
DICTIONARYVAR
  5
B33
102
{ACAD_REACTORS
330
AE7
102
}
330
AE7
100
DictionaryVariables
280
     0
  1
STANDARD
  0
DICTIONARYVAR
  5
AE8
102
{ACAD_REACTORS
330
AE7
102
}
330
AE7
100
DictionaryVariables
280
     0
  1
STANDARD
  0
DICTIONARY
  5
B56
330
ADC
100
AcDbDictionary
280
     1
281
     1
  3
ACAD_ROUNDTRIP_2008_TABLESTYLE_CELLSTYLEMAP
360
B58
  3
ACAD_XREC_ROUNDTRIP
360
B57
  0
DICTIONARY
  5
B40
330
ACF
100
AcDbDictionary
280
     1
281
     1
  3
ACAD_XREC_ROUNDTRIP
360
B41
  0
DICTIONARY
  5
B44
330
AD1
100
AcDbDictionary
280
     1
281
     1
  3
ACAD_XREC_ROUNDTRIP
360
B45
  0
DICTIONARY
  5
B42
330
AD0
100
AcDbDictionary
280
     1
281
     1
  3
ACAD_XREC_ROUNDTRIP
360
B43
  0
DICTIONARY
  5
B3E
330
ACE
100
AcDbDictionary
280
     1
281
     1
  3
ACAD_XREC_ROUNDTRIP
360
B3F
  0
DICTIONARY
  5
B4C
330
AD5
100
AcDbDictionary
280
     1
281
     1
  3
ACAD_XREC_ROUNDTRIP
360
B4D
  0
DICTIONARY
  5
B54
330
AD9
100
AcDbDictionary
280
     1
281
     1
  3
ACAD_XREC_ROUNDTRIP
360
B55
  0
DICTIONARY
  5
B46
330
AD2
100
AcDbDictionary
280
     1
281
     1
  3
ACAD_XREC_ROUNDTRIP
360
B47
  0
DICTIONARY
  5
B4A
330
AD4
100
AcDbDictionary
280
     1
281
     1
  3
ACAD_XREC_ROUNDTRIP
360
B4B
  0
DICTIONARY
  5
B52
330
AD8
100
AcDbDictionary
280
     1
281
     1
  3
ACAD_XREC_ROUNDTRIP
360
B53
  0
DICTIONARY
  5
B36
330
ACA
100
AcDbDictionary
280
     1
281
     1
  3
ACAD_XREC_ROUNDTRIP
360
B37
  0
DICTIONARY
  5
B38
330
ACB
100
AcDbDictionary
280
     1
281
     1
  3
ACAD_XREC_ROUNDTRIP
360
B39
  0
DICTIONARY
  5
B3A
330
ACC
100
AcDbDictionary
280
     1
281
     1
  3
ACAD_XREC_ROUNDTRIP
360
B3B
  0
DICTIONARY
  5
B3C
330
ACD
100
AcDbDictionary
280
     1
281
     1
  3
ACAD_XREC_ROUNDTRIP
360
B3D
  0
DICTIONARY
  5
B50
330
AD7
100
AcDbDictionary
280
     1
281
     1
  3
ACAD_XREC_ROUNDTRIP
360
B51
  0
DICTIONARY
  5
B48
330
AD3
100
AcDbDictionary
280
     1
281
     1
  3
ACAD_XREC_ROUNDTRIP
360
B49
  0
DICTIONARY
  5
B4E
330
AD6
100
AcDbDictionary
280
     1
281
     1
  3
ACAD_XREC_ROUNDTRIP
360
B4F
  0
CELLSTYLEMAP
  5
B58
102
{ACAD_REACTORS
330
B56
102
}
330
B56
100
AcDbCellStyleMap
 90
        3
300
CELLSTYLE
  1
TABLEFORMAT_BEGIN
 90
        5
170
     1
 91
        0
 92
        0
 62
   257
 93
        1
300
CONTENTFORMAT
  1
CONTENTFORMAT_BEGIN
 90
        0
 91
        0
 92
      512
 93
        0
300

 40
0.0
140
1.0
 94
        5
 62
     0
340
11
144
6.0
309
CONTENTFORMAT_END
171
     1
301
MARGIN
  1
CELLMARGIN_BEGIN
 40
1.5
 40
1.5
 40
1.5
 40
1.5
 40
4.5
 40
4.5
309
CELLMARGIN_END
 94
        6
 95
        1
302
GRIDFORMAT
  1
GRIDFORMAT_BEGIN
 90
        0
 91
        1
 62
     0
 92
       -2
340
0
 93
        0
 40
0.045
309
GRIDFORMAT_END
 95
        2
302
GRIDFORMAT
  1
GRIDFORMAT_BEGIN
 90
        0
 91
        1
 62
     0
 92
       -2
340
0
 93
        0
 40
0.045
309
GRIDFORMAT_END
 95
        4
302
GRIDFORMAT
  1
GRIDFORMAT_BEGIN
 90
        0
 91
        1
 62
     0
 92
       -2
340
0
 93
        0
 40
0.045
309
GRIDFORMAT_END
 95
        8
302
GRIDFORMAT
  1
GRIDFORMAT_BEGIN
 90
        0
 91
        1
 62
     0
 92
       -2
340
0
 93
        0
 40
0.045
309
GRIDFORMAT_END
 95
       16
302
GRIDFORMAT
  1
GRIDFORMAT_BEGIN
 90
        0
 91
        1
 62
     0
 92
       -2
340
0
 93
        0
 40
0.045
309
GRIDFORMAT_END
 95
       32
302
GRIDFORMAT
  1
GRIDFORMAT_BEGIN
 90
        0
 91
        1
 62
     0
 92
       -2
340
0
 93
        0
 40
0.045
309
GRIDFORMAT_END
309
TABLEFORMAT_END
  1
CELLSTYLE_BEGIN
 90
        1
 91
        1
300
_TITLE
309
CELLSTYLE_END
300
CELLSTYLE
  1
TABLEFORMAT_BEGIN
 90
        5
170
     1
 91
        0
 92
        0
 62
   257
 93
        1
300
CONTENTFORMAT
  1
CONTENTFORMAT_BEGIN
 90
        0
 91
        0
 92
      512
 93
        0
300

 40
0.0
140
1.0
 94
        5
 62
     0
340
11
144
4.5
309
CONTENTFORMAT_END
171
     1
301
MARGIN
  1
CELLMARGIN_BEGIN
 40
1.5
 40
1.5
 40
1.5
 40
1.5
 40
4.5
 40
4.5
309
CELLMARGIN_END
 94
        6
 95
        1
302
GRIDFORMAT
  1
GRIDFORMAT_BEGIN
 90
        0
 91
        1
 62
     0
 92
       -2
340
0
 93
        0
 40
0.045
309
GRIDFORMAT_END
 95
        2
302
GRIDFORMAT
  1
GRIDFORMAT_BEGIN
 90
        0
 91
        1
 62
     0
 92
       -2
340
0
 93
        0
 40
0.045
309
GRIDFORMAT_END
 95
        4
302
GRIDFORMAT
  1
GRIDFORMAT_BEGIN
 90
        0
 91
        1
 62
     0
 92
       -2
340
0
 93
        0
 40
0.045
309
GRIDFORMAT_END
 95
        8
302
GRIDFORMAT
  1
GRIDFORMAT_BEGIN
 90
        0
 91
        1
 62
     0
 92
       -2
340
0
 93
        0
 40
0.045
309
GRIDFORMAT_END
 95
       16
302
GRIDFORMAT
  1
GRIDFORMAT_BEGIN
 90
        0
 91
        1
 62
     0
 92
       -2
340
0
 93
        0
 40
0.045
309
GRIDFORMAT_END
 95
       32
302
GRIDFORMAT
  1
GRIDFORMAT_BEGIN
 90
        0
 91
        1
 62
     0
 92
       -2
340
0
 93
        0
 40
0.045
309
GRIDFORMAT_END
309
TABLEFORMAT_END
  1
CELLSTYLE_BEGIN
 90
        2
 91
        1
300
_HEADER
309
CELLSTYLE_END
300
CELLSTYLE
  1
TABLEFORMAT_BEGIN
 90
        5
170
     1
 91
        0
 92
        0
 62
   257
 93
        1
300
CONTENTFORMAT
  1
CONTENTFORMAT_BEGIN
 90
        0
 91
        0
 92
      512
 93
        0
300

 40
0.0
140
1.0
 94
        2
 62
     0
340
11
144
4.5
309
CONTENTFORMAT_END
171
     1
301
MARGIN
  1
CELLMARGIN_BEGIN
 40
1.5
 40
1.5
 40
1.5
 40
1.5
 40
4.5
 40
4.5
309
CELLMARGIN_END
 94
        6
 95
        1
302
GRIDFORMAT
  1
GRIDFORMAT_BEGIN
 90
        0
 91
        1
 62
     0
 92
       -2
340
0
 93
        0
 40
0.045
309
GRIDFORMAT_END
 95
        2
302
GRIDFORMAT
  1
GRIDFORMAT_BEGIN
 90
        0
 91
        1
 62
     0
 92
       -2
340
0
 93
        0
 40
0.045
309
GRIDFORMAT_END
 95
        4
302
GRIDFORMAT
  1
GRIDFORMAT_BEGIN
 90
        0
 91
        1
 62
     0
 92
       -2
340
0
 93
        0
 40
0.045
309
GRIDFORMAT_END
 95
        8
302
GRIDFORMAT
  1
GRIDFORMAT_BEGIN
 90
        0
 91
        1
 62
     0
 92
       -2
340
0
 93
        0
 40
0.045
309
GRIDFORMAT_END
 95
       16
302
GRIDFORMAT
  1
GRIDFORMAT_BEGIN
 90
        0
 91
        1
 62
     0
 92
       -2
340
0
 93
        0
 40
0.045
309
GRIDFORMAT_END
 95
       32
302
GRIDFORMAT
  1
GRIDFORMAT_BEGIN
 90
        0
 91
        1
 62
     0
 92
       -2
340
0
 93
        0
 40
0.045
309
GRIDFORMAT_END
309
TABLEFORMAT_END
  1
CELLSTYLE_BEGIN
 90
        3
 91
        2
300
_DATA
309
CELLSTYLE_END
  0
XRECORD
  5
B57
102
{ACAD_REACTORS
330
B56
102
}
330
B56
100
AcDbXrecord
280
     1
102
ACAD_ROUNDTRIP_PRE2007_TABLESTYLE
 90
      512
 91
        0
  1

 92
      512
 93
        0
  2

 94
      512
 95
        0
  3

  0
XRECORD
  5
B41
102
{ACAD_REACTORS
330
B40
102
}
330
B40
100
AcDbXrecord
280
     1
102
RTVSPropertyOp0
 70
     1
102
RTVSPropertyOp1
 70
     1
102
RTVSPropertyOp2
 70
     1
102
RTVSPropertyOp3
 70
     1
102
RTVSPropertyOp4
 70
     1
102
RTVSPropertyOp5
 70
     1
102
RTVSPropertyOp6
 70
     1
102
RTVSPropertyOp7
 70
     1
102
RTVSPropertyOp8
 70
     1
102
RTVSPropertyOp9
 70
     1
102
RTVSPropertyOp10
 70
     1
102
RTVSPropertyOp11
 70
     1
102
RTVSPropertyOp12
 70
     1
102
RTVSPropertyOp13
 70
     1
102
RTVSPropertyOp14
 70
     1
102
RTVSPropertyOp15
 70
     1
102
RTVSPropertyOp16
 70
     1
102
RTVSPropertyOp17
 70
     1
102
RTVSPropertyOp18
 70
     1
102
RTVSPropertyOp19
 70
     1
102
RTVSPropertyOp20
 70
     1
102
RTVSPropertyOp21
 70
     1
102
RTVSPropertyOp22
 70
     1
102
RTVSPropertyOp23
 70
     1
102
RTVSPropertyOp24
 70
     1
102
RTVSPropertyOp25
 70
     1
102
RTVSPropertyOp26
 70
     1
102
RTVSPropertyOp27
 70
     1
  0
XRECORD
  5
B45
102
{ACAD_REACTORS
330
B44
102
}
330
B44
100
AcDbXrecord
280
     1
102
RTVSPropertyOp0
 70
     1
102
RTVSPropertyOp1
 70
     1
102
RTVSPropertyOp2
 70
     1
102
RTVSPropertyOp3
 70
     1
102
RTVSPropertyOp4
 70
     1
102
RTVSPropertyOp5
 70
     1
102
RTVSPropertyOp6
 70
     1
102
RTVSPropertyOp7
 70
     1
102
RTVSPropertyOp8
 70
     1
102
RTVSPropertyOp9
 70
     1
102
RTVSPropertyOp10
 70
     1
102
RTVSPropertyOp11
 70
     1
102
RTVSPropertyOp12
 70
     1
102
RTVSPropertyOp13
 70
     1
102
RTVSPropertyOp14
 70
     1
102
RTVSPropertyOp15
 70
     1
102
RTVSPropertyOp16
 70
     1
102
RTVSPropertyOp17
 70
     1
102
RTVSPropertyOp18
 70
     1
102
RTVSPropertyOp19
 70
     1
102
RTVSPropertyOp20
 70
     1
102
RTVSPropertyOp21
 70
     1
102
RTVSPropertyOp22
 70
     1
102
RTVSPropertyOp23
 70
     1
102
RTVSPropertyOp24
 70
     1
102
RTVSPropertyOp25
 70
     1
102
RTVSPropertyOp26
 70
     1
102
RTVSPropertyOp27
 70
     1
  0
XRECORD
  5
B43
102
{ACAD_REACTORS
330
B42
102
}
330
B42
100
AcDbXrecord
280
     1
102
RTVSPropertyOp0
 70
     1
102
RTVSPropertyOp1
 70
     1
102
RTVSPropertyOp2
 70
     1
102
RTVSPropertyOp3
 70
     1
102
RTVSPropertyOp4
 70
     1
102
RTVSPropertyOp5
 70
     1
102
RTVSPropertyOp6
 70
     1
102
RTVSPropertyOp7
 70
     1
102
RTVSPropertyOp8
 70
     1
102
RTVSPropertyOp9
 70
     1
102
RTVSPropertyOp10
 70
     1
102
RTVSPropertyOp11
 70
     1
102
RTVSPropertyOp12
 70
     1
102
RTVSPropertyOp13
 70
     1
102
RTVSPropertyOp14
 70
     1
102
RTVSPropertyOp15
 70
     1
102
RTVSPropertyOp16
 70
     1
102
RTVSPropertyOp17
 70
     1
102
RTVSPropertyOp18
 70
     1
102
RTVSPropertyOp19
 70
     1
102
RTVSPropertyOp20
 70
     1
102
RTVSPropertyOp21
 70
     1
102
RTVSPropertyOp22
 70
     1
102
RTVSPropertyOp23
 70
     1
102
RTVSPropertyOp24
 70
     1
102
RTVSPropertyOp25
 70
     1
102
RTVSPropertyOp26
 70
     1
102
RTVSPropertyOp27
 70
     1
  0
XRECORD
  5
B3F
102
{ACAD_REACTORS
330
B3E
102
}
330
B3E
100
AcDbXrecord
280
     1
102
RTVSPropertyOp0
 70
     1
102
RTVSPropertyOp1
 70
     1
102
RTVSPropertyOp2
 70
     1
102
RTVSPropertyOp3
 70
     1
102
RTVSPropertyOp4
 70
     1
102
RTVSPropertyOp5
 70
     1
102
RTVSPropertyOp6
 70
     1
102
RTVSPropertyOp7
 70
     1
102
RTVSPropertyOp8
 70
     1
102
RTVSPropertyOp9
 70
     1
102
RTVSPropertyOp10
 70
     1
102
RTVSPropertyOp11
 70
     1
102
RTVSPropertyOp12
 70
     1
102
RTVSPropertyOp13
 70
     1
102
RTVSPropertyOp14
 70
     1
102
RTVSPropertyOp15
 70
     1
102
RTVSPropertyOp16
 70
     1
102
RTVSPropertyOp17
 70
     1
102
RTVSPropertyOp18
 70
     1
102
RTVSPropertyOp19
 70
     1
102
RTVSPropertyOp20
 70
     1
102
RTVSPropertyOp21
 70
     1
102
RTVSPropertyOp22
 70
     1
102
RTVSPropertyOp23
 70
     1
102
RTVSPropertyOp24
 70
     1
102
RTVSPropertyOp25
 70
     1
102
RTVSPropertyOp26
 70
     1
102
RTVSPropertyOp27
 70
     1
  0
XRECORD
  5
B4D
102
{ACAD_REACTORS
330
B4C
102
}
330
B4C
100
AcDbXrecord
280
     1
102
RTVSPropertyOp0
 70
     1
102
RTVSPropertyOp1
 70
     1
102
RTVSPropertyOp2
 70
     1
102
RTVSPropertyOp3
 70
     1
102
RTVSPropertyOp4
 70
     1
102
RTVSPropertyOp5
 70
     1
102
RTVSPropertyOp6
 70
     1
102
RTVSPropertyOp7
 70
     1
102
RTVSPropertyOp8
 70
     1
102
RTVSPropertyOp9
 70
     1
102
RTVSPropertyOp10
 70
     1
102
RTVSPropertyOp11
 70
     1
102
RTVSPropertyOp12
 70
     1
102
RTVSPropertyOp13
 70
     1
102
RTVSPropertyOp14
 70
     1
102
RTVSPropertyOp15
 70
     1
102
RTVSPropertyOp16
 70
     1
102
RTVSPropertyOp17
 70
     1
102
RTVSPropertyOp18
 70
     1
102
RTVSPropertyOp19
 70
     1
102
RTVSPropertyOp20
 70
     1
102
RTVSPropertyOp21
 70
     1
102
RTVSPropertyOp22
 70
     1
102
RTVSPropertyOp23
 70
     1
102
RTVSPropertyOp24
 70
     1
102
RTVSPropertyOp25
 70
     1
102
RTVSPropertyOp26
 70
     1
102
RTVSPropertyOp27
 70
     1
  0
XRECORD
  5
B55
102
{ACAD_REACTORS
330
B54
102
}
330
B54
100
AcDbXrecord
280
     1
102
RTVSPropertyOp0
 70
     1
102
RTVSPropertyOp1
 70
     1
102
RTVSPropertyOp2
 70
     1
102
RTVSPropertyOp3
 70
     1
102
RTVSPropertyOp4
 70
     1
102
RTVSPropertyOp5
 70
     1
102
RTVSPropertyOp6
 70
     1
102
RTVSPropertyOp7
 70
     1
102
RTVSPropertyOp8
 70
     1
102
RTVSPropertyOp9
 70
     1
102
RTVSPropertyOp10
 70
     1
102
RTVSPropertyOp11
 70
     1
102
RTVSPropertyOp12
 70
     1
102
RTVSPropertyOp13
 70
     1
102
RTVSPropertyOp14
 70
     1
102
RTVSPropertyOp15
 70
     1
102
RTVSPropertyOp16
 70
     1
102
RTVSPropertyOp17
 70
     1
102
RTVSPropertyOp18
 70
     1
102
RTVSPropertyOp19
 70
     1
102
RTVSPropertyOp20
 70
     1
102
RTVSPropertyOp21
 70
     1
102
RTVSPropertyOp22
 70
     1
102
RTVSPropertyOp23
 70
     1
102
RTVSPropertyOp24
 70
     1
102
RTVSPropertyOp25
 70
     1
102
RTVSPropertyOp26
 70
     1
102
RTVSPropertyOp27
 70
     1
  0
XRECORD
  5
B47
102
{ACAD_REACTORS
330
B46
102
}
330
B46
100
AcDbXrecord
280
     1
102
RTVSPropertyOp0
 70
     1
102
RTVSPropertyOp1
 70
     1
102
RTVSPropertyOp2
 70
     1
102
RTVSPropertyOp3
 70
     1
102
RTVSPropertyOp4
 70
     1
102
RTVSPropertyOp5
 70
     1
102
RTVSPropertyOp6
 70
     1
102
RTVSPropertyOp7
 70
     1
102
RTVSPropertyOp8
 70
     1
102
RTVSPropertyOp9
 70
     1
102
RTVSPropertyOp10
 70
     1
102
RTVSPropertyOp11
 70
     1
102
RTVSPropertyOp12
 70
     1
102
RTVSPropertyOp13
 70
     1
102
RTVSPropertyOp14
 70
     1
102
RTVSPropertyOp15
 70
     1
102
RTVSPropertyOp16
 70
     1
102
RTVSPropertyOp17
 70
     1
102
RTVSPropertyOp18
 70
     1
102
RTVSPropertyOp19
 70
     1
102
RTVSPropertyOp20
 70
     1
102
RTVSPropertyOp21
 70
     1
102
RTVSPropertyOp22
 70
     1
102
RTVSPropertyOp23
 70
     1
102
RTVSPropertyOp24
 70
     1
102
RTVSPropertyOp25
 70
     1
102
RTVSPropertyOp26
 70
     1
102
RTVSPropertyOp27
 70
     1
  0
XRECORD
  5
B4B
102
{ACAD_REACTORS
330
B4A
102
}
330
B4A
100
AcDbXrecord
280
     1
102
RTVSPropertyOp0
 70
     1
102
RTVSPropertyOp1
 70
     1
102
RTVSPropertyOp2
 70
     1
102
RTVSPropertyOp3
 70
     1
102
RTVSPropertyOp4
 70
     1
102
RTVSPropertyOp5
 70
     1
102
RTVSPropertyOp6
 70
     1
102
RTVSPropertyOp7
 70
     1
102
RTVSPropertyOp8
 70
     1
102
RTVSPropertyOp9
 70
     1
102
RTVSPropertyOp10
 70
     1
102
RTVSPropertyOp11
 70
     1
102
RTVSPropertyOp12
 70
     1
102
RTVSPropertyOp13
 70
     1
102
RTVSPropertyOp14
 70
     1
102
RTVSPropertyOp15
 70
     1
102
RTVSPropertyOp16
 70
     1
102
RTVSPropertyOp17
 70
     1
102
RTVSPropertyOp18
 70
     1
102
RTVSPropertyOp19
 70
     1
102
RTVSPropertyOp20
 70
     1
102
RTVSPropertyOp21
 70
     1
102
RTVSPropertyOp22
 70
     1
102
RTVSPropertyOp23
 70
     1
102
RTVSPropertyOp24
 70
     1
102
RTVSPropertyOp25
 70
     1
102
RTVSPropertyOp26
 70
     1
102
RTVSPropertyOp27
 70
     1
  0
XRECORD
  5
B53
102
{ACAD_REACTORS
330
B52
102
}
330
B52
100
AcDbXrecord
280
     1
102
RTVSPropertyOp0
 70
     1
102
RTVSPropertyOp1
 70
     1
102
RTVSPropertyOp2
 70
     1
102
RTVSPropertyOp3
 70
     1
102
RTVSPropertyOp4
 70
     1
102
RTVSPropertyOp5
 70
     1
102
RTVSPropertyOp6
 70
     1
102
RTVSPropertyOp7
 70
     1
102
RTVSPropertyOp8
 70
     1
102
RTVSPropertyOp9
 70
     1
102
RTVSPropertyOp10
 70
     1
102
RTVSPropertyOp11
 70
     1
102
RTVSPropertyOp12
 70
     1
102
RTVSPropertyOp13
 70
     1
102
RTVSPropertyOp14
 70
     1
102
RTVSPropertyOp15
 70
     1
102
RTVSPropertyOp16
 70
     1
102
RTVSPropertyOp17
 70
     1
102
RTVSPropertyOp18
 70
     1
102
RTVSPropertyOp19
 70
     1
102
RTVSPropertyOp20
 70
     1
102
RTVSPropertyOp21
 70
     1
102
RTVSPropertyOp22
 70
     1
102
RTVSPropertyOp23
 70
     1
102
RTVSPropertyOp24
 70
     1
102
RTVSPropertyOp25
 70
     1
102
RTVSPropertyOp26
 70
     1
102
RTVSPropertyOp27
 70
     1
  0
XRECORD
  5
B37
102
{ACAD_REACTORS
330
B36
102
}
330
B36
100
AcDbXrecord
280
     1
102
RTVSPropertyOp0
 70
     1
102
RTVSPropertyOp1
 70
     1
102
RTVSPropertyOp2
 70
     1
102
RTVSPropertyOp3
 70
     1
102
RTVSPropertyOp4
 70
     1
102
RTVSPropertyOp5
 70
     1
102
RTVSPropertyOp6
 70
     1
102
RTVSPropertyOp7
 70
     1
102
RTVSPropertyOp8
 70
     1
102
RTVSPropertyOp9
 70
     1
102
RTVSPropertyOp10
 70
     1
102
RTVSPropertyOp11
 70
     1
102
RTVSPropertyOp12
 70
     1
102
RTVSPropertyOp13
 70
     1
102
RTVSPropertyOp14
 70
     1
102
RTVSPropertyOp15
 70
     1
102
RTVSPropertyOp16
 70
     1
102
RTVSPropertyOp17
 70
     1
102
RTVSPropertyOp18
 70
     1
102
RTVSPropertyOp19
 70
     1
102
RTVSPropertyOp20
 70
     1
102
RTVSPropertyOp21
 70
     1
102
RTVSPropertyOp22
 70
     1
102
RTVSPropertyOp23
 70
     1
102
RTVSPropertyOp24
 70
     1
102
RTVSPropertyOp25
 70
     1
102
RTVSPropertyOp26
 70
     1
102
RTVSPropertyOp27
 70
     1
  0
XRECORD
  5
B39
102
{ACAD_REACTORS
330
B38
102
}
330
B38
100
AcDbXrecord
280
     1
102
RTVSPropertyOp0
 70
     1
102
RTVSPropertyOp1
 70
     1
102
RTVSPropertyOp2
 70
     1
102
RTVSPropertyOp3
 70
     1
102
RTVSPropertyOp4
 70
     1
102
RTVSPropertyOp5
 70
     1
102
RTVSPropertyOp6
 70
     1
102
RTVSPropertyOp7
 70
     1
102
RTVSPropertyOp8
 70
     1
102
RTVSPropertyOp9
 70
     1
102
RTVSPropertyOp10
 70
     1
102
RTVSPropertyOp11
 70
     1
102
RTVSPropertyOp12
 70
     1
102
RTVSPropertyOp13
 70
     1
102
RTVSPropertyOp14
 70
     1
102
RTVSPropertyOp15
 70
     1
102
RTVSPropertyOp16
 70
     1
102
RTVSPropertyOp17
 70
     1
102
RTVSPropertyOp18
 70
     1
102
RTVSPropertyOp19
 70
     1
102
RTVSPropertyOp20
 70
     1
102
RTVSPropertyOp21
 70
     1
102
RTVSPropertyOp22
 70
     1
102
RTVSPropertyOp23
 70
     1
102
RTVSPropertyOp24
 70
     1
102
RTVSPropertyOp25
 70
     1
102
RTVSPropertyOp26
 70
     1
102
RTVSPropertyOp27
 70
     1
  0
XRECORD
  5
B3B
102
{ACAD_REACTORS
330
B3A
102
}
330
B3A
100
AcDbXrecord
280
     1
102
RTVSPropertyOp0
 70
     1
102
RTVSPropertyOp1
 70
     1
102
RTVSPropertyOp2
 70
     1
102
RTVSPropertyOp3
 70
     1
102
RTVSPropertyOp4
 70
     1
102
RTVSPropertyOp5
 70
     1
102
RTVSPropertyOp6
 70
     1
102
RTVSPropertyOp7
 70
     1
102
RTVSPropertyOp8
 70
     1
102
RTVSPropertyOp9
 70
     1
102
RTVSPropertyOp10
 70
     1
102
RTVSPropertyOp11
 70
     1
102
RTVSPropertyOp12
 70
     1
102
RTVSPropertyOp13
 70
     1
102
RTVSPropertyOp14
 70
     1
102
RTVSPropertyOp15
 70
     1
102
RTVSPropertyOp16
 70
     1
102
RTVSPropertyOp17
 70
     1
102
RTVSPropertyOp18
 70
     1
102
RTVSPropertyOp19
 70
     1
102
RTVSPropertyOp20
 70
     1
102
RTVSPropertyOp21
 70
     1
102
RTVSPropertyOp22
 70
     1
102
RTVSPropertyOp23
 70
     1
102
RTVSPropertyOp24
 70
     1
102
RTVSPropertyOp25
 70
     1
102
RTVSPropertyOp26
 70
     1
102
RTVSPropertyOp27
 70
     1
  0
XRECORD
  5
B3D
102
{ACAD_REACTORS
330
B3C
102
}
330
B3C
100
AcDbXrecord
280
     1
102
RTVSPropertyOp0
 70
     1
102
RTVSPropertyOp1
 70
     1
102
RTVSPropertyOp2
 70
     1
102
RTVSPropertyOp3
 70
     1
102
RTVSPropertyOp4
 70
     1
102
RTVSPropertyOp5
 70
     1
102
RTVSPropertyOp6
 70
     1
102
RTVSPropertyOp7
 70
     1
102
RTVSPropertyOp8
 70
     1
102
RTVSPropertyOp9
 70
     1
102
RTVSPropertyOp10
 70
     1
102
RTVSPropertyOp11
 70
     1
102
RTVSPropertyOp12
 70
     1
102
RTVSPropertyOp13
 70
     1
102
RTVSPropertyOp14
 70
     1
102
RTVSPropertyOp15
 70
     1
102
RTVSPropertyOp16
 70
     1
102
RTVSPropertyOp17
 70
     1
102
RTVSPropertyOp18
 70
     1
102
RTVSPropertyOp19
 70
     1
102
RTVSPropertyOp20
 70
     1
102
RTVSPropertyOp21
 70
     1
102
RTVSPropertyOp22
 70
     1
102
RTVSPropertyOp23
 70
     1
102
RTVSPropertyOp24
 70
     1
102
RTVSPropertyOp25
 70
     1
102
RTVSPropertyOp26
 70
     1
102
RTVSPropertyOp27
 70
     1
  0
XRECORD
  5
B51
102
{ACAD_REACTORS
330
B50
102
}
330
B50
100
AcDbXrecord
280
     1
102
RTVSPropertyOp0
 70
     1
102
RTVSPropertyOp1
 70
     1
102
RTVSPropertyOp2
 70
     1
102
RTVSPropertyOp3
 70
     1
102
RTVSPropertyOp4
 70
     1
102
RTVSPropertyOp5
 70
     1
102
RTVSPropertyOp6
 70
     1
102
RTVSPropertyOp7
 70
     1
102
RTVSPropertyOp8
 70
     1
102
RTVSPropertyOp9
 70
     1
102
RTVSPropertyOp10
 70
     1
102
RTVSPropertyOp11
 70
     1
102
RTVSPropertyOp12
 70
     1
102
RTVSPropertyOp13
 70
     1
102
RTVSPropertyOp14
 70
     1
102
RTVSPropertyOp15
 70
     1
102
RTVSPropertyOp16
 70
     1
102
RTVSPropertyOp17
 70
     1
102
RTVSPropertyOp18
 70
     1
102
RTVSPropertyOp19
 70
     1
102
RTVSPropertyOp20
 70
     1
102
RTVSPropertyOp21
 70
     1
102
RTVSPropertyOp22
 70
     1
102
RTVSPropertyOp23
 70
     1
102
RTVSPropertyOp24
 70
     1
102
RTVSPropertyOp25
 70
     1
102
RTVSPropertyOp26
 70
     1
102
RTVSPropertyOp27
 70
     1
  0
XRECORD
  5
B49
102
{ACAD_REACTORS
330
B48
102
}
330
B48
100
AcDbXrecord
280
     1
102
RTVSPropertyOp0
 70
     1
102
RTVSPropertyOp1
 70
     1
102
RTVSPropertyOp2
 70
     1
102
RTVSPropertyOp3
 70
     1
102
RTVSPropertyOp4
 70
     1
102
RTVSPropertyOp5
 70
     1
102
RTVSPropertyOp6
 70
     1
102
RTVSPropertyOp7
 70
     1
102
RTVSPropertyOp8
 70
     1
102
RTVSPropertyOp9
 70
     1
102
RTVSPropertyOp10
 70
     1
102
RTVSPropertyOp11
 70
     1
102
RTVSPropertyOp12
 70
     1
102
RTVSPropertyOp13
 70
     1
102
RTVSPropertyOp14
 70
     1
102
RTVSPropertyOp15
 70
     1
102
RTVSPropertyOp16
 70
     1
102
RTVSPropertyOp17
 70
     1
102
RTVSPropertyOp18
 70
     1
102
RTVSPropertyOp19
 70
     1
102
RTVSPropertyOp20
 70
     1
102
RTVSPropertyOp21
 70
     1
102
RTVSPropertyOp22
 70
     1
102
RTVSPropertyOp23
 70
     1
102
RTVSPropertyOp24
 70
     1
102
RTVSPropertyOp25
 70
     1
102
RTVSPropertyOp26
 70
     1
102
RTVSPropertyOp27
 70
     1
  0
XRECORD
  5
B4F
102
{ACAD_REACTORS
330
B4E
102
}
330
B4E
100
AcDbXrecord
280
     1
102
RTVSPropertyOp0
 70
     1
102
RTVSPropertyOp1
 70
     1
102
RTVSPropertyOp2
 70
     1
102
RTVSPropertyOp3
 70
     1
102
RTVSPropertyOp4
 70
     1
102
RTVSPropertyOp5
 70
     1
102
RTVSPropertyOp6
 70
     1
102
RTVSPropertyOp7
 70
     1
102
RTVSPropertyOp8
 70
     1
102
RTVSPropertyOp9
 70
     1
102
RTVSPropertyOp10
 70
     1
102
RTVSPropertyOp11
 70
     1
102
RTVSPropertyOp12
 70
     1
102
RTVSPropertyOp13
 70
     1
102
RTVSPropertyOp14
 70
     1
102
RTVSPropertyOp15
 70
     1
102
RTVSPropertyOp16
 70
     1
102
RTVSPropertyOp17
 70
     1
102
RTVSPropertyOp18
 70
     1
102
RTVSPropertyOp19
 70
     1
102
RTVSPropertyOp20
 70
     1
102
RTVSPropertyOp21
 70
     1
102
RTVSPropertyOp22
 70
     1
102
RTVSPropertyOp23
 70
     1
102
RTVSPropertyOp24
 70
     1
102
RTVSPropertyOp25
 70
     1
102
RTVSPropertyOp26
 70
     1
102
RTVSPropertyOp27
 70
     1
  0
ENDSEC
  0
EOF
