  0
SECTION
  2
HEADER
  9
$ACADVER
  1
AC1018
  9
$ACADMAINTVER
 70
   104
  9
$DWGCODEPAGE
  3
ANSI_936
  9
$LASTSAVEDBY
  1
chaxiu.zhu
  9
$INSBASE
 10
0.0
 20
0.0
 30
0.0
  9
$EXTMIN
 10
62304.32053660736
 20
-28203.59308451129
 30
-0.00000001
  9
$EXTMAX
 10
64133.18989560087
 20
-26618.97300389039
 30
0.00000001
  9
$LIMMIN
 10
0.0
 20
0.0
  9
$LIMMAX
 10
420.0
 20
297.0
  9
$ORTHOMODE
 70
     1
  9
$REGENMODE
 70
     1
  9
$FILLMODE
 70
     1
  9
$QTEXTMODE
 70
     0
  9
$MIRRTEXT
 70
     0
  9
$LTSCALE
 40
1.0
  9
$ATTMODE
 70
     1
  9
$TEXTSIZE
 40
2.5
  9
$TRACEWID
 40
1.0
  9
$TEXTSTYLE
  7
Standard
  9
$CLAYER
  8
尺寸标注
  9
$CELTYPE
  6
ByLayer
  9
$CECOLOR
 62
     0
  9
$CELTSCALE
 40
1.0
  9
$DISPSILH
 70
     0
  9
$DIMSCALE
 40
0.5
  9
$DIMASZ
 40
30.0
  9
$DIMEXO
 40
0.0
  9
$DIMDLI
 40
3.75
  9
$DIMRND
 40
0.0
  9
$DIMDLE
 40
0.0
  9
$DIMEXE
 40
10.0
  9
$DIMTP
 40
0.0
  9
$DIMTM
 40
0.0
  9
$DIMTXT
 40
40.0
  9
$DIMCEN
 40
0.0
  9
$DIMTSZ
 40
0.0
  9
$DIMTOL
 70
     0
  9
$DIMLIM
 70
     0
  9
$DIMTIH
 70
     0
  9
$DIMTOH
 70
     1
  9
$DIMSE1
 70
     0
  9
$DIMSE2
 70
     0
  9
$DIMTAD
 70
     0
  9
$DIMZIN
 70
     8
  9
$DIMBLK
  1

  9
$DIMASO
 70
     1
  9
$DIMSHO
 70
     1
  9
$DIMPOST
  1

  9
$DIMAPOST
  1

  9
$DIMALT
 70
     0
  9
$DIMALTD
 70
     3
  9
$DIMALTF
 40
0.03937007874016
  9
$DIMLFAC
 40
1.0
  9
$DIMTOFL
 70
     1
  9
$DIMTVP
 40
0.0
  9
$DIMTIX
 70
     0
  9
$DIMSOXD
 70
     0
  9
$DIMSAH
 70
     0
  9
$DIMBLK1
  1

  9
$DIMBLK2
  1

  9
$DIMSTYLE
  2
宋体
  9
$DIMCLRD
 70
   256
  9
$DIMCLRE
 70
   256
  9
$DIMCLRT
 70
   256
  9
$DIMTFAC
 40
1.0
  9
$DIMGAP
 40
20.0
  9
$DIMJUST
 70
     0
  9
$DIMSD1
 70
     0
  9
$DIMSD2
 70
     0
  9
$DIMTOLJ
 70
     1
  9
$DIMTZIN
 70
     8
  9
$DIMALTZ
 70
     0
  9
$DIMALTTZ
 70
     0
  9
$DIMUPT
 70
     0
  9
$DIMDEC
 70
     0
  9
$DIMTDEC
 70
     0
  9
$DIMALTU
 70
     2
  9
$DIMALTTD
 70
     3
  9
$DIMTXSTY
  7
Standard
  9
$DIMAUNIT
 70
     0
  9
$DIMADEC
 70
     0
  9
$DIMALTRND
 40
0.0
  9
$DIMAZIN
 70
     0
  9
$DIMDSEP
 70
    46
  9
$DIMATFIT
 70
     3
  9
$DIMFRAC
 70
     0
  9
$DIMLDRBLK
  1

  9
$DIMLUNIT
 70
     2
  9
$DIMLWD
 70
    -2
  9
$DIMLWE
 70
    -2
  9
$DIMTMOVE
 70
     1
  9
$LUNITS
 70
     2
  9
$LUPREC
 70
     4
  9
$SKETCHINC
 40
1.0
  9
$FILLETRAD
 40
50.0
  9
$AUNITS
 70
     0
  9
$AUPREC
 70
     0
  9
$MENU
  1
.
  9
$ELEVATION
 40
0.0
  9
$PELEVATION
 40
0.0
  9
$THICKNESS
 40
0.0
  9
$LIMCHECK
 70
     0
  9
$CHAMFERA
 40
0.0
  9
$CHAMFERB
 40
0.0
  9
$CHAMFERC
 40
0.0
  9
$CHAMFERD
 40
0.0
  9
$SKPOLY
 70
     0
  9
$TDCREATE
 40
2455843.370532037
  9
$TDUCREATE
 40
2455843.037198704
  9
$TDUPDATE
 40
2458858.450529468
  9
$TDUUPDATE
 40
2458858.117196134
  9
$TDINDWG
 40
3.0178508102
  9
$TDUSRTIMER
 40
3.0178506366
  9
$USRTIMER
 70
     1
  9
$ANGBASE
 50
0.0
  9
$ANGDIR
 70
     0
  9
$PDMODE
 70
     0
  9
$PDSIZE
 40
0.0
  9
$PLINEWID
 40
0.0
  9
$SPLFRAME
 70
     0
  9
$SPLINETYPE
 70
     6
  9
$SPLINESEGS
 70
     8
  9
$HANDSEED
  5
323
  9
$SURFTAB1
 70
     6
  9
$SURFTAB2
 70
     6
  9
$SURFTYPE
 70
     6
  9
$SURFU
 70
     6
  9
$SURFV
 70
     6
  9
$UCSBASE
  2

  9
$UCSNAME
  2

  9
$UCSORG
 10
0.0
 20
0.0
 30
0.0
  9
$UCSXDIR
 10
1.0
 20
0.0
 30
0.0
  9
$UCSYDIR
 10
0.0
 20
1.0
 30
0.0
  9
$UCSORTHOREF
  2

  9
$UCSORTHOVIEW
 70
     0
  9
$UCSORGTOP
 10
0.0
 20
0.0
 30
0.0
  9
$UCSORGBOTTOM
 10
0.0
 20
0.0
 30
0.0
  9
$UCSORGLEFT
 10
0.0
 20
0.0
 30
0.0
  9
$UCSORGRIGHT
 10
0.0
 20
0.0
 30
0.0
  9
$UCSORGFRONT
 10
0.0
 20
0.0
 30
0.0
  9
$UCSORGBACK
 10
0.0
 20
0.0
 30
0.0
  9
$PUCSBASE
  2

  9
$PUCSNAME
  2

  9
$PUCSORG
 10
0.0
 20
0.0
 30
0.0
  9
$PUCSXDIR
 10
1.0
 20
0.0
 30
0.0
  9
$PUCSYDIR
 10
0.0
 20
1.0
 30
0.0
  9
$PUCSORTHOREF
  2

  9
$PUCSORTHOVIEW
 70
     0
  9
$PUCSORGTOP
 10
0.0
 20
0.0
 30
0.0
  9
$PUCSORGBOTTOM
 10
0.0
 20
0.0
 30
0.0
  9
$PUCSORGLEFT
 10
0.0
 20
0.0
 30
0.0
  9
$PUCSORGRIGHT
 10
0.0
 20
0.0
 30
0.0
  9
$PUCSORGFRONT
 10
0.0
 20
0.0
 30
0.0
  9
$PUCSORGBACK
 10
0.0
 20
0.0
 30
0.0
  9
$USERI1
 70
     0
  9
$USERI2
 70
     0
  9
$USERI3
 70
     0
  9
$USERI4
 70
     0
  9
$USERI5
 70
     0
  9
$USERR1
 40
0.0
  9
$USERR2
 40
0.0
  9
$USERR3
 40
0.0
  9
$USERR4
 40
0.0
  9
$USERR5
 40
2.5
  9
$WORLDVIEW
 70
     1
  9
$SHADEDGE
 70
     3
  9
$SHADEDIF
 70
    70
  9
$TILEMODE
 70
     1
  9
$MAXACTVP
 70
    64
  9
$PINSBASE
 10
0.0
 20
0.0
 30
0.0
  9
$PLIMCHECK
 70
     0
  9
$PEXTMIN
 10
0.0
 20
0.0
 30
0.0
  9
$PEXTMAX
 10
0.0
 20
0.0
 30
0.0
  9
$PLIMMIN
 10
0.0
 20
0.0
  9
$PLIMMAX
 10
12.0
 20
9.0
  9
$UNITMODE
 70
     0
  9
$VISRETAIN
 70
     1
  9
$PLINEGEN
 70
     0
  9
$PSLTSCALE
 70
     1
  9
$TREEDEPTH
 70
  3020
  9
$CMLSTYLE
  2
Standard
  9
$CMLJUST
 70
     0
  9
$CMLSCALE
 40
20.0
  9
$PROXYGRAPHICS
 70
     1
  9
$MEASUREMENT
 70
     1
  9
$CELWEIGHT
370
    -1
  9
$ENDCAPS
280
     0
  9
$JOINSTYLE
280
     0
  9
$LWDISPLAY
290
     0
  9
$INSUNITS
 70
     4
  9
$HYPERLINKBASE
  1

  9
$STYLESHEET
  1

  9
$XEDIT
290
     1
  9
$CEPSNTYPE
380
     0
  9
$PSTYLEMODE
290
     1
  9
$FINGERPRINTGUID
  2
{AD689815-C28C-469C-AD0B-E3ADB227F2A0}
  9
$VERSIONGUID
  2
{25369A97-3930-46B8-A3E8-BD3BEB97B07A}
  9
$EXTNAMES
290
     1
  9
$PSVPSCALE
 40
0.0
  9
$OLESTARTUP
290
     0
  9
$SORTENTS
280
   127
  9
$INDEXCTL
280
     0
  9
$HIDETEXT
280
     1
  9
$XCLIPFRAME
290
     0
  9
$HALOGAP
280
     0
  9
$OBSCOLOR
 70
   257
  9
$OBSLTYPE
280
     0
  9
$INTERSECTIONDISPLAY
280
     0
  9
$INTERSECTIONCOLOR
 70
   257
  9
$DIMASSOC
280
     2
  9
$PROJECTNAME
  1

  0
ENDSEC
  0
SECTION
  2
CLASSES
  0
CLASS
  1
ACDBDICTIONARYWDFLT
  2
AcDbDictionaryWithDefault
  3
ObjectDBX Classes
 90
        0
 91
        1
280
     0
281
     0
  0
CLASS
  1
DICTIONARYVAR
  2
AcDbDictionaryVar
  3
ObjectDBX Classes
 90
        0
 91
        2
280
     0
281
     0
  0
CLASS
  1
TABLESTYLE
  2
AcDbTableStyle
  3
ObjectDBX Classes
 90
     4095
 91
        1
280
     0
281
     0
  0
CLASS
  1
MATERIAL
  2
AcDbMaterial
  3
ObjectDBX Classes
 90
        0
 91
        3
280
     0
281
     0
  0
CLASS
  1
VISUALSTYLE
  2
AcDbVisualStyle
  3
ObjectDBX Classes
 90
     4095
 91
       16
280
     0
281
     0
  0
CLASS
  1
VLO-VL
  2
vlo_VL
  3
VL|AutoLISP based application
 90
        0
 91
        0
280
     1
281
     0
  0
CLASS
  1
SORTENTSTABLE
  2
AcDbSortentsTable
  3
ObjectDBX Classes
 90
        0
 91
        1
280
     0
281
     0
  0
CLASS
  1
DIMASSOC
  2
AcDbDimAssoc
  3
"ZcDbDimAssoc|Product Desc:     ZwDim ZRX App For Dimension|Company:          ZwSoft.|WEB Address:      www.zwsoft.com"
 90
        0
 91
        0
280
     0
281
     0
  0
CLASS
  1
EXACXREFPANELOBJECT
  2
ExAcXREFPanelObject
  3
EXAC_ESW
 90
     1025
 91
        0
280
     1
281
     0
  0
CLASS
  1
NPOCOLLECTION
  2
AcDbImpNonPersistentObjectsCollection
  3
ObjectDBX Classes
 90
     1153
 91
        0
280
     0
281
     0
  0
CLASS
  1
SOLID_BACKGROUND
  2
AcDbSolidBackground
  3
SCENEOE
 90
     4095
 91
        0
280
     0
281
     0
  0
CLASS
  1
SCALE
  2
AcDbScale
  3
ObjectDBX Classes
 90
     1153
 91
       33
280
     0
281
     0
  0
CLASS
  1
MLEADERSTYLE
  2
AcDbMLeaderStyle
  3
ACDB_MLEADERSTYLE_CLASS
 90
     4095
 91
        1
280
     0
281
     0
  0
CLASS
  1
CELLSTYLEMAP
  2
AcDbCellStyleMap
  3
ObjectDBX Classes
 90
     1152
 91
        1
280
     0
281
     0
  0
ENDSEC
  0
SECTION
  2
TABLES
  0
TABLE
  2
VPORT
  5
23
330
0
100
AcDbSymbolTable
 70
     3
  0
VPORT
  5
2FC
330
23
100
AcDbSymbolTableRecord
100
AcDbViewportTableRecord
  2
*Active
 70
     0
 10
0.0
 20
0.0
 11
1.0
 21
1.0
 12
63745.75125127797
 22
-27472.45045045537
 13
0.0
 23
0.0
 14
10.0
 24
10.0
 15
10.0
 25
10.0
 16
0.0
 26
0.0
 36
1.0
 17
0.0
 27
0.0
 37
0.0
 40
2219.539896181289
 41
1.857503152585119
 42
50.0
 43
0.0
 44
0.0
 50
0.0
 51
0.0
 71
     0
 72
  1000
 73
     1
 74
     3
 75
     0
 76
     1
 77
     0
 78
     0
281
     0
 65
     1
110
0.0
120
0.0
130
0.0
111
1.0
121
0.0
131
0.0
112
0.0
122
1.0
132
0.0
 79
     0
146
0.0
  0
ENDTAB
  0
TABLE
  2
LTYPE
  5
1E
330
0
100
AcDbSymbolTable
 70
     1
  0
LTYPE
  5
1F
330
1E
100
AcDbSymbolTableRecord
100
AcDbLinetypeTableRecord
  2
ByBlock
 70
     0
  3

 72
    65
 73
     0
 40
0.0
  0
LTYPE
  5
20
330
1E
100
AcDbSymbolTableRecord
100
AcDbLinetypeTableRecord
  2
ByLayer
 70
     0
  3

 72
    65
 73
     0
 40
0.0
  0
LTYPE
  5
C
330
1E
100
AcDbSymbolTableRecord
100
AcDbLinetypeTableRecord
  2
Continuous
 70
     0
  3
Solid line
 72
    65
 73
     0
 40
0.0
  0
ENDTAB
  0
TABLE
  2
LAYER
  5
15
102
{ACAD_XDICTIONARY
360
16
102
}
330
0
100
AcDbSymbolTable
 70
     5
  0
LAYER
  5
6
330
15
100
AcDbSymbolTableRecord
100
AcDbLayerTableRecord
  2
0
 70
     0
 62
     7
  6
Continuous
370
    -3
390
7
  0
LAYER
  5
36
330
15
100
AcDbSymbolTableRecord
100
AcDbLayerTableRecord
  2
尺寸标注
 70
     0
 62
    80
  6
Continuous
370
    18
390
7
1001
AcAecLayerStandard
1000

1000

  0
LAYER
  5
63
330
15
100
AcDbSymbolTableRecord
100
AcDbLayerTableRecord
  2
06___PRT_ALL_SURFS
 70
     0
 62
     7
  6
Continuous
370
    -3
390
7
  0
LAYER
  5
41
330
15
100
AcDbSymbolTableRecord
100
AcDbLayerTableRecord
  2
0000000000001
 70
     0
 62
     7
  6
Continuous
370
    -3
390
7
  0
LAYER
  5
2AA
330
15
100
AcDbSymbolTableRecord
100
AcDbLayerTableRecord
  2
Defpoints
 70
     0
 62
     7
  6
Continuous
290
     0
370
    -3
390
7
  0
ENDTAB
  0
TABLE
  2
STYLE
  5
1B
330
0
100
AcDbSymbolTable
 70
     3
  0
STYLE
  5
1C
330
1B
100
AcDbSymbolTableRecord
100
AcDbTextStyleTableRecord
  2
Standard
 70
     0
 40
0.0
 41
1.0
 50
0.0
 71
     0
 42
2.5
  3

  4

1001
ACAD
1000
SimSun
1071
    34306
  0
STYLE
  5
2D
330
1B
100
AcDbSymbolTableRecord
100
AcDbTextStyleTableRecord
  2
Arial
 70
     0
 40
0.0
 41
1.0
 50
0.0
 71
     0
 42
2.5
  3
arial.ttf
  4

1001
ACAD
1000
Arial
1071
       34
  0
STYLE
  5
2B
330
1B
100
AcDbSymbolTableRecord
100
AcDbTextStyleTableRecord
  2
TXT
 70
     0
 40
0.0
 41
1.0
 50
0.0
 71
     0
 42
2.5
  3
txt.shx
  4

  0
ENDTAB
  0
TABLE
  2
VIEW
  5
21
330
0
100
AcDbSymbolTable
 70
     0
  0
ENDTAB
  0
TABLE
  2
UCS
  5
22
330
0
100
AcDbSymbolTable
 70
     0
  0
ENDTAB
  0
TABLE
  2
APPID
  5
27
330
0
100
AcDbSymbolTable
 70
     4
  0
APPID
  5
1A
330
27
100
AcDbSymbolTableRecord
100
AcDbRegAppTableRecord
  2
ACAD
 70
     0
  0
APPID
  5
10
330
27
100
AcDbSymbolTableRecord
100
AcDbRegAppTableRecord
  2
ACAD_PSEXT
 70
     0
  0
APPID
  5
37
330
27
100
AcDbSymbolTableRecord
100
AcDbRegAppTableRecord
  2
AcAecLayerStandard
 70
     0
  0
APPID
  5
322
330
27
100
AcDbSymbolTableRecord
100
AcDbRegAppTableRecord
  2
ACAD_MLEADERVER
 70
     0
  0
ENDTAB
  0
TABLE
  2
DIMSTYLE
  5
28
330
0
100
AcDbSymbolTable
 70
     3
100
AcDbDimStyleTable
 71
     3
340
29
340
2A
340
2C
  0
DIMSTYLE
105
29
330
28
100
AcDbSymbolTableRecord
100
AcDbDimStyleTableRecord
  2
宋体
 70
     0
 40
0.5
 41
30.0
 42
0.0
 43
3.75
 44
10.0
 73
     0
 78
     8
140
40.0
141
0.0
143
0.03937007874016
147
20.0
171
     3
172
     1
176
   256
177
   256
178
   256
271
     0
272
     0
274
     3
279
     1
284
     8
340
1C
  0
DIMSTYLE
105
2C
330
28
100
AcDbSymbolTableRecord
100
AcDbDimStyleTableRecord
  2
Arial
 70
     0
 40
0.7
 41
20.0
 42
0.0
 43
3.75
 44
10.0
 73
     0
 78
     8
140
30.0
141
0.0
143
0.03937007874016
147
20.0
171
     3
172
     1
271
     0
272
     0
274
     3
279
     1
284
     8
340
2D
  0
DIMSTYLE
105
2A
330
28
100
AcDbSymbolTableRecord
100
AcDbDimStyleTableRecord
  2
TXT
 70
     0
 40
0.7
 41
20.0
 42
0.0
 43
3.75
 44
10.0
 73
     0
 78
     8
140
30.0
141
0.0
143
0.03937007874016
147
20.0
171
     3
172
     1
271
     0
272
     0
274
     3
279
     1
284
     8
340
2B
  0
ENDTAB
  0
TABLE
  2
BLOCK_RECORD
  5
1
330
0
100
AcDbSymbolTable
 70
     0
  0
BLOCK_RECORD
  5
2
102
{ACAD_XDICTIONARY
360
3
102
}
330
1
100
AcDbSymbolTableRecord
100
AcDbBlockTableRecord
  2
*Model_Space
340
E
  0
BLOCK_RECORD
  5
11
330
1
100
AcDbSymbolTableRecord
100
AcDbBlockTableRecord
  2
*Paper_Space
340
14
  0
ENDTAB
  0
ENDSEC
  0
SECTION
  2
BLOCKS
  0
BLOCK
  5
5
330
2
100
AcDbEntity
  8
0
100
AcDbBlockBegin
  2
*Model_Space
 70
     0
 10
0.0
 20
0.0
 30
0.0
  3
*Model_Space
  1

  0
ENDBLK
  5
D
330
2
100
AcDbEntity
  8
0
100
AcDbBlockEnd
  0
BLOCK
  5
12
330
11
100
AcDbEntity
 67
     1
  8
0
100
AcDbBlockBegin
  2
*Paper_Space
 70
     0
 10
0.0
 20
0.0
 30
0.0
  3
*Paper_Space
  1

  0
ENDBLK
  5
13
330
11
100
AcDbEntity
 67
     1
  8
0
100
AcDbBlockEnd
  0
ENDSEC
  0
SECTION
  2
ENTITIES
  0
LWPOLYLINE
  5
3D
330
2
100
AcDbEntity
  8
0
  6
Continuous
 62
     7
100
AcDbPolyline
 90
        8
 70
     0
 43
0.0
 10
62304.42518101635
 20
-28163.67103484326
 10
62304.96385106674
 20
-28170.22385660682
 10
62307.80738355088
 20
-28179.77362872387
 10
62312.92874048106
 20
-28188.32292129758
 10
62320.00702395974
 20
-28195.33119145938
 10
62328.59257738039
 20
-28200.36163561483
 10
62338.13851309675
 20
-28203.10899503501
 10
62344.3462951846
 20
-28203.59233458149
  0
LINE
  5
3E
330
2
100
AcDbEntity
  8
0
  6
Continuous
 62
     7
100
AcDbLine
 10
62304.42424573758
 20
-28163.67103489145
 30
0.0
 11
62304.42424573758
 21
-27727.09654185229
 31
0.0
  0
LINE
  5
3F
330
2
100
AcDbEntity
  8
0
  6
Continuous
 62
     7
100
AcDbLine
 10
62344.34629516172
 20
-28203.59308451129
 30
0.0
 11
62344.346295497
 21
-28203.5735969125
 31
0.0
  0
LINE
  5
40
330
2
100
AcDbEntity
  8
0000000000001
  6
Continuous
 62
     7
100
AcDbLine
 10
62524.44529605519
 20
-27932.09654185147
 30
0.0
 11
62524.44529792716
 21
-28022.09654185112
 31
0.0
  0
LWPOLYLINE
  5
42
330
2
100
AcDbEntity
  8
0
  6
Continuous
 62
     7
100
AcDbPolyline
 90
        8
 70
     0
 43
0.0
 10
63464.54429661544
 20
-28203.59233466018
 10
63471.06317253122
 20
-28203.05898145464
 10
63480.59179824907
 20
-28200.23431199853
 10
63489.13864745465
 20
-28195.13361078763
 10
63496.15988168234
 20
-28188.06831950305
 10
63501.21092088436
 20
-28179.48027509166
 10
63503.97703411252
 20
-28169.91310702259
 10
63504.46541109614
 20
-28163.67103524454
  0
LINE
  5
43
330
2
100
AcDbEntity
  8
0
  6
Continuous
 62
     7
100
AcDbLine
 10
63464.54429676782
 20
-28203.59308451129
 30
0.0
 11
62344.34629522785
 21
-28203.59308451129
 31
0.0
  0
LINE
  5
44
330
2
100
AcDbEntity
  8
0000000000001
  6
Continuous
 62
     7
100
AcDbLine
 10
62664.44529605718
 20
-28182.09655556892
 30
0.0
 11
63144.44529605531
 21
-28182.09655556892
 31
0.0
  0
LINE
  5
45
330
2
100
AcDbEntity
  8
0
  6
Continuous
 62
     7
100
AcDbLine
 10
62304.42424573758
 20
-28163.67103488645
 30
0.0
 11
62304.44373333376
 21
-28163.6710349017
 31
0.0
  0
LINE
  5
46
330
2
100
AcDbEntity
  8
0
  6
Continuous
 62
     7
100
AcDbLine
 10
63504.46634637497
 20
-28163.67103525223
 30
0.0
 11
63504.44685877868
 21
-28163.67103485606
 31
0.0
  0
LINE
  5
47
330
2
100
AcDbEntity
  8
0000000000001
  6
Continuous
 62
     7
100
AcDbLine
 10
63124.44529605532
 20
-27818.09728975903
 30
0.0
 11
62684.44529605712
 21
-27818.09728975903
 31
0.0
  0
LINE
  5
48
330
2
100
AcDbEntity
  8
0
  6
Continuous
 62
     7
100
AcDbLine
 10
62309.43155358676
 20
-27722.09654185229
 30
0.0
 11
63499.45903852573
 21
-27722.09654185229
 31
0.0
  0
LINE
  5
49
330
2
100
AcDbEntity
  8
0000000000001
  6
Continuous
 62
     7
100
AcDbLine
 10
63284.44529605723
 20
-27932.09654185147
 30
0.0
 11
63284.44529418527
 21
-28022.09654185112
 31
0.0
  0
LINE
  5
4A
330
2
100
AcDbEntity
  8
0
  6
Continuous
 62
     7
100
AcDbLine
 10
63464.54429676782
 20
-28203.59308451129
 30
0.0
 11
63464.54429676782
 21
-28203.5735969125
 31
0.0
  0
LINE
  5
4B
330
2
100
AcDbEntity
  8
0
  6
Continuous
 62
     7
100
AcDbLine
 10
63504.44685877868
 20
-27727.09654185229
 30
0.0
 11
63504.44685877868
 21
-28163.6710349017
 31
0.0
  0
ARC
  5
4C
330
2
100
AcDbEntity
  8
0
  6
Continuous
 62
     7
100
AcDbCircle
 10
62344.39752482812
 20
-28163.42455542513
 30
0.0
 40
40.14907417209999
100
AcDbArc
 50
259.0060553846628
 51
269.92689161464
  0
ARC
  5
4D
330
2
100
AcDbEntity
  8
0
  6
Continuous
 62
     7
100
AcDbCircle
 10
62344.57098926409
 20
-28163.62204637129
 30
0.0
 40
40.12728583366
100
AcDbArc
 50
180.0699483344292
 51
191.2581060434711
  0
ARC
  5
4E
330
2
100
AcDbEntity
  8
0
  6
Continuous
 62
     7
100
AcDbCircle
 10
62309.43807325107
 20
-27727.09003588098
 30
0.0
 40
4.993921264359999
100
AcDbArc
 50
90.07480716662954
 51
180.0746373789213
  0
ARC
  5
4F
330
2
100
AcDbEntity
  8
0
  6
Continuous
 62
     7
100
AcDbCircle
 10
63499.45251886136
 20
-27727.09003588098
 30
0.0
 40
4.993921264359999
100
AcDbArc
 50
359.9253626210786
 51
89.92519283337044
  0
LINE
  5
50
330
2
100
AcDbEntity
  8
0000000000001
  6
Continuous
 62
     7
100
AcDbLine
 10
62664.44529605718
 20
-27818.09654345114
 30
0.0
 11
62667.74114639972
 21
-27818.09662217083
 31
0.0
  0
LINE
  5
51
330
2
100
AcDbEntity
  8
0000000000001
  6
Continuous
 62
     7
100
AcDbLine
 10
62667.74114639972
 20
-27818.09662217083
 30
0.0
 11
62681.14081853863
 21
-27818.09796046367
 31
0.0
  0
LINE
  5
52
330
2
100
AcDbEntity
  8
0000000000001
  6
Continuous
 62
     7
100
AcDbLine
 10
62681.14081853863
 20
-27818.09796046367
 30
0.0
 11
62683.44529082314
 21
-27818.09803632595
 31
0.0
  0
LINE
  5
53
330
2
100
AcDbEntity
  8
0000000000001
  6
Continuous
 62
     7
100
AcDbLine
 10
62683.44529082314
 20
-27818.09803632595
 30
0.0
 11
62684.44529605712
 21
-27818.09803968383
 31
0.0
  0
SPLINE
  5
54
330
2
100
AcDbEntity
  8
0000000000001
  6
Continuous
 62
     7
100
AcDbSpline
210
0.0
220
0.0
230
1.0
 70
     8
 71
     3
 72
    29
 73
    25
 74
    23
 42
0.0000000001
 43
0.0000000001
 44
0.0000000001
 12
-0.000000178510104
 22
-0.9999999999999841
 32
0.0
 13
0.9999999999964067
 23
-0.0000026807561159
 33
0.0
 40
0.0
 40
0.0
 40
0.0
 40
0.0
 40
3.381151088863198
 40
16.73033689742494
 40
30.14828125014953
 40
43.50120223290338
 40
56.88861435558699
 40
70.25314390531327
 40
83.60797109967149
 40
96.98891246062755
 40
110.3418723937426
 40
123.6867079161646
 40
137.0354477865612
 40
150.3921770354122
 40
163.7306157048475
 40
177.1173967922646
 40
190.4273447651727
 40
203.8051232070781
 40
217.1642776545257
 40
230.5356878458758
 40
243.9267755366516
 40
257.2828370642735
 40
270.6945740532017
 40
274.0583737468421
 40
274.0583737468421
 40
274.0583737468421
 40
274.0583737468421
 10
62524.44529792716
 20
-28022.09654185112
 30
0.0
 10
62524.44529772597
 20
-28023.22359221408
 30
0.0
 10
62524.44529499029
 20
-28028.80037153675
 30
0.0
 10
62524.44526513194
 20
-28038.84979289929
 30
0.0
 10
62524.44541134139
 20
-28052.2231679141
 30
0.0
 10
62524.44486787206
 20
-28065.60916975573
 30
0.0
 10
62524.44689769529
 20
-28078.97779561153
 30
0.0
 10
62524.43933231464
 20
-28092.34545773568
 30
0.0
 10
62524.46755457394
 20
-28105.71692721909
 30
0.0
 10
62524.36211654909
 20
-28119.06226469277
 30
0.0
 10
62524.75490448653
 20
-28132.48730462953
 30
0.0
 10
62528.64381960091
 20
-28145.41290993339
 30
0.0
 10
62535.14992936748
 20
-28157.17842346642
 30
0.0
 10
62544.13414332593
 20
-28167.20892585744
 30
0.0
 10
62555.11472477136
 20
-28175.00699644054
 30
0.0
 10
62567.53244863573
 20
-28180.19975766412
 30
0.0
 10
62580.82315615877
 20
-28182.4298222012
 30
0.0
 10
62594.18951613703
 20
-28182.0071895271
 30
0.0
 10
62607.55429913175
 20
-28182.12049308475
 30
0.0
 10
62620.92943415678
 20
-28182.09011044779
 30
0.0
 10
62634.30195145154
 20
-28182.0982616486
 30
0.0
 10
62647.68833776848
 20
-28182.09607680945
 30
0.0
 10
62657.73218261545
 20
-28182.09652646944
 30
0.0
 10
62663.32402949263
 20
-28182.0965662817
 30
0.0
 10
62664.44529605718
 20
-28182.09656928754
 30
0.0
 11
62524.44529792716
 21
-28022.09654185112
 31
0.0
 11
62524.44529605519
 21
-28025.47769293999
 31
0.0
 11
62524.44529605519
 21
-28038.82687874855
 31
0.0
 11
62524.44529605519
 21
-28052.24482310127
 31
0.0
 11
62524.44529605519
 21
-28065.59774408403
 31
0.0
 11
62524.44529605519
 21
-28078.98515620671
 31
0.0
 11
62524.44529605519
 21
-28092.34968575644
 31
0.0
 11
62524.44529605519
 21
-28105.70451295079
 31
0.0
 11
62524.44529605519
 21
-28119.08545431175
 31
0.0
 11
62525.33808158998
 21
-28132.40853477252
 31
0.0
 11
62529.07934274848
 21
-28145.21820299869
 31
0.0
 11
62535.56172229836
 21
-28156.88729085931
 31
0.0
 11
62544.46968213286
 21
-28166.83970101033
 31
0.0
 11
62555.34258418184
 21
-28174.56588682038
 31
0.0
 11
62567.70046465521
 21
-28179.7126040351
 31
0.0
 11
62580.81471885843
 21
-28181.98659869977
 31
0.0
 11
62594.19204551752
 21
-28182.09654185054
 31
0.0
 11
62607.55119996497
 21
-28182.09654185054
 31
0.0
 11
62620.92261015633
 21
-28182.09654185054
 31
0.0
 11
62634.3136978471
 21
-28182.09654185054
 31
0.0
 11
62647.66975937472
 21
-28182.09654185054
 31
0.0
 11
62661.08149636365
 21
-28182.09654185054
 31
0.0
 11
62664.44529605718
 21
-28182.09656928754
 31
0.0
  0
LINE
  5
55
330
2
100
AcDbEntity
  8
0000000000001
  6
Continuous
 62
     7
100
AcDbLine
 10
62524.44529605519
 20
-27922.09654185147
 30
0.0
 11
62524.44529605519
 21
-27932.09654185147
 31
0.0
  0
LINE
  5
56
330
2
100
AcDbEntity
  8
0000000000001
  6
Continuous
 62
     7
100
AcDbLine
 10
62524.44536780005
 20
-27912.09654185147
 30
0.0
 11
62524.44529605519
 21
-27922.09654185147
 31
0.0
  0
LINE
  5
57
330
2
100
AcDbEntity
  8
0000000000001
  6
Continuous
 62
     7
100
AcDbLine
 10
62664.44529605718
 20
-27818.09654165275
 30
0.0
 11
62658.08529636168
 21
-27818.09654086788
 31
0.0
  0
SPLINE
  5
58
330
2
100
AcDbEntity
  8
0000000000001
  6
Continuous
 62
     7
100
AcDbSpline
210
0.0
220
0.0
230
1.0
 70
     8
 71
     3
 72
    30
 73
    26
 74
    24
 42
0.0000000001
 43
0.0000000001
 44
0.0000000001
 12
-0.9999999999999593
 22
-0.0000002854812497
 32
0.0
 13
-0.000186223127775
 23
-0.9999999826604732
 33
0.0
 40
0.0
 40
0.0
 40
0.0
 40
0.0
 40
1.902239195246037
 40
11.0226302609665
 40
20.16712636878972
 40
29.27368948143001
 40
38.40347079257507
 40
47.53244951204422
 40
56.66684762621324
 40
65.80373849638298
 40
74.93538463759087
 40
84.05833780084627
 40
93.16316281716954
 40
102.304263202326
 40
111.4263224589568
 40
120.5380864395438
 40
129.6455860703728
 40
138.7674480972546
 40
147.8967230186862
 40
157.0126788156277
 40
166.1450506537572
 40
175.2989563491032
 40
184.4028767238673
 40
193.5266863833716
 40
201.7994561128259
 40
201.7994561128259
 40
201.7994561128259
 40
201.7994561128259
 10
62658.08529636168
 20
-27818.09654086788
 30
0.0
 10
62657.45121662993
 20
-27818.0965410489
 30
0.0
 10
62653.77700653974
 20
-27818.09654285555
 30
0.0
 10
62647.05463114556
 20
-27818.09655712203
 30
0.0
 10
62637.93081411432
 20
-27818.09648480506
 30
0.0
 10
62628.80386826008
 20
-27818.09675397176
 30
0.0
 10
62619.68209018325
 20
-27818.09574788309
 30
0.0
 10
62610.55105126957
 20
-27818.09950520894
 30
0.0
 10
62601.41757716262
 20
-27818.08547388997
 30
0.0
 10
62592.283457838
 20
-27818.13784974357
 30
0.0
 10
62583.15224371588
 20
-27817.94254081135
 30
0.0
 10
62574.03517254587
 20
-27818.75396166152
 30
0.0
 10
62565.16270911856
 20
-27821.03915017609
 30
0.0
 10
62556.73399964249
 20
-27824.61590172695
 30
0.0
 10
62548.94531654138
 20
-27829.43872949107
 30
0.0
 10
62541.98535833692
 20
-27835.37663543048
 30
0.0
 10
62536.00515481974
 20
-27842.30022665441
 30
0.0
 10
62531.13787102424
 20
-27850.05459654891
 30
0.0
 10
62527.50771260703
 20
-27858.46047145426
 30
0.0
 10
62525.17064355669
 20
-27867.32146280061
 30
0.0
 10
62524.28692980416
 20
-27876.44768574325
 30
0.0
 10
62524.48751210264
 20
-27885.57981471197
 30
0.0
 10
62524.43397969139
 20
-27894.70647490781
 30
0.0
 10
62524.4478966374
 20
-27903.54012235074
 30
0.0
 10
62524.4459530719
 20
-27909.33895200228
 30
0.0
 10
62524.44543954489
 20
-27912.09654186428
 30
0.0
 11
62658.08529636168
 21
-27818.09654086788
 31
0.0
 11
62656.18305716643
 21
-27818.09654185089
 31
0.0
 11
62647.06266610071
 21
-27818.09654185089
 31
0.0
 11
62637.91816999288
 21
-27818.09654185089
 31
0.0
 11
62628.81160688024
 21
-27818.09654185089
 31
0.0
 11
62619.6818255691
 21
-27818.09654185089
 31
0.0
 11
62610.55284684963
 21
-27818.09654185089
 31
0.0
 11
62601.41844873547
 21
-27818.09654185089
 31
0.0
 11
62592.28155786529
 21
-27818.09654185089
 31
0.0
 11
62583.14992243287
 21
-27818.11052675563
 31
0.0
 11
62574.07046571749
 21
-27819.00032458239
 31
0.0
 11
62565.24808842202
 21
-27821.25054622355
 31
0.0
 11
62556.83546357342
 21
-27824.82650195709
 31
0.0
 11
62549.07911608388
 21
-27829.62765168428
 31
0.0
 11
62542.14756026203
 21
-27835.54185295973
 31
0.0
 11
62536.19402891278
 21
-27842.43402344507
 31
0.0
 11
62531.34553291762
 21
-27850.16063029558
 31
0.0
 11
62527.72193122152
 21
-27858.53996030096
 31
0.0
 11
62525.41392215711
 21
-27867.35890265537
 31
0.0
 11
62524.46810842005
 21
-27876.44216483174
 31
0.0
 11
62524.44529605519
 21
-27885.5960421018
 31
0.0
 11
62524.44529605519
 21
-27894.69996247656
 31
0.0
 11
62524.44529605519
 21
-27903.82377213607
 31
0.0
 11
62524.44543954489
 21
-27912.09654186428
 31
0.0
  0
LINE
  5
59
330
2
100
AcDbEntity
  8
0000000000001
  6
Continuous
 62
     7
100
AcDbLine
 10
63144.44529605531
 20
-27818.09654165275
 30
0.0
 11
63150.80529575076
 21
-27818.09654086788
 31
0.0
  0
SPLINE
  5
5A
330
2
100
AcDbEntity
  8
0000000000001
  6
Continuous
 62
     7
100
AcDbSpline
210
0.0
220
0.0
230
1.0
 70
     8
 71
     3
 72
    30
 73
    26
 74
    24
 42
0.0000000001
 43
0.0000000001
 44
0.0000000001
 12
0.9999999999999593
 22
-0.0000002854812497
 32
0.0
 13
0.000186223127775
 23
-0.9999999826604732
 33
0.0
 40
0.0
 40
0.0
 40
0.0
 40
0.0
 40
1.902239195304245
 40
11.02263026108292
 40
20.16712636878972
 40
29.27368948148822
 40
38.40347079263327
 40
47.53244951204422
 40
56.66684762621324
 40
65.80373849649939
 40
74.93538463764908
 40
84.05833780084655
 40
93.16316281716982
 40
102.3042632023263
 40
111.4263224589571
 40
120.5380864396327
 40
129.6455860703856
 40
138.7674480972674
 40
147.896723018699
 40
157.0126788156699
 40
166.1450506537873
 40
175.2989563491333
 40
184.4028767238974
 40
193.5266863834018
 40
201.799456112856
 40
201.799456112856
 40
201.799456112856
 40
201.799456112856
 10
63150.80529575076
 20
-27818.09654086788
 30
0.0
 10
63151.43937548253
 20
-27818.0965410489
 30
0.0
 10
63155.11358557275
 20
-27818.09654285555
 30
0.0
 10
63161.83596096694
 20
-27818.09655712203
 30
0.0
 10
63170.95977799817
 20
-27818.09648480507
 30
0.0
 10
63180.08672385238
 20
-27818.09675397176
 30
0.0
 10
63189.20850192923
 20
-27818.09574788308
 30
0.0
 10
63198.33954084286
 20
-27818.09950520892
 30
0.0
 10
63207.47301494987
 20
-27818.08547388997
 30
0.0
 10
63216.60713427451
 20
-27818.13784974358
 30
0.0
 10
63225.73834839661
 20
-27817.94254081134
 30
0.0
 10
63234.85541956659
 20
-27818.75396166152
 30
0.0
 10
63243.72788299384
 20
-27821.03915017609
 30
0.0
 10
63252.15659246997
 20
-27824.61590172694
 30
0.0
 10
63259.94527557105
 20
-27829.43872949111
 30
0.0
 10
63266.90523377564
 20
-27835.3766354304
 30
0.0
 10
63272.88543729267
 20
-27842.30022665445
 30
0.0
 10
63277.75272108821
 20
-27850.0545965489
 30
0.0
 10
63281.38287950536
 20
-27858.46047145429
 30
0.0
 10
63283.71994855596
 20
-27867.32146280058
 30
0.0
 10
63284.60366230821
 20
-27876.44768574325
 30
0.0
 10
63284.40308000981
 20
-27885.57981471198
 30
0.0
 10
63284.45661242103
 20
-27894.7064749078
 30
0.0
 10
63284.44269547504
 20
-27903.54012235074
 30
0.0
 10
63284.44463904054
 20
-27909.33895200228
 30
0.0
 10
63284.44515256755
 20
-27912.09654186428
 30
0.0
 11
63150.80529575076
 21
-27818.09654086788
 31
0.0
 11
63152.70753494607
 21
-27818.09654185089
 31
0.0
 11
63161.82792601184
 21
-27818.09654185089
 31
0.0
 11
63170.97242211954
 21
-27818.09654185089
 31
0.0
 11
63180.07898523225
 21
-27818.09654185089
 31
0.0
 11
63189.20876654339
 21
-27818.09654185089
 31
0.0
 11
63198.3377452628
 21
-27818.09654185089
 31
0.0
 11
63207.47214337697
 21
-27818.09654185089
 31
0.0
 11
63216.60903424726
 21
-27818.09654185089
 31
0.0
 11
63225.74066967963
 21
-27818.11052675563
 31
0.0
 11
63234.82012639495
 21
-27819.00032458239
 31
0.0
 11
63243.64250369041
 21
-27821.25054622355
 31
0.0
 11
63252.05512853901
 21
-27824.82650195709
 31
0.0
 11
63259.81147602855
 21
-27829.62765168428
 31
0.0
 11
63266.74303185052
 21
-27835.54185295973
 31
0.0
 11
63272.69656319965
 21
-27842.43402344507
 31
0.0
 11
63277.54505919481
 21
-27850.16063029558
 31
0.0
 11
63281.16866089092
 21
-27858.53996030096
 31
0.0
 11
63283.47666995544
 21
-27867.35890265537
 31
0.0
 11
63284.42248369238
 21
-27876.44216483174
 31
0.0
 11
63284.44529605723
 21
-27885.5960421018
 31
0.0
 11
63284.44529605723
 21
-27894.69996247656
 31
0.0
 11
63284.44529605723
 21
-27903.82377213607
 31
0.0
 11
63284.44515256755
 21
-27912.09654186428
 31
0.0
  0
LINE
  5
5B
330
2
100
AcDbEntity
  8
0000000000001
  6
Continuous
 62
     7
100
AcDbLine
 10
63284.44522431239
 20
-27912.09654185147
 30
0.0
 11
63284.44529605723
 21
-27922.09654185147
 31
0.0
  0
LINE
  5
5C
330
2
100
AcDbEntity
  8
0000000000001
  6
Continuous
 62
     7
100
AcDbLine
 10
63284.44529605723
 20
-27922.09654185147
 30
0.0
 11
63284.44529605723
 21
-27932.09654185147
 31
0.0
  0
SPLINE
  5
5D
330
2
100
AcDbEntity
  8
0000000000001
  6
Continuous
 62
     7
100
AcDbSpline
210
0.0
220
0.0
230
1.0
 70
     8
 71
     3
 72
    29
 73
    25
 74
    23
 42
0.0000000001
 43
0.0000000001
 44
0.0000000001
 12
0.000000178510104
 22
-0.9999999999999841
 32
0.0
 13
-0.9999999999964067
 23
-0.0000026807561159
 33
0.0
 40
0.0
 40
0.0
 40
0.0
 40
0.0
 40
3.381151088863198
 40
16.73033689742494
 40
30.14828125014953
 40
43.50120223290338
 40
56.88861435558699
 40
70.25314390531327
 40
83.60797109967149
 40
96.98891246062755
 40
110.3418723937348
 40
123.6867079161894
 40
137.0354477865295
 40
150.3921770354581
 40
163.7306157047985
 40
177.1173967922157
 40
190.4273447652385
 40
203.8051232095886
 40
217.1642776545914
 40
230.5356878459416
 40
243.9267755366009
 40
257.2828370642228
 40
270.6945740532674
 40
274.0583737468496
 40
274.0583737468496
 40
274.0583737468496
 40
274.0583737468496
 10
63284.44529418527
 20
-28022.09654185112
 30
0.0
 10
63284.44529438646
 20
-28023.22359221408
 30
0.0
 10
63284.4452971222
 20
-28028.80037153675
 30
0.0
 10
63284.44532698044
 20
-28038.84979289929
 30
0.0
 10
63284.44518077104
 20
-28052.2231679141
 30
0.0
 10
63284.44572424037
 20
-28065.60916975573
 30
0.0
 10
63284.44369441716
 20
-28078.97779561153
 30
0.0
 10
63284.45125979778
 20
-28092.34545773568
 30
0.0
 10
63284.42303753852
 20
-28105.71692721909
 30
0.0
 10
63284.52847556329
 20
-28119.06226469277
 30
0.0
 10
63284.13568762609
 20
-28132.48730462958
 30
0.0
 10
63280.24677251145
 20
-28145.41290993332
 30
0.0
 10
63273.74066274511
 20
-28157.1784234665
 30
0.0
 10
63264.75644878651
 20
-28167.20892585736
 30
0.0
 10
63253.77586734117
 20
-28175.00699644058
 30
0.0
 10
63241.35814347678
 20
-28180.19975766414
 30
0.0
 10
63228.06743595291
 20
-28182.4298222013
 30
0.0
 10
63214.70107597457
 20
-28182.00718952711
 30
0.0
 10
63201.33629297988
 20
-28182.12049308475
 30
0.0
 10
63187.96115795569
 20
-28182.09011044779
 30
0.0
 10
63174.58864066097
 20
-28182.09826164861
 30
0.0
 10
63161.20225434404
 20
-28182.09607680944
 30
0.0
 10
63151.15840949707
 20
-28182.09652646943
 30
0.0
 10
63145.56656261983
 20
-28182.0965662817
 30
0.0
 10
63144.44529605531
 20
-28182.09656928754
 30
0.0
 11
63284.44529418527
 21
-28022.09654185112
 31
0.0
 11
63284.44529605723
 21
-28025.47769293999
 31
0.0
 11
63284.44529605723
 21
-28038.82687874855
 31
0.0
 11
63284.44529605723
 21
-28052.24482310127
 31
0.0
 11
63284.44529605723
 21
-28065.59774408403
 31
0.0
 11
63284.44529605723
 21
-28078.98515620671
 31
0.0
 11
63284.44529605723
 21
-28092.34968575644
 31
0.0
 11
63284.44529605723
 21
-28105.70451295079
 31
0.0
 11
63284.44529605723
 21
-28119.08545431175
 31
0.0
 11
63283.55251052257
 21
-28132.40853477252
 31
0.0
 11
63279.81124936396
 21
-28145.21820299869
 31
0.0
 11
63273.3288698142
 21
-28156.88729085931
 31
0.0
 11
63264.42090997958
 21
-28166.83970101033
 31
0.0
 11
63253.54800793071
 21
-28174.56588682038
 31
0.0
 11
63241.19012745734
 21
-28179.7126040351
 31
0.0
 11
63228.07587325401
 21
-28181.98659869977
 31
0.0
 11
63214.69854659246
 21
-28182.09654185054
 31
0.0
 11
63201.33939214747
 21
-28182.09654185054
 31
0.0
 11
63187.96798195611
 21
-28182.09654185054
 31
0.0
 11
63174.57689426545
 21
-28182.09654185054
 31
0.0
 11
63161.22083273783
 21
-28182.09654185054
 31
0.0
 11
63147.80909574879
 21
-28182.09654185054
 31
0.0
 11
63144.44529605531
 21
-28182.09656928754
 31
0.0
  0
LINE
  5
5E
330
2
100
AcDbEntity
  8
0000000000001
  6
Continuous
 62
     7
100
AcDbLine
 10
63144.44529605531
 20
-27818.09654345114
 30
0.0
 11
63141.14944571277
 21
-27818.09662217083
 31
0.0
  0
LINE
  5
5F
330
2
100
AcDbEntity
  8
0000000000001
  6
Continuous
 62
     7
100
AcDbLine
 10
63141.14944571277
 20
-27818.09662217083
 30
0.0
 11
63127.74977357391
 21
-27818.09796046367
 31
0.0
  0
LINE
  5
60
330
2
100
AcDbEntity
  8
0000000000001
  6
Continuous
 62
     7
100
AcDbLine
 10
63127.74977357391
 20
-27818.09796046367
 30
0.0
 11
63125.44530205385
 21
-27818.09803632595
 31
0.0
  0
LINE
  5
61
330
2
100
AcDbEntity
  8
0000000000001
  6
Continuous
 62
     7
100
AcDbLine
 10
63125.44530205385
 20
-27818.09803632595
 30
0.0
 11
63124.44529605532
 21
-27818.09803968383
 31
0.0
  0
LINE
  5
62
330
2
100
AcDbEntity
  8
06___PRT_ALL_SURFS
  6
Continuous
 62
     7
100
AcDbLine
 10
62684.4501874455
 20
-27876.96112092977
 30
0.0
 11
62681.60672050359
 21
-27876.9611815164
 31
0.0
  0
LINE
  5
64
330
2
100
AcDbEntity
  8
06___PRT_ALL_SURFS
  6
Continuous
 62
     7
100
AcDbLine
 10
62684.44438202417
 20
-27876.96095015032
 30
0.0
 11
62698.99255273218
 21
-27876.96102273845
 31
0.0
  0
SPLINE
  5
65
330
2
100
AcDbEntity
  8
06___PRT_ALL_SURFS
  6
Continuous
 62
     7
100
AcDbSpline
210
0.0
220
0.0
230
1.0
 70
     8
 71
     3
 72
    10
 73
     6
 74
     4
 42
0.0000000001
 43
0.0000000001
 44
0.0000000001
 12
0.9999999775440391
 22
-0.0002119243289618
 32
0.0
 13
0.999999793249141
 23
-0.0006430409592902
 33
0.0
 40
0.0
 40
0.0
 40
0.0
 40
0.0
 40
60.62015081947738
 40
119.0990671490606
 40
175.4518301054911
 40
175.4518301054911
 40
175.4518301054911
 40
175.4518301054911
 10
62698.99255273218
 20
-27876.96102273845
 30
0.0
 10
62719.19926921824
 20
-27876.96530503338
 30
0.0
 10
62758.89895949342
 20
-27876.95698817324
 30
0.0
 10
62817.382900153
 20
-27876.96785750234
 30
0.0
 10
62855.66013240096
 20
-27876.9488999014
 30
0.0
 10
62874.4443828361
 20
-27876.96097894632
 30
0.0
 11
62698.99255273218
 21
-27876.96102273845
 31
0.0
 11
62759.61270355153
 21
-27876.96090478086
 31
0.0
 11
62818.09161988022
 21
-27876.96122775203
 31
0.0
 11
62874.4443828361
 21
-27876.96097894632
 31
0.0
  0
LINE
  5
66
330
2
100
AcDbEntity
  8
06___PRT_ALL_SURFS
  6
Continuous
 62
     7
100
AcDbLine
 10
62664.44433097273
 20
-27876.96115371608
 30
0.0
 11
62681.60672699835
 21
-27876.96077887559
 31
0.0
  0
SPLINE
  5
67
330
2
100
AcDbEntity
  8
06___PRT_ALL_SURFS
  6
Continuous
 62
     7
100
AcDbSpline
210
0.0
220
0.0
230
1.0
 70
     8
 71
     3
 72
    13
 73
     9
 74
     0
 42
0.0000000001
 43
0.0000000001
 40
2.233762542779173
 40
2.233762542779173
 40
2.233762542779173
 40
2.233762542779173
 40
3.746704796302974
 40
7.935131500846654
 40
12.49200059818712
 40
17.32864961051674
 40
22.37349288227065
 40
27.55885368679467
 40
27.55885368679467
 40
27.55885368679467
 40
27.55885368679467
 10
62633.34044137524
 20
-27891.12422340201
 30
0.0
 10
62633.47990152745
 20
-27890.63921991791
 30
0.0
 10
62634.05636628021
 20
-27888.82820197416
 30
0.0
 10
62635.67973426672
 20
-27885.77956825496
 30
0.0
 10
62638.58838170248
 20
-27882.26616592478
 30
0.0
 10
62642.49659185405
 20
-27879.37551641863
 30
0.0
 10
62647.18351586246
 20
-27877.4167606482
 30
0.0
 10
62650.60940560426
 20
-27877.00559342678
 30
0.0
 10
62652.33728819672
 20
-27876.96116821694
 30
0.0
  0
LINE
  5
68
330
2
100
AcDbEntity
  8
06___PRT_ALL_SURFS
  6
Continuous
 62
     7
100
AcDbLine
 10
62652.33729026181
 20
-27876.96184351658
 30
0.0
 11
62664.44434065773
 21
-27876.96055152782
 31
0.0
  0
LINE
  5
69
330
2
100
AcDbEntity
  8
06___PRT_ALL_SURFS
  6
Continuous
 62
     7
100
AcDbLine
 10
63156.55147146311
 20
-27876.96184351658
 30
0.0
 11
63144.44442106713
 21
-27876.96055152782
 31
0.0
  0
SPLINE
  5
6A
330
2
100
AcDbEntity
  8
06___PRT_ALL_SURFS
  6
Continuous
 62
     7
100
AcDbSpline
210
0.0
220
0.0
230
1.0
 70
     8
 71
     3
 72
    13
 73
     9
 74
     0
 42
0.0000000001
 43
0.0000000001
 40
2.542247707783699
 40
2.542247707783699
 40
2.542247707783699
 40
2.542247707783699
 40
3.746704796989734
 40
7.935131500383197
 40
12.49200059936473
 40
17.32864960963849
 40
22.3734928813924
 40
27.55885368603178
 40
27.55885368603178
 40
27.55885368603178
 40
27.55885368603178
 10
63175.46124828789
 20
-27890.82813418732
 30
0.0
 10
63175.34552465297
 20
-27890.44358312237
 30
0.0
 10
63174.78357760965
 20
-27888.73652363109
 30
0.0
 10
63173.20902745945
 20
-27885.77956825314
 30
0.0
 10
63170.30038001949
 20
-27882.26616592671
 30
0.0
 10
63166.3921698709
 20
-27879.37551641765
 30
0.0
 10
63161.70524586222
 20
-27877.4167606484
 30
0.0
 10
63158.27935612057
 20
-27877.00559342678
 30
0.0
 10
63156.55147352809
 20
-27876.96116821694
 30
0.0
  0
LINE
  5
6B
330
2
100
AcDbEntity
  8
06___PRT_ALL_SURFS
  6
Continuous
 62
     7
100
AcDbLine
 10
63144.44443075219
 20
-27876.96115371608
 30
0.0
 11
63127.28203472396
 21
-27876.96077887559
 31
0.0
  0
LINE
  5
6C
330
2
100
AcDbEntity
  8
06___PRT_ALL_SURFS
  6
Continuous
 62
     7
100
AcDbLine
 10
63124.44437970075
 20
-27876.96095015032
 30
0.0
 11
63109.89620899275
 21
-27876.96102273845
 31
0.0
  0
SPLINE
  5
6D
330
2
100
AcDbEntity
  8
06___PRT_ALL_SURFS
  6
Continuous
 62
     7
100
AcDbSpline
210
0.0
220
0.0
230
1.0
 70
     8
 71
     3
 72
    10
 73
     6
 74
     4
 42
0.0000000001
 43
0.0000000001
 44
0.0000000001
 12
-0.9999999775440391
 22
-0.0002119243289618
 32
0.0
 13
-0.999999793249141
 23
-0.0006430409592902
 33
0.0
 40
0.0
 40
0.0
 40
0.0
 40
0.0
 40
60.62015081947738
 40
119.0990671491188
 40
175.4518301054911
 40
175.4518301054911
 40
175.4518301054911
 40
175.4518301054911
 10
63109.89620899275
 20
-27876.96102273845
 30
0.0
 10
63089.68949250669
 20
-27876.96530503338
 30
0.0
 10
63049.98980223149
 20
-27876.95698817323
 30
0.0
 10
62991.5058615719
 20
-27876.96785750235
 30
0.0
 10
62953.22862932394
 20
-27876.9488999014
 30
0.0
 10
62934.44437888881
 20
-27876.96097894632
 30
0.0
 11
63109.89620899275
 21
-27876.96102273845
 31
0.0
 11
63049.27605817339
 21
-27876.96090478086
 31
0.0
 11
62990.79714184464
 21
-27876.96122775203
 31
0.0
 11
62934.44437888881
 21
-27876.96097894632
 31
0.0
  0
LINE
  5
6E
330
2
100
AcDbEntity
  8
06___PRT_ALL_SURFS
  6
Continuous
 62
     7
100
AcDbLine
 10
63124.43857427931
 20
-27876.96112092977
 30
0.0
 11
63127.28204122133
 21
-27876.9611815164
 31
0.0
  0
LINE
  5
6F
330
2
100
AcDbEntity
  8
尺寸标注
 62
     0
100
AcDbLine
 10
62633.34044137524
 20
-27891.12422340201
 30
0.0
 11
63175.46124828789
 21
-27890.82813418732
 31
0.0
  0
LINE
  5
70
330
2
100
AcDbEntity
  8
尺寸标注
 62
     0
100
AcDbLine
 10
62874.4443828361
 20
-27876.96097894632
 30
0.0
 11
62934.44437888881
 21
-27876.96097894632
 31
0.0
  0
LINE
  5
71
330
2
100
AcDbEntity
  8
0
  6
Continuous
 62
     7
100
AcDbLine
 10
62304.32271733184
 20
-27284.52923655862
 30
0.0
 11
62307.99549171599
 21
-27179.35473907474
 31
0.0
  0
LINE
  5
72
330
2
100
AcDbEntity
  8
0
  6
Continuous
 62
     7
100
AcDbLine
 10
62576.38201989748
 20
-27289.70373404296
 30
0.0
 11
62578.5040260294
 21
-27320.04983553258
 31
0.0
  0
LINE
  5
73
330
2
100
AcDbEntity
  8
0000000000001
  6
Continuous
 62
     7
100
AcDbLine
 10
62629.34202008849
 20
-27291.10488145149
 30
0.0
 11
62629.34200129754
 21
-27292.01350656096
 31
0.0
  0
LINE
  5
74
330
2
100
AcDbEntity
  8
0000000000001
  6
Continuous
 62
     7
100
AcDbLine
 10
62627.40088786467
 20
-27291.98632695808
 30
0.0
 11
62627.40183139083
 21
-27291.11075073868
 31
0.0
  0
LINE
  5
75
330
2
100
AcDbEntity
  8
0000000000001
  6
Continuous
 62
     7
100
AcDbLine
 10
62625.94201989847
 20
-27291.9427503676
 30
0.0
 11
62625.94214729211
 21
-27291.25220103506
 31
0.0
  0
LINE
  5
76
330
2
100
AcDbEntity
  8
0000000000001
  6
Continuous
 62
     7
100
AcDbLine
 10
62632.39838572839
 20
-27290.05708840608
 30
0.0
 11
62632.40843936338
 21
-27291.60181304838
 31
0.0
  0
LINE
  5
77
330
2
100
AcDbEntity
  8
0000000000001
  6
Continuous
 62
     7
100
AcDbLine
 10
62662.62010671737
 20
-27298.8012726221
 30
0.0
 11
62662.60612221903
 21
-27298.7611264539
 31
0.0
  0
LINE
  5
78
330
2
100
AcDbEntity
  8
0000000000001
  6
Continuous
 62
     7
100
AcDbLine
 10
62625.94205010918
 20
-27291.8995385871
 30
0.0
 11
62625.94652534023
 21
-27291.86494139445
 31
0.0
  0
LINE
  5
79
330
2
100
AcDbEntity
  8
0000000000001
  6
Continuous
 62
     7
100
AcDbLine
 10
62687.43199750504
 20
-27302.47517012319
 30
0.0
 11
62687.43198505396
 21
-27301.80107299276
 31
0.0
  0
LINE
  5
7A
330
2
100
AcDbEntity
  8
0000000000001
  6
Continuous
 62
     7
100
AcDbLine
 10
62631.7535646558
 20
-27294.35942903944
 30
0.0
 11
62631.73556181651
 21
-27294.34898224301
 31
0.0
  0
LINE
  5
7B
330
2
100
AcDbEntity
  8
0
  6
Continuous
 62
     7
100
AcDbLine
 10
62742.14434252251
 20
-27319.55891143184
 30
0.0
 11
62742.76175675381
 21
-27310.72947657099
 31
0.0
  0
LINE
  5
7C
330
2
100
AcDbEntity
  8
0
  6
Continuous
 62
     7
100
AcDbLine
 10
62763.05105218469
 20
-27292.30107407822
 30
0.0
 11
62763.04658827701
 21
-27297.28004499644
 31
0.0
  0
LWPOLYLINE
  5
7D
330
2
100
AcDbEntity
  8
0
  6
Continuous
 62
     7
100
AcDbPolyline
 90
        6
 70
     0
 43
0.0
 10
62861.05124645578
 20
-27296.59103003473
 10
62860.63486292228
 20
-27295.00022094804
 10
62859.43235000599
 20
-27293.35204416819
 10
62858.23156617189
 20
-27292.56135509433
 10
62857.61628514938
 20
-27292.33456963222
 10
62857.51951453023
 20
-27292.3096681149
  0
LINE
  5
7E
330
2
100
AcDbEntity
  8
0
  6
Continuous
 62
     7
100
AcDbLine
 10
62947.81290426562
 20
-27296.59031312229
 30
0.0
 11
62947.6870300876
 21
-27296.50097306471
 31
0.0
  0
LINE
  5
7F
330
2
100
AcDbEntity
  8
0
  6
Continuous
 62
     7
100
AcDbLine
 10
63490.87463981126
 20
-27169.70373404099
 30
0.0
 11
62317.98939998578
 21
-27169.70373404099
 31
0.0
  0
LINE
  5
80
330
2
100
AcDbEntity
  8
0
  6
Continuous
 62
     7
100
AcDbLine
 10
63460.89291499965
 20
-27179.35473907474
 30
0.0
 11
62941.19056208327
 21
-27179.35473907474
 31
0.0
  0
LINE
  5
81
330
2
100
AcDbEntity
  8
0
  6
Continuous
 62
     7
100
AcDbLine
 10
62941.19056208327
 20
-27179.35473907474
 30
0.0
 11
62347.97112479739
 21
-27179.35473907474
 31
0.0
  0
LINE
  5
82
330
2
100
AcDbEntity
  8
0
  6
Continuous
 62
     7
100
AcDbLine
 10
62857.54308357116
 20
-27292.37106164722
 30
0.0
 11
62857.53819754851
 21
-27297.35057213765
 31
0.0
  0
LINE
  5
83
330
2
100
AcDbEntity
  8
0
  6
Continuous
 62
     7
100
AcDbLine
 10
62904.43201989718
 20
-27295.39511704436
 30
0.0
 11
62904.43201989718
 21
-27289.70373404296
 31
0.0
  0
LINE
  5
84
330
2
100
AcDbEntity
  8
06___PRT_ALL_SURFS
  6
Continuous
 62
     7
100
AcDbLine
 10
62865.05571313566
 20
-27341.15106284225
 30
0.0
 11
62861.05118549071
 21
-27296.590868859
 31
0.0
  0
LINE
  5
85
330
2
100
AcDbEntity
  8
0
  6
Continuous
 62
     7
100
AcDbLine
 10
62861.05113554667
 20
-27296.59031328725
 30
0.0
 11
62861.05114765992
 21
-27296.59044479325
 31
0.0
  0
LINE
  5
86
330
2
100
AcDbEntity
  8
0
  6
Continuous
 62
     7
100
AcDbLine
 10
62344.29835041324
 20
-27284.52923655862
 30
0.0
 11
63464.5656893838
 21
-27284.52923655862
 31
0.0
  0
LINE
  5
87
330
2
100
AcDbEntity
  8
0
  6
Continuous
 62
     7
100
AcDbLine
 10
62947.8128930362
 20
-27296.59043523777
 30
0.0
 11
62947.81290426562
 21
-27296.59031312229
 31
0.0
  0
LINE
  5
88
330
2
100
AcDbEntity
  8
06___PRT_ALL_SURFS
  6
Continuous
 62
     7
100
AcDbLine
 10
62947.81285434452
 20
-27296.59086842209
 30
0.0
 11
62943.80832625241
 21
-27341.15106739409
 31
0.0
  0
LINE
  5
89
330
2
100
AcDbEntity
  8
0
  6
Continuous
 62
     7
100
AcDbLine
 10
62951.32584377265
 20
-27297.35055543718
 30
0.0
 11
62951.3210723979
 21
-27292.43541327611
 31
0.0
  0
LINE
  5
8A
330
2
100
AcDbEntity
  8
0000000000001
  6
Continuous
 62
     7
100
AcDbLine
 10
62626.31802685783
 20
-27293.35741061673
 30
0.0
 11
62622.88342711542
 21
-27292.53616197224
 31
0.0
  0
LINE
  5
8B
330
2
100
AcDbEntity
  8
0000000000001
  6
Continuous
 62
     7
100
AcDbLine
 10
62628.34525273999
 20
-27293.77642469111
 30
0.0
 11
62626.31802685783
 21
-27293.35741061673
 31
0.0
  0
LINE
  5
8C
330
2
100
AcDbEntity
  8
0
  6
Continuous
 62
     7
100
AcDbLine
 10
62628.38216469043
 20
-27293.78357047055
 30
0.0
 11
62628.34525273999
 21
-27293.77642469111
 31
0.0
  0
LINE
  5
8D
330
2
100
AcDbEntity
  8
0000000000001
  6
Continuous
 62
     7
100
AcDbLine
 10
62629.58356528232
 20
-27294.00634597885
 30
0.0
 11
62628.38216469043
 21
-27293.78357047055
 31
0.0
  0
LINE
  5
8E
330
2
100
AcDbEntity
  8
0
  6
Continuous
 62
     7
100
AcDbLine
 10
62631.73556181651
 20
-27294.34898224301
 30
0.0
 11
62628.38216469043
 21
-27293.78357047055
 31
0.0
  0
LINE
  5
8F
330
2
100
AcDbEntity
  8
0000000000001
  6
Continuous
 62
     7
100
AcDbLine
 10
62631.06952792641
 20
-27294.2551039496
 30
0.0
 11
62629.58356528232
 21
-27294.00634597885
 31
0.0
  0
LINE
  5
90
330
2
100
AcDbEntity
  8
0000000000001
  6
Continuous
 62
     7
100
AcDbLine
 10
62620.79652625244
 20
-27291.42321507181
 30
0.0
 11
62620.76167727206
 21
-27291.41739797665
 31
0.0
  0
LINE
  5
91
330
2
100
AcDbEntity
  8
0000000000001
  6
Continuous
 62
     7
100
AcDbLine
 10
62662.62043656435
 20
-27298.80132513403
 30
0.0
 11
62662.62010671737
 21
-27298.8012726221
 31
0.0
  0
LINE
  5
92
330
2
100
AcDbEntity
  8
0000000000001
  6
Continuous
 62
     7
100
AcDbLine
 10
62631.75357940051
 20
-27294.35943121873
 30
0.0
 11
62631.06952792641
 21
-27294.2551039496
 31
0.0
  0
LINE
  5
93
330
2
100
AcDbEntity
  8
0000000000001
  6
Continuous
 62
     7
100
AcDbLine
 10
62676.38913458181
 20
-27300.81546907374
 30
0.0
 11
62662.62031874634
 21
-27298.80131043764
 31
0.0
  0
LINE
  5
94
330
2
100
AcDbEntity
  8
0000000000001
  6
Continuous
 62
     7
100
AcDbLine
 10
62642.14613148049
 20
-27295.87429923811
 30
0.0
 11
62631.7535646558
 21
-27294.35942903944
 31
0.0
  0
LINE
  5
95
330
2
100
AcDbEntity
  8
0000000000001
  6
Continuous
 62
     7
100
AcDbLine
 10
62662.62043656435
 20
-27298.80132513403
 30
0.0
 11
62642.14613148049
 21
-27295.87429923811
 31
0.0
  0
LINE
  5
96
330
2
100
AcDbEntity
  8
0
  6
Continuous
 62
     7
100
AcDbLine
 10
62620.60038941076
 20
-27291.3972872014
 30
0.0
 11
62620.82861075017
 21
-27291.42351628284
 31
0.0
  0
LWPOLYLINE
  5
97
330
2
100
AcDbEntity
  8
0000000000001
  6
Continuous
 62
     7
100
AcDbPolyline
 90
        6
 70
     0
 43
0.0
 10
62620.79175432902
 20
-27291.41933665194
 10
62619.53926938926
 20
-27291.31745156741
 10
62617.52457727949
 20
-27291.14347158259
 10
62614.43142390778
 20
-27290.7809197322
 10
62610.89024062178
 20
-27290.16217125664
 10
62609.0890769698
 20
-27289.70373404296
  0
LINE
  5
98
330
2
100
AcDbEntity
  8
0
  6
Continuous
 62
     7
100
AcDbLine
 10
62857.51929758876
 20
-27292.30673788444
 30
0.0
 11
62856.74892847674
 21
-27292.24794261719
 31
0.0
  0
LWPOLYLINE
  5
99
330
2
100
AcDbEntity
  8
0000000000001
  6
Continuous
 62
     7
100
AcDbPolyline
 90
        4
 70
     0
 43
0.0
 10
62863.20951356916
 20
-27320.60382165599
 10
62809.67136237296
 20
-27317.80739579085
 10
62747.92734803041
 20
-27311.50009938088
 10
62676.38913458181
 20
-27300.81546907374
  0
LINE
  5
9A
330
2
100
AcDbEntity
  8
0
  6
Continuous
 62
     7
100
AcDbLine
 10
62309.31967146802
 20
-27289.70373404296
 30
0.0
 11
63499.54436832902
 21
-27289.70373404296
 31
0.0
  0
LINE
  5
9B
330
2
100
AcDbEntity
  8
0
  6
Continuous
 62
     7
100
AcDbLine
 10
62742.14434252251
 20
-27319.55891143184
 30
0.0
 11
62667.34536769861
 21
-27319.55891143184
 31
0.0
  0
LINE
  5
9C
330
2
100
AcDbEntity
  8
0
  6
Continuous
 62
     7
100
AcDbLine
 10
63066.71969727453
 20
-27319.55891143184
 30
0.0
 11
63141.51867209831
 21
-27319.55891143184
 31
0.0
  0
LINE
  5
9D
330
2
100
AcDbEntity
  8
0
  6
Continuous
 62
     7
100
AcDbLine
 10
62578.5040260294
 20
-27320.04983553258
 30
0.0
 11
62660.0015618884
 21
-27320.04983553258
 31
0.0
  0
LINE
  5
9E
330
2
100
AcDbEntity
  8
0
  6
Continuous
 62
     7
100
AcDbLine
 10
63148.86247790608
 20
-27320.04983553258
 30
0.0
 11
63230.36001376507
 21
-27320.04983553258
 31
0.0
  0
LINE
  5
9F
330
2
100
AcDbEntity
  8
0
  6
Continuous
 62
     7
100
AcDbLine
 10
62938.82878203833
 20
-27345.70373404168
 30
0.0
 11
62870.03550485501
 21
-27345.70373404168
 31
0.0
  0
LINE
  5
A0
330
2
100
AcDbEntity
  8
0
  6
Continuous
 62
     7
100
AcDbLine
 10
62945.03826552982
 20
-27320.63607083706
 30
0.0
 11
62945.03865838159
 21
-27320.63605632344
 31
0.0
  0
LINE
  5
A1
330
2
100
AcDbEntity
  8
0
  6
Continuous
 62
     7
100
AcDbLine
 10
62951.34629011471
 20
-27292.30647346287
 30
0.0
 11
62952.11511131274
 21
-27292.2479342531
 31
0.0
  0
LWPOLYLINE
  5
A2
330
2
100
AcDbEntity
  8
0000000000001
  6
Continuous
 62
     7
100
AcDbPolyline
 90
        3
 70
     0
 43
0.0
 10
63060.93669118491
 20
-27311.50009945713
 10
62999.19267611849
 20
-27317.80739588736
 10
62945.65452619481
 20
-27320.60382201409
  0
LINE
  5
A3
330
2
100
AcDbEntity
  8
0
  6
Continuous
 62
     7
100
AcDbLine
 10
63188.26365074448
 20
-27291.39728716088
 30
0.0
 11
63188.03542902405
 21
-27291.42351628552
 31
0.0
  0
LINE
  5
A4
330
2
100
AcDbEntity
  8
0000000000001
  6
Continuous
 62
     7
100
AcDbLine
 10
63146.2436032327
 20
-27298.80132513403
 30
0.0
 11
63146.24372105059
 21
-27298.80131043764
 31
0.0
  0
LINE
  5
A5
330
2
100
AcDbEntity
  8
0000000000001
  6
Continuous
 62
     7
100
AcDbLine
 10
63177.11047514123
 20
-27294.35942903944
 30
0.0
 11
63141.38064926807
 21
-27299.50437428164
 31
0.0
  0
LINE
  5
A6
330
2
100
AcDbEntity
  8
0000000000001
  6
Continuous
 62
     7
100
AcDbLine
 10
63176.37761814872
 20
-27294.46675305898
 30
0.0
 11
63176.37768449102
 21
-27294.46674319872
 31
0.0
  0
LINE
  5
A7
330
2
100
AcDbEntity
  8
0000000000001
  6
Continuous
 62
     7
100
AcDbLine
 10
63141.38064926807
 20
-27299.50437428164
 30
0.0
 11
63060.93669118491
 21
-27311.50009945713
 31
0.0
  0
LINE
  5
A8
330
2
100
AcDbEntity
  8
0
  6
Continuous
 62
     7
100
AcDbLine
 10
62951.34473580998
 20
-27292.30671713783
 30
0.0
 11
62951.34629011471
 21
-27292.30647346287
 31
0.0
  0
LINE
  5
A9
330
2
100
AcDbEntity
  8
0
  6
Continuous
 62
     7
100
AcDbLine
 10
63177.12847798053
 20
-27294.34898224301
 30
0.0
 11
63180.48187510404
 21
-27293.78357047055
 31
0.0
  0
LWPOLYLINE
  5
AA
330
2
100
AcDbEntity
  8
0
  6
Continuous
 62
     7
100
AcDbPolyline
 90
        3
 70
     0
 43
0.0
 10
62951.3936111301
 20
-27292.29861240406
 10
62951.39963048816
 20
-27292.29750189083
 10
62951.20130864196
 20
-27292.34772088602
  0
LINE
  5
AB
330
2
100
AcDbEntity
  8
0
  6
Continuous
 62
     7
100
AcDbLine
 10
62951.20130864196
 20
-27292.34772088602
 30
0.0
 11
62950.44499606013
 21
-27292.65243496306
 31
0.0
  0
LINE
  5
AC
330
2
100
AcDbEntity
  8
0
  6
Continuous
 62
     7
100
AcDbLine
 10
62861.17700970944
 20
-27296.50097306471
 30
0.0
 11
62861.05113554667
 21
-27296.59031328725
 31
0.0
  0
LINE
  5
AD
330
2
100
AcDbEntity
  8
0
  6
Continuous
 62
     7
100
AcDbLine
 10
62950.44499606013
 20
-27292.65243496306
 30
0.0
 11
62949.23849058887
 21
-27293.53528528
 31
0.0
  0
LINE
  5
AE
330
2
100
AcDbEntity
  8
0
  6
Continuous
 62
     7
100
AcDbLine
 10
62948.15973419676
 20
-27295.16235064671
 30
0.0
 11
62947.81279709286
 21
-27296.59102142919
 31
0.0
  0
LWPOLYLINE
  5
AF
330
2
100
AcDbEntity
  8
0000000000001
  6
Continuous
 62
     7
100
AcDbPolyline
 90
        4
 70
     0
 43
0.0
 10
63180.48187510404
 20
-27293.78357047055
 10
63179.28047451473
 20
-27294.00634597885
 10
63177.79451187074
 20
-27294.2551039496
 10
63177.11046039653
 20
-27294.35943121873
  0
LINE
  5
B0
330
2
100
AcDbEntity
  8
0
  6
Continuous
 62
     7
100
AcDbLine
 10
63180.48187510404
 20
-27293.78357047055
 30
0.0
 11
63180.51878705716
 21
-27293.77642469111
 31
0.0
  0
LINE
  5
B1
330
2
100
AcDbEntity
  8
0000000000001
  6
Continuous
 62
     7
100
AcDbLine
 10
63182.54601293921
 20
-27293.35741061673
 30
0.0
 11
63180.51878705716
 21
-27293.77642469111
 31
0.0
  0
LINE
  5
B2
330
2
100
AcDbEntity
  8
0000000000001
  6
Continuous
 62
     7
100
AcDbLine
 10
63185.98061268162
 20
-27292.53616197224
 30
0.0
 11
63182.54601293921
 21
-27293.35741061673
 31
0.0
  0
LWPOLYLINE
  5
B3
330
2
100
AcDbEntity
  8
0000000000001
  6
Continuous
 62
     7
100
AcDbPolyline
 90
        7
 70
     0
 43
0.0
 10
63199.77496282713
 20
-27289.70373404296
 10
63197.97379917514
 20
-27290.16217125664
 10
63194.43261588927
 20
-27290.7809197322
 10
63191.33946251767
 20
-27291.14347158259
 10
63189.32477040778
 20
-27291.31745156741
 10
63188.23340247877
 20
-27291.40611351598
 10
63188.13041658866
 20
-27291.41510564441
  0
LINE
  5
B4
330
2
100
AcDbEntity
  8
0
  6
Continuous
 62
     7
100
AcDbLine
 10
62949.23849058887
 20
-27293.53528528
 30
0.0
 11
62948.15973419676
 21
-27295.16235064671
 31
0.0
  0
LINE
  5
B5
330
2
100
AcDbEntity
  8
0
  6
Continuous
 62
     7
100
AcDbLine
 10
63045.69699976701
 20
-27292.30042050572
 30
0.0
 11
63045.70410187126
 21
-27297.29360460364
 31
0.0
  0
LINE
  5
B6
330
2
100
AcDbEntity
  8
0
  6
Continuous
 62
     7
100
AcDbLine
 10
63066.71969727453
 20
-27319.55891143184
 30
0.0
 11
63066.10228304067
 21
-27310.72947656087
 31
0.0
  0
LINE
  5
B7
330
2
100
AcDbEntity
  8
0000000000001
  6
Continuous
 62
     7
100
AcDbLine
 10
63177.11047514123
 20
-27294.35942903944
 30
0.0
 11
63177.12847798053
 21
-27294.34898224301
 31
0.0
  0
LINE
  5
B8
330
2
100
AcDbEntity
  8
0000000000001
  6
Continuous
 62
     7
100
AcDbLine
 10
63121.43204229212
 20
-27302.47517012319
 30
0.0
 11
63121.4320547432
 21
-27301.80107299276
 31
0.0
  0
LINE
  5
B9
330
2
100
AcDbEntity
  8
0000000000001
  6
Continuous
 62
     7
100
AcDbLine
 10
63146.24372105059
 20
-27298.80131043764
 30
0.0
 11
63146.25791757801
 21
-27298.7611264539
 31
0.0
  0
LINE
  5
BA
330
2
100
AcDbEntity
  8
0000000000001
  6
Continuous
 62
     7
100
AcDbLine
 10
63176.46565406866
 20
-27290.05708840608
 30
0.0
 11
63176.45560043378
 21
-27291.60181304838
 31
0.0
  0
LINE
  5
BB
330
2
100
AcDbEntity
  8
0000000000001
  6
Continuous
 62
     7
100
AcDbLine
 10
63179.52201970844
 20
-27291.10488145149
 30
0.0
 11
63179.52201989901
 21
-27292.12079824626
 31
0.0
  0
LINE
  5
BC
330
2
100
AcDbEntity
  8
0000000000001
  6
Continuous
 62
     7
100
AcDbLine
 10
63182.92201989868
 20
-27291.9427503676
 30
0.0
 11
63182.92189250482
 21
-27291.25220103506
 31
0.0
  0
LINE
  5
BD
330
2
100
AcDbEntity
  8
0000000000001
  6
Continuous
 62
     7
100
AcDbLine
 10
63181.46321994849
 20
-27292.03733917259
 30
0.0
 11
63181.46220840621
 21
-27291.11075073868
 31
0.0
  0
LINE
  5
BE
330
2
100
AcDbEntity
  8
0000000000001
  6
Continuous
 62
     7
100
AcDbLine
 10
63182.92198968786
 20
-27291.8995385871
 30
0.0
 11
63182.9175144567
 21
-27291.86494139445
 31
0.0
  0
LINE
  5
BF
330
2
100
AcDbEntity
  8
0
  6
Continuous
 62
     7
100
AcDbLine
 10
63232.48201989955
 20
-27289.70373404296
 30
0.0
 11
63230.36001376507
 21
-27320.04983553258
 31
0.0
  0
LINE
  5
C0
330
2
100
AcDbEntity
  8
0
  6
Continuous
 62
     7
100
AcDbLine
 10
63500.86854808093
 20
-27179.35473907474
 30
0.0
 11
63504.54132246508
 21
-27284.52923655862
 31
0.0
  0
ARC
  5
C1
330
2
100
AcDbEntity
  8
0000000000001
  6
Continuous
 62
     7
100
AcDbCircle
 10
61972.31367267973
 20
-34572.68531839366
 30
0.0
 40
7308.411716248679
100
AcDbArc
 50
84.42267473591922
 51
84.58069217335212
  0
ARC
  5
C2
330
2
100
AcDbEntity
  8
0000000000001
  6
Continuous
 62
     7
100
AcDbCircle
 10
62303.34851094652
 20
-20809.23454183995
 30
0.0
 40
6543.75400769822
100
AcDbArc
 50
277.4011179298609
 51
277.5793155232083
  0
ARC
  5
C3
330
2
100
AcDbEntity
  8
0000000000001
  6
Continuous
 62
     7
100
AcDbCircle
 10
62405.88647793527
 20
-21977.52489741859
 30
0.0
 40
5372.495218597419
100
AcDbArc
 50
277.9210095678821
 51
278.1413695985512
  0
ARC
  5
C4
330
2
100
AcDbEntity
  8
0000000000001
  6
Continuous
 62
     7
100
AcDbCircle
 10
62076.68704621857
 20
-31761.41370497903
 30
0.0
 40
4501.23733250352
100
AcDbArc
 50
82.26367798440646
 51
82.52098059278777
  0
ARC
  5
C5
330
2
100
AcDbEntity
  8
0000000000001
  6
Continuous
 62
     7
100
AcDbCircle
 10
62130.02366006074
 20
-31081.20089525499
 30
0.0
 40
3819.7506048955
100
AcDbArc
 50
81.68188718611194
 51
81.98521710682603
  0
ARC
  5
C6
330
2
100
AcDbEntity
  8
0
  6
Continuous
 62
     7
100
AcDbCircle
 10
62904.33336856289
 20
-28958.50218155762
 30
0.0
 40
1667.660639526
100
AcDbArc
 50
88.93148197617328
 51
89.99661063868433
  0
ARC
  5
C7
330
2
100
AcDbEntity
  8
0000000000001
  6
Continuous
 62
     7
100
AcDbCircle
 10
62840.5384627163
 20
-25816.12960767667
 30
0.0
 40
1492.89395127242
100
AcDbArc
 50
261.9882850742526
 51
262.3565410380343
  0
ARC
  5
C8
330
2
100
AcDbEntity
  8
0
  6
Continuous
 62
     7
100
AcDbCircle
 10
62860.84641875516
 20
-28287.41495604606
 30
0.0
 40
987.0172782474998
100
AcDbArc
 50
84.77831264407422
 51
84.98482926619425
  0
ARC
  5
C9
330
2
100
AcDbEntity
  8
0000000000001
  6
Continuous
 62
     7
100
AcDbCircle
 10
62627.78085308897
 20
-26821.56329952823
 30
0.0
 40
469.69250051406
100
AcDbArc
 50
269.7757035703314
 51
269.9537664911816
  0
ARC
  5
CA
330
2
100
AcDbEntity
  8
0000000000001
  6
Continuous
 62
     7
100
AcDbCircle
 10
62780.08031023948
 20
-27299.08096287297
 30
0.0
 40
346.17156710176
100
AcDbArc
 50
359.6581489819322
 51
359.8799775627905
  0
ARC
  5
CB
330
2
100
AcDbEntity
  8
0000000000001
  6
Continuous
 62
     7
100
AcDbCircle
 10
62676.44275814483
 20
-26981.13311520629
 30
0.0
 40
316.390443545
100
AcDbArc
 50
261.8766969877843
 51
262.0102031906028
  0
ARC
  5
CC
330
2
100
AcDbEntity
  8
0000000000001
  6
Continuous
 62
     7
100
AcDbCircle
 10
62656.20083851195
 20
-27055.86944094803
 30
0.0
 40
239.3583653133
100
AcDbArc
 50
264.114114839886
 51
264.2905348414392
  0
ARC
  5
CD
330
2
100
AcDbEntity
  8
0
  6
Continuous
 62
     7
100
AcDbCircle
 10
62890.08012255086
 20
-27079.87892369859
 30
0.0
 40
214.9687625686
100
AcDbArc
 50
261.0802263518126
 51
261.2944216361367
  0
ARC
  5
CE
330
2
100
AcDbEntity
  8
0000000000001
  6
Continuous
 62
     7
100
AcDbCircle
 10
62632.47185365614
 20
-27087.08380777741
 30
0.0
 40
205.34601269806
100
AcDbArc
 50
269.7790459751467
 51
269.9869655043313
  0
ARC
  5
CF
330
2
100
AcDbEntity
  8
0000000000001
  6
Continuous
 62
     7
100
AcDbCircle
 10
62630.37395578439
 20
-27141.17891591417
 30
0.0
 40
150.47403686946
100
AcDbArc
 50
268.3122604083424
 51
268.8680577129044
  0
ARC
  5
D0
330
2
100
AcDbEntity
  8
0
  6
Continuous
 62
     7
100
AcDbCircle
 10
62634.52313431099
 20
-27171.99115261822
 30
0.0
 40
120.21473581846
100
AcDbArc
 50
263.4588370933867
 51
265.906652293228
  0
ARC
  5
D1
330
2
100
AcDbEntity
  8
0000000000001
  6
Continuous
 62
     7
100
AcDbCircle
 10
62631.60924419007
 20
-27202.48163041801
 30
0.0
 40
89.56250703159998
100
AcDbArc
 50
266.3749736294577
 51
267.306833113339
  0
ARC
  5
D2
330
2
100
AcDbEntity
  8
0000000000001
  6
Continuous
 62
     7
100
AcDbCircle
 10
62631.43312688419
 20
-27204.95835909413
 30
0.0
 40
87.08025901667999
100
AcDbArc
 50
267.3460135841935
 51
268.6240044108583
  0
ARC
  5
D3
330
2
100
AcDbEntity
  8
0000000000001
  6
Continuous
 62
     7
100
AcDbCircle
 10
62631.73188309385
 20
-27206.88172341094
 30
0.0
 40
85.21473502103999
100
AcDbArc
 50
266.1040513541738
 51
267.0867162237374
  0
ARC
  5
D4
330
2
100
AcDbEntity
  8
0000000000001
  6
Continuous
 62
     7
100
AcDbCircle
 10
62747.14475718004
 20
-27296.16611995492
 30
0.0
 40
84.6004745884
100
AcDbArc
 50
180.5246451961886
 51
180.9593253058087
  0
ARC
  5
D5
330
2
100
AcDbEntity
  8
0000000000001
  6
Continuous
 62
     7
100
AcDbCircle
 10
62631.55755336632
 20
-27209.60174503215
 30
0.0
 40
82.48937632901998
100
AcDbArc
 50
267.1116244980766
 51
268.4609416822687
  0
ARC
  5
D6
330
2
100
AcDbEntity
  8
0
  6
Continuous
 62
     7
100
AcDbCircle
 10
62641.12367640835
 20
-27214.07176147439
 30
0.0
 40
80.48819594733998
100
AcDbArc
 50
255.7432185669728
 51
259.4673895888889
  0
ARC
  5
D7
330
2
100
AcDbEntity
  8
0000000000001
  6
Continuous
 62
     7
100
AcDbCircle
 10
62631.86688392368
 20
-27211.86277159969
 30
0.0
 40
80.29886058814
100
AcDbArc
 50
265.76857649482
 51
266.8116766577099
  0
ARC
  5
D8
330
2
100
AcDbEntity
  8
0000000000001
  6
Continuous
 62
     7
100
AcDbCircle
 10
62631.69379280685
 20
-27214.80298343583
 30
0.0
 40
77.35357342055998
100
AcDbArc
 50
266.818561028785
 51
268.257773710701
  0
ARC
  5
D9
330
2
100
AcDbEntity
  8
0
  6
Continuous
 62
     7
100
AcDbCircle
 10
62638.65174037931
 20
-27227.39531381885
 30
0.0
 40
66.93727411857999
100
AcDbArc
 50
259.4629437533265
 51
264.0003007112899
  0
ARC
  5
DA
330
2
100
AcDbEntity
  8
0
  6
Continuous
 62
     7
100
AcDbCircle
 10
62630.40109879584
 20
-27263.35862946385
 30
0.0
 40
30.13045455736
100
AcDbArc
 50
254.9946853857835
 51
255.5533340941304
  0
ARC
  5
DB
330
2
100
AcDbEntity
  8
0
  6
Continuous
 62
     7
100
AcDbCircle
 10
62630.02607844866
 20
-27264.73299158181
 30
0.0
 40
28.70586039868
100
AcDbArc
 50
252.3072509115015
 51
255.0074567515428
  0
ARC
  5
DC
330
2
100
AcDbEntity
  8
0
  6
Continuous
 62
     7
100
AcDbCircle
 10
62629.96532221758
 20
-27265.10764016947
 30
0.0
 40
28.33148443674
100
AcDbArc
 50
250.3951487039697
 51
250.7867871553191
  0
ARC
  5
DD
330
2
100
AcDbEntity
  8
0
  6
Continuous
 62
     7
100
AcDbCircle
 10
62628.77269915704
 20
-27268.56268163878
 30
0.0
 40
24.67641572708
100
AcDbArc
 50
250.7616974448464
 51
252.3773804684864
  0
ARC
  5
DE
330
2
100
AcDbEntity
  8
0
  6
Continuous
 62
     7
100
AcDbCircle
 10
62317.98939998578
 20
-27179.70373404087
 30
0.0
 40
9.999999999959999
100
AcDbArc
 50
90.0
 51
177.9999999997876
  0
ARC
  5
DF
330
2
100
AcDbEntity
  8
0
  6
Continuous
 62
     7
100
AcDbCircle
 10
62856.19485596279
 20
-27296.94431411862
 30
0.0
 40
5.001650522459999
100
AcDbArc
 50
5.085118179182967
 51
74.06061121221964
  0
ARC
  5
E0
330
2
100
AcDbEntity
  8
0
  6
Continuous
 62
     7
100
AcDbCircle
 10
62870.03566591887
 20
-27340.7037340418
 30
0.0
 40
4.999999999979999
100
AcDbArc
 50
185.1328713627499
 51
269.9999999958312
  0
ARC
  5
E1
330
2
100
AcDbEntity
  8
0
  6
Continuous
 62
     7
100
AcDbCircle
 10
62309.32053661733
 20
-27284.70373404308
 30
0.0
 40
4.999999999979999
100
AcDbArc
 50
178.0003458490978
 51
269.9900861041841
  0
ARC
  5
E2
330
2
100
AcDbEntity
  8
0
  6
Continuous
 62
     7
100
AcDbCircle
 10
62739.83137588613
 20
-48831.05194951794
 30
0.0
 40
21538.7627632824
100
AcDbArc
 50
89.93807850303502
 51
90.1393889263609
  0
ARC
  5
E3
330
2
100
AcDbEntity
  8
0000000000001
  6
Continuous
 62
     7
100
AcDbCircle
 10
63836.5503671173
 20
-34572.68531839366
 30
0.0
 40
7308.411716248679
100
AcDbArc
 50
95.41930782664788
 51
95.57732526408079
  0
ARC
  5
E4
330
2
100
AcDbEntity
  8
0000000000001
  6
Continuous
 62
     7
100
AcDbCircle
 10
63505.51552885296
 20
-20809.23454183482
 30
0.0
 40
6543.7540077033
100
AcDbArc
 50
262.4206844767917
 51
262.5988820701392
  0
ARC
  5
E5
330
2
100
AcDbEntity
  8
0000000000001
  6
Continuous
 62
     7
100
AcDbCircle
 10
63402.97756185921
 20
-21977.52489743641
 30
0.0
 40
5372.495218579639
100
AcDbArc
 50
261.8586304014488
 51
262.0789904321179
  0
ARC
  5
E6
330
2
100
AcDbEntity
  8
0000000000001
  6
Continuous
 62
     7
100
AcDbCircle
 10
63732.17699357847
 20
-31761.41370497903
 30
0.0
 40
4501.23733250352
100
AcDbArc
 50
97.47901940721224
 51
97.73632201559355
  0
ARC
  5
E7
330
2
100
AcDbEntity
  8
0000000000001
  6
Continuous
 62
     7
100
AcDbCircle
 10
63678.84037973886
 20
-31081.20089525755
 30
0.0
 40
3819.75060489804
100
AcDbArc
 50
98.01478289317397
 51
98.31811281388809
  0
ARC
  5
E8
330
2
100
AcDbEntity
  8
0
  6
Continuous
 62
     7
100
AcDbCircle
 10
62904.52984464951
 20
-28958.33357300973
 30
0.0
 40
1667.4920410062
100
AcDbArc
 50
90.0033613022615
 51
91.06859766374155
  0
ARC
  5
E9
330
2
100
AcDbEntity
  8
0000000000001
  6
Continuous
 62
     7
100
AcDbCircle
 10
62968.32557708063
 20
-25816.12960767923
 30
0.0
 40
1492.89395126988
100
AcDbArc
 50
277.6434589619657
 51
278.0117149257474
  0
ARC
  5
EA
330
2
100
AcDbEntity
  8
0
  6
Continuous
 62
     7
100
AcDbCircle
 10
62933.85909794413
 20
-28129.2978173838
 30
0.0
 40
828.26762219398
100
AcDbArc
 50
94.99567735762967
 51
95.24162190992106
  0
ARC
  5
EB
330
2
100
AcDbEntity
  8
0000000000001
  6
Continuous
 62
     7
100
AcDbCircle
 10
63181.08318670807
 20
-26821.56329952823
 30
0.0
 40
469.69250051406
100
AcDbArc
 50
270.0462335084016
 51
270.2242964296686
  0
ARC
  5
EC
330
2
100
AcDbEntity
  8
0000000000001
  6
Continuous
 62
     7
100
AcDbCircle
 10
63028.78372959306
 20
-27299.08096287297
 30
0.0
 40
346.17156713732
100
AcDbArc
 50
180.1200224372094
 51
180.3418510180678
  0
ARC
  5
ED
330
2
100
AcDbEntity
  8
0000000000001
  6
Continuous
 62
     7
100
AcDbCircle
 10
63132.42128164964
 20
-26981.13311519104
 30
0.0
 40
316.39044356024
100
AcDbArc
 50
277.9897968093972
 51
278.1233030122157
  0
ARC
  5
EE
330
2
100
AcDbEntity
  8
0000000000001
  6
Continuous
 62
     7
100
AcDbCircle
 10
63152.66320128253
 20
-27055.86944094291
 30
0.0
 40
239.35836531584
100
AcDbArc
 50
275.7094651585608
 51
275.8858851601139
  0
ARC
  5
EF
330
2
100
AcDbEntity
  8
0000000000001
  6
Continuous
 62
     7
100
AcDbCircle
 10
63176.39218614091
 20
-27087.08380777741
 30
0.0
 40
205.34601269806
100
AcDbArc
 50
270.0130344952518
 51
270.2209540248532
  0
ARC
  5
F0
330
2
100
AcDbEntity
  8
0
  6
Continuous
 62
     7
100
AcDbCircle
 10
62923.72549506943
 20
-27111.55713588177
 30
0.0
 40
182.9074577683
100
AcDbArc
 50
278.8033962992236
 51
278.9291500794053
  0
ARC
  5
F1
330
2
100
AcDbEntity
  8
0000000000001
  6
Continuous
 62
     7
100
AcDbCircle
 10
63178.49008401276
 20
-27141.17891591417
 30
0.0
 40
150.47403686946
100
AcDbArc
 50
271.1319422870956
 51
271.6877395916577
  0
ARC
  5
F2
330
2
100
AcDbEntity
  8
0
  6
Continuous
 62
     7
100
AcDbCircle
 10
63174.34084943336
 20
-27171.99052832429
 30
0.0
 40
120.21536256092
100
AcDbArc
 50
274.0933531137629
 51
276.541155540303
  0
ARC
  5
F3
330
2
100
AcDbEntity
  8
0000000000001
  6
Continuous
 62
     7
100
AcDbCircle
 10
63177.25479560698
 20
-27202.48163041801
 30
0.0
 40
89.56250703159998
100
AcDbArc
 50
272.693166886661
 51
273.6250263705422
  0
ARC
  5
F4
330
2
100
AcDbEntity
  8
0000000000001
  6
Continuous
 62
     7
100
AcDbCircle
 10
63177.43091291285
 20
-27204.95835909413
 30
0.0
 40
87.08025901667999
100
AcDbArc
 50
271.3759955891417
 51
272.6539864158065
  0
ARC
  5
F5
330
2
100
AcDbEntity
  8
0000000000001
  6
Continuous
 62
     7
100
AcDbCircle
 10
63177.13215670318
 20
-27206.88172341094
 30
0.0
 40
85.21473502103999
100
AcDbArc
 50
272.9132837762626
 51
273.8959486458262
  0
ARC
  5
F6
330
2
100
AcDbEntity
  8
0000000000001
  6
Continuous
 62
     7
100
AcDbCircle
 10
63061.71928261945
 20
-27296.16611995492
 30
0.0
 40
84.60047458585998
100
AcDbArc
 50
359.0406746941911
 51
359.4753548038113
  0
ARC
  5
F7
330
2
100
AcDbEntity
  8
0
  6
Continuous
 62
     7
100
AcDbCircle
 10
63159.00933308856
 20
-27213.19692882735
 30
0.0
 40
83.92328204642
100
AcDbArc
 50
291.0713327624088
 51
291.5062152025407
  0
ARC
  5
F8
330
2
100
AcDbEntity
  8
0000000000001
  6
Continuous
 62
     7
100
AcDbCircle
 10
63177.30648643072
 20
-27209.60174503215
 30
0.0
 40
82.48937632901998
100
AcDbArc
 50
271.5390583177314
 51
272.8883755019234
  0
ARC
  5
F9
330
2
100
AcDbEntity
  8
0
  6
Continuous
 62
     7
100
AcDbCircle
 10
63167.7403633887
 20
-27214.07176147439
 30
0.0
 40
80.48819594733998
100
AcDbArc
 50
280.5326104111111
 51
284.2567814330272
  0
ARC
  5
FA
330
2
100
AcDbEntity
  8
0000000000001
  6
Continuous
 62
     7
100
AcDbCircle
 10
63176.99715587325
 20
-27211.86277159969
 30
0.0
 40
80.29886058814
100
AcDbArc
 50
273.1883233422901
 51
274.23142350518
  0
ARC
  5
FB
330
2
100
AcDbEntity
  8
0000000000001
  6
Continuous
 62
     7
100
AcDbCircle
 10
63177.17024699019
 20
-27214.80298343583
 30
0.0
 40
77.35357342055998
100
AcDbArc
 50
271.742226289299
 51
273.181438971215
  0
ARC
  5
FC
330
2
100
AcDbEntity
  8
0
  6
Continuous
 62
     7
100
AcDbCircle
 10
63170.21229941773
 20
-27227.39531381885
 30
0.0
 40
66.93727411857999
100
AcDbArc
 50
275.9996992887101
 51
280.5370562466734
  0
ARC
  5
FD
330
2
100
AcDbEntity
  8
0
  6
Continuous
 62
     7
100
AcDbCircle
 10
63134.15756923626
 20
-27353.78911929336
 30
0.0
 40
60.82733457825999
100
AcDbArc
 50
97.46754290255761
 51
97.99614059870972
  0
ARC
  5
FE
330
2
100
AcDbEntity
  8
0
  6
Continuous
 62
     7
100
AcDbCircle
 10
63178.70487606726
 20
-27264.27912971333
 30
0.0
 40
29.17870298614
100
AcDbArc
 50
284.4375548217889
 51
287.6708666393883
  0
ARC
  5
FF
330
2
100
AcDbEntity
  8
0
  6
Continuous
 62
     7
100
AcDbCircle
 10
63490.8738986722
 20
-27179.70373404087
 30
0.0
 40
9.999999999959999
100
AcDbArc
 50
1.999851833599152
 51
89.99575358042553
  0
ARC
  5
100
330
2
100
AcDbEntity
  8
0
  6
Continuous
 62
     7
100
AcDbCircle
 10
62952.66776601636
 20
-27296.94421822848
 30
0.0
 40
5.001254635519999
100
AcDbArc
 50
105.3302293798469
 51
174.9145414261049
  0
ARC
  5
101
330
2
100
AcDbEntity
  8
0
  6
Continuous
 62
     7
100
AcDbCircle
 10
62938.82832024098
 20
-27340.7037340418
 30
0.0
 40
4.999999999979999
100
AcDbArc
 50
270.0000000033351
 51
354.8670408024051
  0
ARC
  5
102
330
2
100
AcDbEntity
  8
0
  6
Continuous
 62
     7
100
AcDbCircle
 10
63499.54436832902
 20
-27284.70373404308
 30
0.0
 40
4.999999999979999
100
AcDbArc
 50
270.0
 51
2.000000000212363
  0
ARC
  5
103
330
2
100
AcDbEntity
  8
0
  6
Continuous
 62
     7
100
AcDbCircle
 10
63069.03522684462
 20
-48827.095235087
 30
0.0
 40
21534.80605228296
100
AcDbArc
 50
89.86059228222563
 51
90.06193969511084
  0
SPLINE
  5
104
330
2
100
AcDbEntity
  8
0
  6
Continuous
 62
     7
100
AcDbSpline
210
0.0
220
0.0
230
1.0
 70
     8
 71
     3
 72
    12
 73
     8
 74
     6
 42
0.0000000001
 43
0.0000000001
 44
0.0000000001
 12
0.9999876129306432
 22
0.0049773472125141
 32
0.0
 13
0.9999953487453044
 23
0.0030499979929507
 33
0.0
 40
0.0
 40
0.0
 40
0.0
 40
0.0
 40
3.547388653705343
 40
7.423304399420652
 40
11.64039919293679
 40
15.97061255397632
 40
20.00002636491159
 40
20.00002636491159
 40
20.00002636491159
 40
20.00002636491159
 10
62663.71660012766
 20
-27292.44327943507
 30
0.0
 10
62664.89904836499
 20
-27292.43739390672
 30
0.0
 10
62667.37345528507
 20
-27292.42562975448
 30
0.0
 10
62671.25355183356
 20
-27292.40877305742
 30
0.0
 10
62675.39459442516
 20
-27292.39245382896
 30
0.0
 10
62679.58680869599
 20
-27292.37755363383
 30
0.0
 10
62682.37333681763
 20
-27292.36861867266
 30
0.0
 10
62683.71646850734
 20
-27292.36452210464
 30
0.0
 11
62663.71660012766
 21
-27292.44327943507
 31
0.0
 11
62667.26394853709
 21
-27292.42638202154
 31
0.0
 11
62671.13982759
 21
-27292.4095168178
 31
0.0
 11
62675.35688952918
 21
-27292.39287053924
 31
0.0
 11
62679.68707545861
 21
-27292.37745727566
 31
0.0
 11
62683.71646850734
 21
-27292.36452210464
 31
0.0
  0
LINE
  5
105
330
2
100
AcDbEntity
  8
0
  6
Continuous
 62
     7
100
AcDbLine
 10
62683.71646850734
 20
-27292.36452210464
 30
0.0
 11
62687.4320200526
 21
-27292.35371660432
 31
0.0
  0
LINE
  5
106
330
2
100
AcDbEntity
  8
0
  6
Continuous
 62
     7
100
AcDbLine
 10
63121.432019747
 20
-27292.35371660432
 30
0.0
 11
63126.2557263328
 21
-27292.3679499744
 31
0.0
  0
SPLINE
  5
107
330
2
100
AcDbEntity
  8
0
  6
Continuous
 62
     7
100
AcDbSpline
210
0.0
220
0.0
230
1.0
 70
     8
 71
     3
 72
    13
 73
     9
 74
     7
 42
0.0000000001
 43
0.0000000001
 44
0.0000000001
 12
0.9999950798612234
 22
-0.0031369178098096
 32
0.0
 13
0.999987614046112
 23
-0.0049771231011618
 33
0.0
 40
0.0
 40
0.0
 40
0.0
 40
0.0
 40
2.717676956090786
 40
6.402497229442532
 40
9.853922961497811
 40
13.07189035258113
 40
16.07781314606804
 40
18.89186594596944
 40
18.89186594596944
 40
18.89186594596944
 40
18.89186594596944
 10
63126.2557263328
 20
-27292.3679499744
 30
0.0
 10
63127.16161419439
 20
-27292.37079168415
 30
0.0
 10
63129.29576872253
 20
-27292.37771606022
 30
0.0
 10
63132.58038953348
 20
-27292.38924484761
 30
0.0
 10
63136.03176877714
 20
-27292.402454672
 30
0.0
 10
63139.25684640475
 20
-27292.4158297258
 30
0.0
 10
63142.26946400786
 20
-27292.42929864954
 30
0.0
 10
63144.20943356576
 20
-27292.438610806
 30
0.0
 10
63145.14743954749
 20
-27292.44327943507
 30
0.0
 11
63126.2557263328
 21
-27292.3679499744
 31
0.0
 11
63128.97338896958
 21
-27292.37677212586
 31
0.0
 11
63132.65818649708
 21
-27292.38971925774
 31
0.0
 11
63136.10958689675
 21
-27292.40294291175
 31
0.0
 11
63139.32752655682
 21
-27292.41630233641
 31
0.0
 11
63142.33341924721
 21
-27292.4297550045
 31
0.0
 11
63145.14743954749
 21
-27292.44327943507
 31
0.0
  0
LINE
  5
108
330
2
100
AcDbEntity
  8
0000000000001
  6
Continuous
 62
     7
100
AcDbLine
 10
62662.56120648203
 20
-27292.44282065521
 30
0.0
 11
62632.42513846888
 21
-27292.42984172518
 31
0.0
  0
LINE
  5
109
330
2
100
AcDbEntity
  8
0
  6
Continuous
 62
     7
100
AcDbLine
 10
62663.71660012766
 20
-27292.44327943507
 30
0.0
 11
62662.56120648203
 21
-27292.44282065521
 31
0.0
  0
SPLINE
  5
10A
330
2
100
AcDbEntity
  8
0
  6
Continuous
 62
     7
100
AcDbSpline
210
0.0
220
0.0
230
1.0
 70
     8
 71
     3
 72
     9
 73
     5
 74
     3
 42
0.0000000001
 43
0.0000000001
 44
0.0000000001
 12
-0.9998269657878491
 22
-0.0186021096508763
 32
0.0
 13
-0.9984176919278858
 23
-0.0562326635096836
 33
0.0
 40
0.0
 40
0.0
 40
0.0
 40
0.0
 40
6.810180882983392
 40
12.08870727623761
 40
12.08870727623761
 40
12.08870727623761
 40
12.08870727623761
 10
62873.43200959617
 20
-27291.13202848125
 30
0.0
 10
62871.16234209993
 20
-27291.17425639176
 30
0.0
 10
62867.13428658856
 20
-27291.2748154349
 30
0.0
 10
62863.10549766771
 20
-27291.38753075007
 30
0.0
 10
62861.34877295492
 20
-27291.48647261623
 30
0.0
 11
62873.43200959617
 21
-27291.13202848125
 31
0.0
 11
62866.62369410684
 21
-27291.29141435507
 31
0.0
 11
62861.34877295492
 21
-27291.48647261623
 31
0.0
  0
SPLINE
  5
10B
330
2
100
AcDbEntity
  8
0
  6
Continuous
 62
     7
100
AcDbSpline
210
0.0
220
0.0
230
1.0
 70
     8
 71
     3
 72
     9
 73
     5
 74
     3
 42
0.0000000001
 43
0.0000000001
 44
0.0000000001
 12
-0.9984176919323298
 22
-0.0562326634307801
 32
0.0
 13
-0.9483393080965242
 23
-0.3172578710119034
 33
0.0
 40
0.0
 40
0.0
 40
0.0
 40
0.0
 40
3.474633171618139
 40
5.153250470694551
 40
5.153250470694551
 40
5.153250470694551
 40
5.153250470694551
 10
62861.34877295492
 20
-27291.48647261623
 30
0.0
 10
62860.19239454441
 20
-27291.55160190879
 30
0.0
 10
62858.49329865172
 20
-27291.67934138163
 30
0.0
 10
62856.74991403603
 20
-27291.76471347547
 30
0.0
 10
62856.21928111338
 20
-27291.94223165899
 30
0.0
 11
62861.34877295492
 21
-27291.48647261623
 31
0.0
 11
62857.88099323821
 21
-27291.70459990404
 31
0.0
 11
62856.21928111338
 21
-27291.94223165899
 31
0.0
  0
SPLINE
  5
10C
330
2
100
AcDbEntity
  8
0
  6
Continuous
 62
     7
100
AcDbSpline
210
0.0
220
0.0
230
1.0
 70
     8
 71
     3
 72
     9
 73
     5
 74
     3
 42
0.0000000001
 43
0.0000000001
 44
0.0000000001
 12
-0.9481342756116056
 22
-0.3178700920351832
 32
0.0
 13
0.9878605860481188
 23
-0.1553430479058112
 33
0.0
 40
0.0
 40
0.0
 40
0.0
 40
0.0
 40
0.1778251245536826
 40
0.8178372525338733
 40
0.8178372525338733
 40
0.8178372525338733
 40
0.8178372525338733
 10
62856.21928127078
 20
-27291.94223165899
 30
0.0
 10
62856.16308057223
 20
-27291.96107342189
 30
0.0
 10
62856.00660331406
 20
-27292.31812634102
 30
0.0
 10
62856.53818089146
 20
-27292.21480257588
 30
0.0
 10
62856.74892847674
 20
-27292.2479430541
 30
0.0
 11
62856.21928127078
 21
-27291.94223165899
 31
0.0
 11
62856.12756317135
 21
-27292.09457851704
 31
0.0
 11
62856.74892847674
 21
-27292.2479430541
 31
0.0
  0
SPLINE
  5
10D
330
2
100
AcDbEntity
  8
0
  6
Continuous
 62
     7
100
AcDbSpline
210
0.0
220
0.0
230
1.0
 70
     8
 71
     3
 72
     9
 73
     5
 74
     3
 42
0.0000000001
 43
0.0000000001
 44
0.0000000001
 12
-0.9999988527714558
 22
0.0015147461081983
 32
0.0
 13
-0.9999991779906913
 23
0.0012821926304021
 33
0.0
 40
0.0
 40
0.0
 40
0.0
 40
0.0
 40
85.1592170114266
 40
168.7874388038877
 40
168.7874388038877
 40
168.7874388038877
 40
168.7874388038877
 10
62856.21928127078
 20
-27291.94223165899
 30
0.0
 10
62827.832908166
 20
-27291.89923346147
 30
0.0
 10
62771.57050150429
 20
-27291.80840027576
 30
0.0
 10
62715.30807091408
 20
-27291.73367282304
 30
0.0
 10
62687.43201989765
 20
-27291.69793032648
 30
0.0
 11
62856.21928127078
 21
-27291.94223165899
 31
0.0
 11
62771.06016433509
 21
-27291.8116761771
 31
0.0
 11
62687.43201989765
 21
-27291.69793032648
 31
0.0
  0
LINE
  5
10E
330
2
100
AcDbEntity
  8
0
  6
Continuous
 62
     7
100
AcDbLine
 10
62763.10904551812
 20
-27292.30074483834
 30
0.0
 11
62857.5430826339
 21
-27292.37106452489
 31
0.0
  0
LINE
  5
10F
330
2
100
AcDbEntity
  8
0
  6
Continuous
 62
     7
100
AcDbLine
 10
62857.53819754338
 20
-27297.35057208177
 30
0.0
 11
62858.18964085567
 21
-27304.49377862087
 31
0.0
  0
LINE
  5
110
330
2
100
AcDbEntity
  8
0
  6
Continuous
 62
     7
100
AcDbLine
 10
62763.04287251099
 20
-27297.2800423651
 30
0.0
 11
62857.53819754338
 21
-27297.35057208177
 31
0.0
  0
SPLINE
  5
111
330
2
100
AcDbEntity
  8
0
  6
Continuous
 62
     7
100
AcDbSpline
210
0.0
220
0.0
230
1.0
 70
     8
 71
     3
 72
    10
 73
     6
 74
     4
 42
0.0000000001
 43
0.0000000001
 44
0.0000000001
 12
0.9929000487680891
 22
-0.1189516420917607
 32
0.0
 13
0.9992649763039521
 23
-0.0383341509917984
 33
0.0
 40
0.0
 40
0.0
 40
0.0
 40
0.0
 40
17.70902600386559
 40
64.76034222800835
 40
95.44213700189947
 40
95.44213700189947
 40
95.44213700189947
 40
95.44213700189947
 10
62763.0440445127
 20
-27297.27025956524
 30
0.0
 10
62768.90514210699
 20
-27297.97243213957
 30
0.0
 10
62790.35935648415
 20
-27300.37079572187
 30
0.0
 10
62822.08774994492
 20
-27302.85225335006
 30
0.0
 10
62847.96948087703
 20
-27304.11247355238
 30
0.0
 10
62858.1892285196
 20
-27304.50452707024
 30
0.0
 11
62763.0440445127
 21
-27297.27025956524
 31
0.0
 11
62780.64422472243
 21
-27299.23068262942
 31
0.0
 11
62827.54438805175
 21
-27302.9991091057
 31
0.0
 11
62858.1892285196
 21
-27304.50452707024
 31
0.0
  0
SPLINE
  5
112
330
2
100
AcDbEntity
  8
0
  6
Continuous
 62
     7
100
AcDbSpline
210
0.0
220
0.0
230
1.0
 70
     8
 71
     3
 72
    15
 73
    11
 74
     9
 42
0.0000000001
 43
0.0000000001
 44
0.0000000001
 12
0.1311333447419167
 22
-0.9913647390828451
 32
0.0
 13
0.7607283943516192
 23
-0.6490703428960591
 33
0.0
 40
0.0
 40
0.0
 40
0.0
 40
0.0
 40
3.830459742148794
 40
7.060737165471174
 40
9.718274654195132
 40
11.8521373881356
 40
13.58131839500068
 40
15.12241642460609
 40
16.43451302070055
 40
16.79372403336385
 40
16.79372403336385
 40
16.79372403336385
 40
16.79372403336385
 10
62858.19187678201
 20
-27304.49376847854
 30
0.0
 10
62858.35931044798
 20
-27305.75956271948
 30
0.0
 10
62858.71865288149
 20
-27308.08677761965
 30
0.0
 10
62859.38326884567
 20
-27311.2587906295
 30
0.0
 10
62860.06070910885
 20
-27313.84636737316
 30
0.0
 10
62860.71314006036
 20
-27315.92104093977
 30
0.0
 10
62861.37669699731
 20
-27317.59768560412
 30
0.0
 10
62862.04826989549
 20
-27318.97110455488
 30
0.0
 10
62862.65220388747
 20
-27319.86541510207
 30
0.0
 10
62863.04364462212
 20
-27320.26418972968
 30
0.0
 10
62863.13473196109
 20
-27320.34190746807
 30
0.0
 11
62858.19187678201
 21
-27304.49376847854
 31
0.0
 11
62858.7855535754
 21
-27308.27794206087
 31
0.0
 11
62859.45090509454
 21
-27311.43895449166
 31
0.0
 11
62860.12793722542
 21
-27314.00880526509
 31
0.0
 11
62860.78042270735
 21
-27316.04046292896
 31
0.0
 11
62861.42152335044
 21
-27317.64640717456
 31
0.0
 11
62862.11632986032
 21
-27319.02198961508
 31
0.0
 11
62862.8789491301
 21
-27320.08970180797
 31
0.0
 11
62863.13473196109
 21
-27320.34190746807
 31
0.0
  0
SPLINE
  5
113
330
2
100
AcDbEntity
  8
0
  6
Continuous
 62
     7
100
AcDbSpline
210
0.0
220
0.0
230
1.0
 70
     8
 71
     3
 72
    11
 73
     7
 74
     5
 42
0.0000000001
 43
0.0000000001
 44
0.0000000001
 12
0.9994175449750233
 22
-0.0341258083581551
 32
0.0
 13
0.9995751397227991
 23
-0.0291468702976317
 33
0.0
 40
0.0
 40
0.0
 40
0.0
 40
0.0
 40
16.35969097409933
 40
34.35754341402902
 40
53.94837616240568
 40
75.36242224034532
 40
75.36242224034532
 40
75.36242224034532
 40
75.36242224034532
 10
62687.83921935505
 20
-27294.77260051694
 30
0.0
 10
62693.28927341835
 20
-27294.95869640993
 30
0.0
 10
62704.73451723338
 20
-27295.36687893958
 30
0.0
 10
62722.70557341804
 20
-27296.0166337588
 30
0.0
 10
62742.36237895172
 20
-27296.66840513319
 30
0.0
 10
62756.0243229816
 20
-27297.08553922373
 30
0.0
 10
62763.15930568173
 20
-27297.29359003159
 30
0.0
 11
62687.83921935505
 21
-27294.77260051694
 31
0.0
 11
62704.18876394819
 21
-27295.34869110459
 31
0.0
 11
62722.17522794721
 21
-27295.98885144482
 31
0.0
 11
62741.75523354465
 21
-27296.64008763784
 31
0.0
 11
62763.15930568173
 21
-27297.29359003159
 31
0.0
  0
LINE
  5
114
330
2
100
AcDbEntity
  8
0
  6
Continuous
 62
     7
100
AcDbLine
 10
62687.46331469915
 20
-27294.7597684673
 30
0.0
 11
62687.83921935505
 21
-27294.77260051694
 31
0.0
  0
SPLINE
  5
115
330
2
100
AcDbEntity
  8
0
  6
Continuous
 62
     7
100
AcDbSpline
210
0.0
220
0.0
230
1.0
 70
     8
 71
     3
 72
    10
 73
     6
 74
     4
 42
0.0000000001
 43
0.0000000001
 44
0.0000000001
 12
-0.0398022476492794
 22
0.9992075765735894
 32
0.0
 13
-0.006652831699985
 23
0.9999778696703101
 33
0.0
 40
0.0
 40
0.0
 40
0.0
 40
0.0
 40
1.255146100377879
 40
2.776294162938338
 40
4.586242739089413
 40
4.586242739089413
 40
4.586242739089413
 40
4.586242739089413
 10
62687.43201638982
 20
-27299.34319579779
 30
0.0
 10
62687.41536384451
 20
-27298.92514530005
 30
0.0
 10
62687.33291672955
 20
-27298.00100553612
 30
0.0
 10
62687.45763589874
 20
-27296.47345557741
 30
0.0
 10
62687.46732846024
 20
-27295.36307130777
 30
0.0
 10
62687.46331469915
 20
-27294.7597684673
 30
0.0
 11
62687.43201638982
 21
-27299.34319579779
 31
0.0
 11
62687.37309861338
 21
-27298.08943328881
 31
0.0
 11
62687.43291339339
 21
-27296.56946170344
 31
0.0
 11
62687.46331469915
 21
-27294.7597684673
 31
0.0
  0
SPLINE
  5
116
330
2
100
AcDbEntity
  8
0000000000001
  6
Continuous
 62
     7
100
AcDbSpline
210
0.0
220
0.0
230
1.0
 70
     8
 71
     3
 72
    10
 73
     6
 74
     4
 42
0.0000000001
 43
0.0000000001
 44
0.0000000001
 12
-0.0030210753242217
 22
0.99999543654153
 32
0.0
 13
-0.0398022464945109
 23
0.9992075766195881
 33
0.0
 40
0.0
 40
0.0
 40
0.0
 40
0.0
 40
0.6156463517530348
 40
1.420711195715278
 40
2.461312977885796
 40
2.461312977885796
 40
2.461312977885796
 40
2.461312977885796
 10
62687.43198505396
 20
-27301.80107299276
 30
0.0
 10
62687.43136508263
 20
-27301.59585847867
 30
0.0
 10
62687.50890827614
 20
-27301.12562982938
 30
0.0
 10
62687.48968162372
 20
-27300.30297054656
 30
0.0
 10
62687.44582248603
 20
-27299.68978819278
 30
0.0
 10
62687.43201638982
 20
-27299.34319579779
 30
0.0
 11
62687.43198505396
 21
-27301.80107299276
 31
0.0
 11
62687.48192461361
 21
-27301.18745546465
 31
0.0
 11
62687.48591986604
 21
-27300.38240053426
 31
0.0
 11
62687.43201638982
 21
-27299.34319579779
 31
0.0
  0
LINE
  5
117
330
2
100
AcDbEntity
  8
0
  6
Continuous
 62
     7
100
AcDbLine
 10
62873.43201623313
 20
-27289.70373404296
 30
0.0
 11
62873.43201053856
 21
-27291.13167901794
 31
0.0
  0
SPLINE
  5
118
330
2
100
AcDbEntity
  8
0
  6
Continuous
 62
     7
100
AcDbSpline
210
0.0
220
0.0
230
1.0
 70
     8
 71
     3
 72
     8
 73
     4
 74
     2
 42
0.0000000001
 43
0.0000000001
 44
0.0000000001
 12
0.9989673709234224
 22
-0.045433377932366
 32
0.0
 13
0.9944438735341913
 23
-0.1052681451832114
 33
0.0
 40
0.0
 40
0.0
 40
0.0
 40
0.0
 40
1.464634181886542
 40
1.464634181886542
 40
1.464634181886542
 40
1.464634181886542
 10
62947.77373031553
 20
-27297.02003775679
 30
0.0
 10
62948.26143756821
 20
-27297.04221884956
 30
0.0
 10
62948.74604778533
 20
-27297.10980032046
 30
0.0
 10
62949.23154661504
 20
-27297.16119342835
 30
0.0
 11
62947.77373031553
 21
-27297.02003775679
 31
0.0
 11
62949.23154661504
 21
-27297.16119342835
 31
0.0
  0
SPLINE
  5
119
330
2
100
AcDbEntity
  8
0
  6
Continuous
 62
     7
100
AcDbSpline
210
0.0
220
0.0
230
1.0
 70
     8
 71
     3
 72
     8
 73
     4
 74
     2
 42
0.0000000001
 43
0.0000000001
 44
0.0000000001
 12
0.9944438735246416
 22
-0.1052681452734249
 32
0.0
 13
0.9899098101973411
 23
-0.1416988626456261
 33
0.0
 40
0.0
 40
0.0
 40
0.0
 40
0.0
 40
2.102840591846927
 40
2.102840591846927
 40
2.102840591846927
 40
2.102840591846927
 10
62949.23154661504
 20
-27297.16119342835
 30
0.0
 10
62949.92859892957
 20
-27297.23498080466
 30
0.0
 10
62950.63196959559
 20
-27297.25123206378
 30
0.0
 10
62951.32584377265
 20
-27297.35055543718
 30
0.0
 11
62949.23154661504
 21
-27297.16119342835
 31
0.0
 11
62951.32584377265
 21
-27297.35055543718
 31
0.0
  0
LINE
  5
11A
330
2
100
AcDbEntity
  8
0000000000001
  6
Continuous
 62
     7
100
AcDbLine
 10
62687.43201989765
 20
-27302.33739612895
 30
0.0
 11
62682.62320169716
 21
-27301.63366735857
 31
0.0
  0
LINE
  5
11B
330
2
100
AcDbEntity
  8
0000000000001
  6
Continuous
 62
     7
100
AcDbLine
 10
62687.43201989765
 20
-27301.80085398387
 30
0.0
 11
62682.61832398772
 21
-27301.14635759409
 31
0.0
  0
LINE
  5
11C
330
2
100
AcDbEntity
  8
0000000000001
  6
Continuous
 62
     7
100
AcDbLine
 10
62682.62320169716
 20
-27301.63366735857
 30
0.0
 11
62682.61832398772
 21
-27301.14635759409
 31
0.0
  0
LINE
  5
11D
330
2
100
AcDbEntity
  8
0000000000001
  6
Continuous
 62
     7
100
AcDbLine
 10
62687.43201989765
 20
-27299.34317376584
 30
0.0
 11
62682.61113342564
 21
-27298.87205907437
 31
0.0
  0
LINE
  5
11E
330
2
100
AcDbEntity
  8
0000000000001
  6
Continuous
 62
     7
100
AcDbLine
 10
62682.6129219793
 20
-27299.80611793781
 30
0.0
 11
62682.61113342564
 21
-27298.87205907437
 31
0.0
  0
SPLINE
  5
11F
330
2
100
AcDbEntity
  8
0
  6
Continuous
 62
     7
100
AcDbSpline
210
0.0
220
0.0
230
1.0
 70
     8
 71
     3
 72
    19
 73
    15
 74
    13
 42
0.0000000001
 43
0.0000000001
 44
0.0000000001
 12
0.9915037356845331
 22
-0.1300782154075606
 32
0.0
 13
0.8819169152405489
 23
-0.4714048733441291
 33
0.0
 40
0.0
 40
0.0
 40
0.0
 40
0.0
 40
0.5615660518121488
 40
1.083868959787155
 40
1.569601173318715
 40
2.021527677967563
 40
2.442452781319729
 40
2.835298813390688
 40
3.20258226526476
 40
3.545279165553827
 40
3.864143194406302
 40
4.161299454337544
 40
4.439516845068154
 40
4.694290536880956
 40
4.694290536880956
 40
4.694290536880956
 40
4.694290536880956
 10
62682.61186678198
 20
-27293.47768321845
 30
0.0
 10
62682.79746506138
 20
-27293.50203238841
 30
0.0
 10
62683.1554870474
 20
-27293.55055859563
 30
0.0
 10
62683.67325828944
 20
-27293.6257937555
 30
0.0
 10
62684.15410485607
 20
-27293.70081500988
 30
0.0
 10
62684.60072277457
 20
-27293.77582189763
 30
0.0
 10
62685.01585751842
 20
-27293.85114591611
 30
0.0
 10
62685.40213106642
 20
-27293.9272639585
 30
0.0
 10
62685.76150906329
 20
-27294.00473006175
 30
0.0
 10
62686.09514956867
 20
-27294.084219106
 30
0.0
 10
62686.40397513237
 20
-27294.16660487894
 30
0.0
 10
62686.68908637144
 20
-27294.25382337143
 30
0.0
 10
62686.94969515449
 20
-27294.34735650573
 30
0.0
 10
62687.11140813758
 20
-27294.42183515905
 30
0.0
 10
62687.18630454704
 20
-27294.46186901236
 30
0.0
 11
62682.61186678198
 21
-27293.47768321845
 31
0.0
 11
62683.16832717278
 21
-27293.5532362728
 31
0.0
 11
62683.68518163057
 21
-27293.62848118718
 31
0.0
 11
62684.16508351048
 21
-27293.70351430602
 31
0.0
 11
62684.61073885744
 21
-27293.7785401504
 31
0.0
 11
62685.02486450356
 21
-27293.85389193779
 31
0.0
 11
62685.41025027845
 21
-27293.93008780005
 31
0.0
 11
62685.76922025139
 21
-27294.00779039043
 31
0.0
 11
62686.1024942864
 21
-27294.08760005809
 31
0.0
 11
62686.41042435382
 21
-27294.17038497506
 31
0.0
 11
62686.69437255399
 21
-27294.25799355018
 31
0.0
 11
62686.9555264487
 21
-27294.35392873551
 31
0.0
 11
62687.18630454704
 21
-27294.46186901236
 31
0.0
  0
SPLINE
  5
120
330
2
100
AcDbEntity
  8
0
  6
Continuous
 62
     7
100
AcDbSpline
210
0.0
220
0.0
230
1.0
 70
     8
 71
     3
 72
     8
 73
     4
 74
     2
 42
0.0000000001
 43
0.0000000001
 44
0.0000000001
 12
0.8819169144301106
 22
-0.4714048748603189
 32
0.0
 13
0.713084219726618
 23
-0.7010783804803002
 33
0.0
 40
0.0
 40
0.0
 40
0.0
 40
0.0
 40
0.228334735084786
 40
0.228334735084786
 40
0.228334735084786
 40
0.228334735084786
 10
62687.18630454704
 20
-27294.46186901236
 30
0.0
 10
62687.25342863538
 20
-27294.49774838143
 30
0.0
 10
62687.31957335861
 20
-27294.5387565098
 30
0.0
 10
62687.37384732408
 20
-27294.5921166919
 30
0.0
 11
62687.18630454704
 21
-27294.46186901236
 31
0.0
 11
62687.37384732408
 21
-27294.5921166919
 31
0.0
  0
SPLINE
  5
121
330
2
100
AcDbEntity
  8
0
  6
Continuous
 62
     7
100
AcDbSpline
210
0.0
220
0.0
230
1.0
 70
     8
 71
     3
 72
     8
 73
     4
 74
     2
 42
0.0000000001
 43
0.0000000001
 44
0.0000000001
 12
0.7130842237832632
 22
-0.7010783763541858
 32
0.0
 13
0.0066509844681655
 23
-0.9999778819581981
 33
0.0
 40
0.0
 40
0.0
 40
0.0
 40
0.0
 40
0.1900303271118232
 40
0.1900303271118232
 40
0.1900303271118232
 40
0.1900303271118232
 10
62687.37384732408
 20
-27294.5921166919
 30
0.0
 10
62687.41901653352
 20
-27294.63652540963
 30
0.0
 10
62687.46289340534
 20
-27294.6964264134
 30
0.0
 10
62687.46331470159
 20
-27294.75976845473
 30
0.0
 11
62687.37384732408
 21
-27294.5921166919
 31
0.0
 11
62687.46331470159
 21
-27294.75976845473
 31
0.0
  0
LINE
  5
122
330
2
100
AcDbEntity
  8
0
  6
Continuous
 62
     7
100
AcDbLine
 10
62682.61113342564
 20
-27298.87205907437
 30
0.0
 11
62682.61186678198
 21
-27293.47768321845
 31
0.0
  0
LINE
  5
123
330
2
100
AcDbEntity
  8
0000000000001
  6
Continuous
 62
     7
100
AcDbLine
 10
63126.23636804279
 20
-27301.74926638827
 30
0.0
 11
63126.24083809988
 21
-27301.63366735857
 31
0.0
  0
SPLINE
  5
124
330
2
100
AcDbEntity
  8
0000000000001
  6
Continuous
 62
     7
100
AcDbSpline
210
0.0
220
0.0
230
1.0
 70
     8
 71
     3
 72
     9
 73
     5
 74
     3
 42
0.0000000001
 43
0.0000000001
 44
0.0000000001
 12
-0.1702561910079549
 22
0.9853998322627536
 32
0.0
 13
-0.0496468621146162
 23
0.9987668341921313
 33
0.0
 40
0.0
 40
0.0
 40
0.0
 40
0.0
 40
0.0468281563138151
 40
0.2919518280950993
 40
0.2919518280950993
 40
0.2919518280950993
 40
0.2919518280950993
 10
62662.60612221903
 20
-27298.7611264539
 30
0.0
 10
62662.60346462452
 20
-27298.74574496811
 30
0.0
 10
62662.59126441835
 20
-27298.64913549532
 30
0.0
 10
62662.58626884789
 20
-27298.55184642757
 30
0.0
 10
62662.58221230752
 20
-27298.47023929635
 30
0.0
 11
62662.60612221903
 21
-27298.7611264539
 31
0.0
 11
62662.59973622978
 21
-27298.71473577202
 31
0.0
 11
62662.58221230752
 21
-27298.47023929635
 31
0.0
  0
SPLINE
  5
125
330
2
100
AcDbEntity
  8
0000000000001
  6
Continuous
 62
     7
100
AcDbSpline
210
0.0
220
0.0
230
1.0
 70
     8
 71
     3
 72
     9
 73
     5
 74
     3
 42
0.0000000001
 43
0.0000000001
 44
0.0000000001
 12
-0.0496465674081445
 22
0.9987668488414044
 32
0.0
 13
-0.017483068211224
 23
0.9998471594828489
 33
0.0
 40
0.0
 40
0.0
 40
0.0
 40
0.0
 40
0.2722024632826801
 40
0.8880925562719653
 40
0.8880925562719653
 40
0.8880925562719653
 40
0.8880925562719653
 10
62662.58221230752
 20
-27298.47023929635
 30
0.0
 10
62662.5777076682
 20
-27298.37961703085
 30
0.0
 10
62662.56661415874
 20
-27298.08377953253
 30
0.0
 10
62662.55973001876
 20
-27297.78781742557
 30
0.0
 10
62662.55614080259
 20
-27297.58255210557
 30
0.0
 11
62662.58221230752
 21
-27298.47023929635
 31
0.0
 11
62662.5713027383
 21
-27298.19825554257
 31
0.0
 11
62662.55614080259
 21
-27297.58255210557
 31
0.0
  0
SPLINE
  5
126
330
2
100
AcDbEntity
  8
0
  6
Continuous
 62
     7
100
AcDbSpline
210
0.0
220
0.0
230
1.0
 70
     8
 71
     3
 72
    24
 73
    20
 74
    18
 42
0.0000000001
 43
0.0000000001
 44
0.0000000001
 12
0.9999999173240697
 22
-0.0004066347919393
 32
0.0
 13
0.9915037356726582
 23
-0.1300782154980746
 33
0.0
 40
0.0
 40
0.0
 40
0.0
 40
0.0
 40
1.990066709467048
 40
3.807406441719803
 40
5.466681865234885
 40
6.982861041440722
 40
8.370997388484747
 40
9.646123564514585
 40
10.82335702762766
 40
11.91704177231058
 40
12.93496953577233
 40
13.88212268549979
 40
14.76324556263604
 40
15.58316759995814
 40
16.34674520844116
 40
17.05884952776994
 40
17.72435764262009
 40
18.34815376264591
 40
18.93518546016001
 40
18.93518546016001
 40
18.93518546016001
 40
18.93518546016001
 10
62663.71660084397
 20
-27292.44327943775
 30
0.0
 10
62664.37995635895
 20
-27292.4435491812
 30
0.0
 10
62665.64909914997
 20
-27292.45032043121
 30
0.0
 10
62667.47114550046
 20
-27292.47772894683
 30
0.0
 10
62669.13494798037
 20
-27292.51786282255
 30
0.0
 10
62670.65535313637
 20
-27292.56746322641
 30
0.0
 10
62672.04736715781
 20
-27292.62398681407
 30
0.0
 10
62673.32606188015
 20
-27292.6855706008
 30
0.0
 10
62674.5062777564
 20
-27292.75093629502
 30
0.0
 10
62675.60044187091
 20
-27292.81918620927
 30
0.0
 10
62676.61760384339
 20
-27292.88960077878
 30
0.0
 10
62677.56361754634
 20
-27292.96149597926
 30
0.0
 10
62678.44335020836
 20
-27293.03429114044
 30
0.0
 10
62679.26162420897
 20
-27293.10755309389
 30
0.0
 10
62680.02329929598
 20
-27293.18099297554
 30
0.0
 10
62680.73324430922
 20
-27293.25445799411
 30
0.0
 10
62681.39632890234
 20
-27293.32792745171
 30
0.0
 10
62682.01743591273
 20
-27293.40151628254
 30
0.0
 10
62682.41785207496
 20
-27293.45222987324
 30
0.0
 10
62682.61186678198
 20
-27293.47768321845
 30
0.0
 11
62663.71660084397
 21
-27292.44327943775
 31
0.0
 11
62665.70663871549
 21
-27292.45399288847
 31
0.0
 11
62667.52377185286
 21
-27292.48139477675
 31
0.0
 11
62669.18256332321
 21
-27292.52146707396
 31
0.0
 11
62670.69793458752
 21
-27292.57095672612
 31
0.0
 11
62672.08492569722
 21
-27292.6273320718
 31
0.0
 11
62673.35857283245
 21
-27292.68873027773
 31
0.0
 11
62674.53400154834
 21
-27292.75389131324
 31
0.0
 11
62675.62556080546
 21
-27292.82204341472
 31
0.0
 11
62676.64105346836
 21
-27292.89241090163
 31
0.0
 11
62677.5854777212
 21
-27292.96425740249
 31
0.0
 11
62678.46359323445
 21
-27293.03699439452
 31
0.0
 11
62679.28024159619
 21
-27293.1101900266
 31
0.0
 11
62680.04028647442
 21
-27293.18355587186
 31
0.0
 11
62680.74859953314
 21
-27293.25693960618
 31
0.0
 11
62681.41004961488
 21
-27293.33032107728
 31
0.0
 11
62682.02950126657
 21
-27293.4038142781
 31
0.0
 11
62682.61186678198
 21
-27293.47768321845
 31
0.0
  0
SPLINE
  5
127
330
2
100
AcDbEntity
  8
0000000000001
  6
Continuous
 62
     7
100
AcDbSpline
210
0.0
220
0.0
230
1.0
 70
     8
 71
     3
 72
     9
 73
     5
 74
     3
 42
0.0000000001
 43
0.0000000001
 44
0.0000000001
 12
-0.0059700939041362
 22
0.9999821788305908
 32
0.0
 13
0.0087526628256711
 23
0.9999616947130826
 33
0.0
 40
0.0
 40
0.0
 40
0.0
 40
0.0
 40
0.9215149450837742
 40
4.497523424545152
 40
4.497523424545152
 40
4.497523424545152
 40
4.497523424545152
 10
62662.54782930543
 20
-27296.9407775776
 30
0.0
 10
62662.54599546185
 20
-27296.6336114034
 30
0.0
 10
62662.54201916931
 20
-27295.13443561134
 30
0.0
 10
62662.55077308774
 20
-27293.63525314964
 30
0.0
 10
62662.56120628657
 20
-27292.44329598316
 30
0.0
 11
62662.54782930543
 21
-27296.9407775776
 31
0.0
 11
62662.54490045927
 21
-27296.0192672869
 31
0.0
 11
62662.56120628657
 21
-27292.44329598316
 31
0.0
  0
LINE
  5
128
330
2
100
AcDbEntity
  8
0000000000001
  6
Continuous
 62
     7
100
AcDbLine
 10
62642.4039243964
 20
-27295.81722238488
 30
0.0
 11
62641.97133878202
 21
-27295.75910421824
 31
0.0
  0
SPLINE
  5
129
330
2
100
AcDbEntity
  8
0000000000001
  6
Continuous
 62
     7
100
AcDbSpline
210
0.0
220
0.0
230
1.0
 70
     8
 71
     3
 72
     8
 73
     4
 74
     2
 42
0.0000000001
 43
0.0000000001
 44
0.0000000001
 12
-0.9955417944337275
 22
0.0943214479091259
 32
0.0
 13
-0.9949523150671055
 23
0.1003488452479999
 33
0.0
 40
0.0
 40
0.0
 40
0.0
 40
0.0
 40
30.29849232100499
 40
30.29849232100499
 40
30.29849232100499
 40
30.29849232100499
 10
62662.54782930543
 20
-27296.9407775776
 30
0.0
 10
62652.4933575008
 20
-27295.98817835587
 30
0.0
 10
62642.43699819943
 20
-27295.05385796553
 30
0.0
 10
62632.38847984015
 20
-27294.04038505981
 30
0.0
 11
62662.54782930543
 21
-27296.9407775776
 31
0.0
 11
62632.38847984015
 21
-27294.04038505981
 31
0.0
  0
SPLINE
  5
12A
330
2
100
AcDbEntity
  8
0000000000001
  6
Continuous
 62
     7
100
AcDbSpline
210
0.0
220
0.0
230
1.0
 70
     8
 71
     3
 72
     9
 73
     5
 74
     3
 42
0.0000000001
 43
0.0000000001
 44
0.0000000001
 12
-0.6125465812110808
 22
0.7904344918123303
 32
0.0
 13
-0.1343963274834537
 23
0.9909276599020538
 33
0.0
 40
0.0
 40
0.0
 40
0.0
 40
0.0
 40
0.1459729129821982
 40
0.2180360465387291
 40
0.2180360465387291
 40
0.2180360465387291
 40
0.2180360465387291
 10
62632.46551395828
 20
-27294.45230510717
 30
0.0
 10
62632.43570888867
 20
-27294.41384443207
 30
0.0
 10
62632.42313313421
 20
-27294.3370365473
 30
0.0
 10
62632.41289954261
 20
-27294.26610791568
 30
0.0
 10
62632.40967120244
 20
-27294.24230479824
 30
0.0
 11
62632.46551395828
 21
-27294.45230510717
 31
0.0
 11
62632.41992000586
 21
-27294.31363541752
 31
0.0
 11
62632.40967120244
 21
-27294.24230479824
 31
0.0
  0
LINE
  5
12B
330
2
100
AcDbEntity
  8
0000000000001
  6
Continuous
 62
     7
100
AcDbLine
 10
62632.40967120244
 20
-27294.24230479824
 30
0.0
 11
62632.38847984015
 21
-27294.04038505981
 31
0.0
  0
SPLINE
  5
12C
330
2
100
AcDbEntity
  8
0000000000001
  6
Continuous
 62
     7
100
AcDbSpline
210
0.0
220
0.0
230
1.0
 70
     8
 71
     3
 72
     9
 73
     5
 74
     3
 42
0.0000000001
 43
0.0000000001
 44
0.0000000001
 12
-0.0429160710475423
 22
0.9990786810085792
 32
0.0
 13
0.0505411435680955
 23
0.9987219797355162
 33
0.0
 40
0.0
 40
0.0
 40
0.0
 40
0.0
 40
0.3066399329383358
 40
1.610732094489953
 40
1.610732094489953
 40
1.610732094489953
 40
1.610732094489953
 10
62632.38847984015
 20
-27294.04038505981
 30
0.0
 10
62632.38409324643
 20
-27293.93826591989
 30
0.0
 10
62632.37479699018
 20
-27293.40131226408
 30
0.0
 10
62632.39450760337
 20
-27292.86433822551
 30
0.0
 10
62632.41647770643
 20
-27292.4301963904
 30
0.0
 11
62632.38847984015
 21
-27294.04038505981
 31
0.0
 11
62632.38160499735
 21
-27293.73382220327
 31
0.0
 11
62632.41647770643
 21
-27292.4301963904
 31
0.0
  0
SPLINE
  5
12D
330
2
100
AcDbEntity
  8
0
  6
Continuous
 62
     7
100
AcDbSpline
210
0.0
220
0.0
230
1.0
 70
     8
 71
     3
 72
    15
 73
    11
 74
     9
 42
0.0000000001
 43
0.0000000001
 44
0.0000000001
 12
0.7601631069755948
 22
0.6497322916349554
 32
0.0
 13
0.1311401201173046
 23
0.9913638428425858
 33
0.0
 40
0.0
 40
0.0
 40
0.0
 40
0.0
 40
0.3694254164044238
 40
1.691484310460984
 40
3.23108555083384
 40
4.969054389721844
 40
7.113667628757724
 40
9.773728339998248
 40
12.99299778915262
 40
16.79206043692166
 40
16.79206043692166
 40
16.79206043692166
 40
16.79206043692166
 10
62945.73089268155
 20
-27320.34108773389
 30
0.0
 10
62945.82450053899
 20
-27320.26107852642
 30
0.0
 10
62946.21932542997
 20
-27319.85607509922
 30
0.0
 10
62946.82458926986
 20
-27318.95534585991
 30
0.0
 10
62947.49699248304
 20
-27317.57590745556
 30
0.0
 10
62948.16081054167
 20
-27315.89290364519
 30
0.0
 10
62948.81354255499
 20
-27313.81062284603
 30
0.0
 10
62949.48941415484
 20
-27311.2218588239
 30
0.0
 10
62950.14930081647
 20
-27308.06245504094
 30
0.0
 10
62950.50609350876
 20
-27305.74918370267
 30
0.0
 10
62950.67216335275
 20
-27304.49376592078
 30
0.0
 11
62945.73089268155
 21
-27320.34108773389
 31
0.0
 11
62945.99324347
 21
-27320.08099697649
 31
0.0
 11
62946.75871140059
 21
-27319.00308298799
 31
0.0
 11
62947.45081031872
 21
-27317.62781171771
 31
0.0
 11
62948.093397319
 21
-27316.01299976828
 31
0.0
 11
62948.74724835067
 21
-27313.97049033784
 31
0.0
 11
62949.42299388003
 21
-27311.39769206222
 31
0.0
 11
62950.0841582143
 21
-27308.24704807895
 31
0.0
 11
62950.67216335275
 21
-27304.49376592078
 31
0.0
  0
SPLINE
  5
12E
330
2
100
AcDbEntity
  8
0000000000001
  6
Continuous
 62
     7
100
AcDbSpline
210
0.0
220
0.0
230
1.0
 70
     8
 71
     3
 72
     9
 73
     5
 74
     3
 42
0.0000000001
 43
0.0000000001
 44
0.0000000001
 12
-0.6900369140516151
 22
0.7237741755866426
 32
0.0
 13
-0.1496310853318045
 23
0.9887418967063275
 33
0.0
 40
0.0
 40
0.0
 40
0.0
 40
0.0
 40
0.1346931456690219
 40
0.2022999784424062
 40
0.2022999784424062
 40
0.2022999784424062
 40
0.2022999784424062
 10
62631.73556181651
 20
-27294.34898224301
 30
0.0
 10
62631.70458073565
 20
-27294.31648643619
 30
0.0
 10
62631.69140928971
 20
-27294.24369146855
 30
0.0
 10
62631.68091911666
 20
-27294.17840377194
 30
0.0
 10
62631.67754708874
 20
-27294.15612186925
 30
0.0
 11
62631.73556181651
 21
-27294.34898224301
 31
0.0
 11
62631.68823001385
 21
-27294.22287933287
 31
0.0
 11
62631.67754708874
 21
-27294.15612186925
 31
0.0
  0
LINE
  5
12F
330
2
100
AcDbEntity
  8
0000000000001
  6
Continuous
 62
     7
100
AcDbLine
 10
62631.67754708874
 20
-27294.15612186925
 30
0.0
 11
62631.65523937114
 21
-27293.96593526963
 31
0.0
  0
SPLINE
  5
130
330
2
100
AcDbEntity
  8
0000000000001
  6
Continuous
 62
     7
100
AcDbSpline
210
0.0
220
0.0
230
1.0
 70
     8
 71
     3
 72
     9
 73
     5
 74
     3
 42
0.0000000001
 43
0.0000000001
 44
0.0000000001
 12
-0.0495883349630365
 22
0.9987697417501163
 32
0.0
 13
0.0515489057243652
 23
0.9986704713360762
 33
0.0
 40
0.0
 40
0.0
 40
0.0
 40
0.0
 40
0.2910593458992853
 40
1.537951058649947
 40
1.537951058649947
 40
1.537951058649947
 40
1.537951058649947
 10
62631.65523937114
 20
-27293.96593526963
 30
0.0
 10
62631.6504283217
 20
-27293.86903484705
 30
0.0
 10
62631.63949077377
 20
-27293.35635917452
 30
0.0
 10
62631.65853798041
 20
-27292.84359505775
 30
0.0
 10
62631.67996328152
 20
-27292.42851707959
 30
0.0
 11
62631.65523937114
 21
-27293.96593526963
 31
0.0
 11
62631.64736236623
 21
-27293.67498253184
 31
0.0
 11
62631.67996328152
 21
-27292.42851707959
 31
0.0
  0
SPLINE
  5
131
330
2
100
AcDbEntity
  8
0
  6
Continuous
 62
     7
100
AcDbSpline
210
0.0
220
0.0
230
1.0
 70
     8
 71
     3
 72
     9
 73
     5
 74
     3
 42
0.0000000001
 43
0.0000000001
 44
0.0000000001
 12
0.9308656528676719
 22
-0.3653616513965898
 32
0.0
 13
0.9420413532359388
 23
-0.3354967791103233
 33
0.0
 40
0.0
 40
0.0
 40
0.0
 40
0.0
 40
0.6375849389228722
 40
1.466119847285318
 40
1.466119847285318
 40
1.466119847285318
 40
1.466119847285318
 10
62619.08825425108
 20
-27291.27728851084
 30
0.0
 10
62619.28608955789
 20
-27291.35493820624
 30
0.0
 10
62619.74097412243
 20
-27291.53358580181
 30
0.0
 10
62620.19905007879
 20
-27291.70406450331
 30
0.0
 10
62620.45922146088
 20
-27291.79672143436
 30
0.0
 11
62619.08825425108
 21
-27291.27728851084
 31
0.0
 11
62619.6823327303
 21
-27291.50877353168
 31
0.0
 11
62620.45922146088
 21
-27291.79672143436
 31
0.0
  0
SPLINE
  5
132
330
2
100
AcDbEntity
  8
0
  6
Continuous
 62
     7
100
AcDbSpline
210
0.0
220
0.0
230
1.0
 70
     8
 71
     3
 72
     8
 73
     4
 74
     2
 42
0.0000000001
 43
0.0000000001
 44
0.0000000001
 12
-0.961609833995131
 22
0.2744203475762254
 32
0.0
 13
-0.9999939747713742
 23
0.0034713716234349
 33
0.0
 40
0.0
 40
0.0
 40
0.0
 40
0.0
 40
1.36274170011912
 40
1.36274170011912
 40
1.36274170011912
 40
1.36274170011912
 10
62857.568247468
 20
-27292.1355352551
 30
0.0
 10
62857.13143886133
 20
-27292.01088057144
 30
0.0
 10
62856.67352573939
 20
-27291.94383753181
 30
0.0
 10
62856.21928124295
 20
-27291.94226067085
 30
0.0
 11
62857.568247468
 21
-27292.1355352551
 31
0.0
 11
62856.21928124295
 21
-27291.94226067085
 31
0.0
  0
SPLINE
  5
133
330
2
100
AcDbEntity
  8
0
  6
Continuous
 62
     7
100
AcDbSpline
210
0.0
220
0.0
230
1.0
 70
     8
 71
     3
 72
    10
 73
     6
 74
     4
 42
0.0000000001
 43
0.0000000001
 44
0.0000000001
 12
-0.0738335137716595
 22
0.9972705812587324
 32
0.0
 13
-0.9994603096424377
 23
0.0328494969435228
 33
0.0
 40
0.0
 40
0.0
 40
0.0
 40
0.0
 40
2.322890147690105
 40
4.316711690361076
 40
5.938871439392852
 40
5.938871439392852
 40
5.938871439392852
 40
5.938871439392852
 10
62876.61908610738
 20
-27295.64230709083
 30
0.0
 10
62876.56191706015
 20
-27294.87012375491
 30
0.0
 10
62876.23867373186
 20
-27293.4413818389
 30
0.0
 10
62875.15735792093
 20
-27291.71500561158
 30
0.0
 10
62873.97243279406
 20
-27291.14876687537
 30
0.0
 10
62873.43200469904
 20
-27291.13100449813
 30
0.0
 11
62876.61908610738
 21
-27295.64230709083
 31
0.0
 11
62876.08004367005
 21
-27293.38282664414
 31
0.0
 11
62874.9296001138
 21
-27291.75439059446
 31
0.0
 11
62873.43200469904
 21
-27291.13100449813
 31
0.0
  0
SPLINE
  5
134
330
2
100
AcDbEntity
  8
0
  6
Continuous
 62
     7
100
AcDbSpline
210
0.0
220
0.0
230
1.0
 70
     8
 71
     3
 72
    10
 73
     6
 74
     4
 42
0.0000000001
 43
0.0000000001
 44
0.0000000001
 12
0.0738309535137932
 22
0.9972707708056242
 32
0.0
 13
0.9994704762925888
 23
0.0325387003346163
 33
0.0
 40
0.0
 40
0.0
 40
0.0
 40
0.0
 40
2.322799162444471
 40
4.316511812168389
 40
5.938612392225403
 40
5.938612392225403
 40
5.938612392225403
 40
5.938612392225403
 10
62932.24470871422
 20
-27295.64226973769
 30
0.0
 10
62932.30187353988
 20
-27294.87011650064
 30
0.0
 10
62932.62513371296
 20
-27293.44144352163
 30
0.0
 10
62933.70657137987
 20
-27291.71519872097
 30
0.0
 10
62934.8916286249
 20
-27291.14927306016
 30
0.0
 10
62935.43204250469
 20
-27291.13167937859
 30
0.0
 11
62932.24470871422
 21
-27295.64226973769
 31
0.0
 11
62932.78378961215
 21
-27293.38289200599
 31
0.0
 11
62933.93434628742
 21
-27291.75466921206
 31
0.0
 11
62935.43204250469
 21
-27291.13167937859
 31
0.0
  0
SPLINE
  5
135
330
2
100
AcDbEntity
  8
0
  6
Continuous
 62
     7
100
AcDbSpline
210
0.0
220
0.0
230
1.0
 70
     8
 71
     3
 72
     8
 73
     4
 74
     2
 42
0.0000000001
 43
0.0000000001
 44
0.0000000001
 12
0.9644137449027041
 22
0.2643976714018899
 32
0.0
 13
0.999994775880719
 23
0.0032323692968057
 33
0.0
 40
0.0
 40
0.0
 40
0.0
 40
0.0
 40
1.311354219120309
 40
1.311354219120309
 40
1.311354219120309
 40
1.311354219120309
 10
62951.34567787059
 20
-27292.12147652279
 30
0.0
 10
62951.76724054837
 20
-27292.00590352215
 30
0.0
 10
62952.20764303643
 20
-27291.94389626699
 30
0.0
 10
62952.64475882592
 20
-27291.94248333995
 30
0.0
 11
62951.34567787059
 21
-27292.12147652279
 31
0.0
 11
62952.64475882592
 21
-27291.94248333995
 31
0.0
  0
SPLINE
  5
136
330
2
100
AcDbEntity
  8
0
  6
Continuous
 62
     7
100
AcDbSpline
210
0.0
220
0.0
230
1.0
 70
     8
 71
     3
 72
    10
 73
     6
 74
     4
 42
0.0000000001
 43
0.0000000001
 44
0.0000000001
 12
0.9462173393014017
 22
-0.3235316782099949
 32
0.0
 13
0.061171119334109
 23
-0.9981272935650103
 33
0.0
 40
0.0
 40
0.0
 40
0.0
 40
0.0
 40
0.3633195282959091
 40
1.21184570208875
 40
2.471685949422908
 40
2.471685949422908
 40
2.471685949422908
 40
2.471685949422908
 10
62687.43202010336
 20
-27292.35367921044
 30
0.0
 10
62687.54661318248
 20
-27292.39286100268
 30
0.0
 10
62687.61959386614
 20
-27292.89481891963
 30
0.0
 10
62687.77012141953
 20
-27293.61899723188
 30
0.0
 10
62687.81353070417
 20
-27294.35344045114
 30
0.0
 10
62687.83921931687
 20
-27294.77260076327
 30
0.0
 11
62687.43202010336
 21
-27292.35367921044
 31
0.0
 11
62687.59044723891
 21
-27292.6806378047
 31
0.0
 11
62687.73130583451
 21
-27293.51739076923
 31
0.0
 11
62687.83921931687
 21
-27294.77260076327
 31
0.0
  0
SPLINE
  5
137
330
2
100
AcDbEntity
  8
0000000000001
  6
Continuous
 62
     7
100
AcDbSpline
210
0.0
220
0.0
230
1.0
 70
     8
 71
     3
 72
     8
 73
     4
 74
     2
 42
0.0000000001
 43
0.0000000001
 44
0.0000000001
 12
0.9998016383265545
 22
-0.0199169274622791
 32
0.0
 13
0.999972398543538
 23
-0.007429815010043
 33
0.0
 40
0.0
 40
0.0
 40
0.0
 40
0.0
 40
1.940768309082156
 40
1.940768309082156
 40
1.940768309082156
 40
1.940768309082156
 10
62627.40136605516
 20
-27291.62358841012
 30
0.0
 10
62628.04816050016
 20
-27291.63647312399
 30
0.0
 10
62628.69511501228
 20
-27291.63985754862
 30
0.0
 10
62629.34201992597
 20
-27291.64466406512
 30
0.0
 11
62627.40136605516
 21
-27291.62358841012
 31
0.0
 11
62629.34201992597
 21
-27291.64466406512
 31
0.0
  0
LINE
  5
138
330
2
100
AcDbEntity
  8
0000000000001
  6
Continuous
 62
     7
100
AcDbLine
 10
62627.40184559187
 20
-27291.25564712405
 30
0.0
 11
62629.34201958056
 21
-27291.24564029116
 31
0.0
  0
LINE
  5
139
330
2
100
AcDbEntity
  8
0000000000001
  6
Continuous
 62
     7
100
AcDbLine
 10
62625.94202147066
 20
-27291.25220048884
 30
0.0
 11
62625.94201989847
 21
-27291.10754810358
 31
0.0
  0
LINE
  5
13A
330
2
100
AcDbEntity
  8
0000000000001
  6
Continuous
 62
     7
100
AcDbLine
 10
62625.94201989847
 20
-27291.10754810358
 30
0.0
 11
62627.40183139083
 21
-27291.11075073868
 31
0.0
  0
LINE
  5
13B
330
2
100
AcDbEntity
  8
0000000000001
  6
Continuous
 62
     7
100
AcDbLine
 10
62629.3420201113
 20
-27291.10487403211
 30
0.0
 11
62627.40163085775
 21
-27291.11074261836
 31
0.0
  0
SPLINE
  5
13C
330
2
100
AcDbEntity
  8
0
  6
Continuous
 62
     7
100
AcDbSpline
210
0.0
220
0.0
230
1.0
 70
     8
 71
     3
 72
    10
 73
     6
 74
     4
 42
0.0000000001
 43
0.0000000001
 44
0.0000000001
 12
-0.9462425506020178
 22
-0.3234579345605662
 32
0.0
 13
-0.061173829939955
 23
-0.9981271274394247
 33
0.0
 40
0.0
 40
0.0
 40
0.0
 40
0.0
 40
0.3633059240852537
 40
1.211819681790773
 40
2.471649964278529
 40
2.471649964278529
 40
2.471649964278529
 40
2.471649964278529
 10
63121.43201971406
 20
-27292.35371618779
 30
0.0
 10
63121.31742787264
 20
-27292.39288758239
 30
0.0
 10
63121.24444650279
 20
-27292.8948489313
 30
0.0
 10
63121.09392057757
 20
-27293.61900374616
 30
0.0
 10
63121.05051002287
 20
-27294.35344380335
 30
0.0
 10
63121.02482047505
 20
-27294.77260073033
 30
0.0
 11
63121.43201971406
 21
-27292.35371618779
 31
0.0
 11
63121.27359428539
 21
-27292.68066049195
 31
0.0
 11
63121.13273594636
 21
-27293.51740090889
 31
0.0
 11
63121.02482047505
 21
-27294.77260073033
 31
0.0
  0
SPLINE
  5
13D
330
2
100
AcDbEntity
  8
0
  6
Continuous
 62
     7
100
AcDbSpline
210
0.0
220
0.0
230
1.0
 70
     8
 71
     3
 72
    14
 73
    10
 74
     8
 42
0.0000000001
 43
0.0000000001
 44
0.0000000001
 12
-0.9999620792555527
 22
0.0087086193459112
 32
0.0
 13
-0.0379666173544667
 23
-0.9992790080686473
 33
0.0
 40
0.0
 40
0.0
 40
0.0
 40
0.0
 40
8.897597563191483
 40
17.34631125519114
 40
24.92388002130054
 40
31.25169306281497
 40
36.01378909083935
 40
38.97185576518971
 40
39.97887652466875
 40
39.97887652466875
 40
39.97887652466875
 40
39.97887652466875
 10
62347.97112479739
 20
-27179.35473907474
 30
0.0
 10
62345.00537141084
 20
-27179.32891047798
 30
0.0
 10
62339.21894735595
 20
-27179.28005778908
 30
0.0
 10
62330.92982135247
 20
-27179.2489966932
 30
0.0
 10
62323.42065174622
 20
-27179.17188628227
 30
0.0
 10
62317.3616887742
 20
-27179.31545448454
 30
0.0
 10
62312.28218496693
 20
-27178.9802456021
 30
0.0
 10
62310.10096158048
 20
-27179.66593455617
 30
0.0
 10
62308.0082361066
 20
-27179.01930750619
 30
0.0
 10
62307.99549171599
 20
-27179.35473907474
 30
0.0
 11
62347.97112479739
 21
-27179.35473907474
 31
0.0
 11
62339.07379307717
 21
-27179.28595930364
 31
0.0
 11
62330.62521495289
 21
-27179.23809776109
 31
0.0
 11
62323.04768586104
 21
-27179.21357701011
 31
0.0
 11
62316.71987281952
 21
-27179.21357254978
 31
0.0
 11
62311.95783987458
 21
-27179.23808400452
 31
0.0
 11
62309.00016057285
 21
-27179.28595464272
 31
0.0
 11
62307.99549171599
 21
-27179.35473907474
 31
0.0
  0
SPLINE
  5
13E
330
2
100
AcDbEntity
  8
0
  6
Continuous
 62
     7
100
AcDbSpline
210
0.0
220
0.0
230
1.0
 70
     8
 71
     3
 72
    14
 73
    10
 74
     8
 42
0.0000000001
 43
0.0000000001
 44
0.0000000001
 12
0.0407600517118921
 22
0.9991689637816239
 32
0.0
 13
0.9999905068942325
 23
-0.0043573066699726
 33
0.0
 40
0.0
 40
0.0
 40
0.0
 40
0.0
 40
1.004112748143083
 40
3.960978727654529
 40
8.723198886051145
 40
15.04966321810979
 40
22.62866615837456
 40
31.0774184963743
 40
39.97644519881606
 40
39.97644519881606
 40
39.97644519881606
 40
39.97644519881606
 10
62304.32271733184
 20
-27284.52923655862
 30
0.0
 10
62304.33635989435
 20
-27284.19481046059
 30
0.0
 10
62306.42858707463
 20
-27284.92013712796
 30
0.0
 10
62308.60710655556
 20
-27284.19714123206
 30
0.0
 10
62313.68684227135
 20
-27284.57229436384
 30
0.0
 10
62319.74544197229
 20
-27284.41498438094
 30
0.0
 10
62327.25484386765
 20
-27284.48379616887
 30
0.0
 10
62335.54498275885
 20
-27284.48955647648
 30
0.0
 10
62341.3320363389
 20
-27284.51631129582
 30
0.0
 10
62344.29835041324
 20
-27284.52923655862
 30
0.0
 11
62304.32271733184
 21
-27284.52923655862
 31
0.0
 11
62305.32624091025
 21
-27284.4948441383
 31
0.0
 11
62308.28300995743
 21
-27284.47090207532
 31
0.0
 11
62313.04521435979
 21
-27284.4586518839
 31
0.0
 11
62319.37167869185
 21
-27284.45865453072
 31
0.0
 11
62326.95067171523
 21
-27284.47091504468
 31
0.0
 11
62335.39939015676
 21
-27284.49484754438
 31
0.0
 11
62344.29835041324
 21
-27284.52923655862
 31
0.0
  0
SPLINE
  5
13F
330
2
100
AcDbEntity
  8
0
  6
Continuous
 62
     7
100
AcDbSpline
210
0.0
220
0.0
230
1.0
 70
     8
 71
     3
 72
    14
 73
    10
 74
     8
 42
0.0000000001
 43
0.0000000001
 44
0.0000000001
 12
-0.0379659423097201
 22
0.9992790337160762
 32
0.0
 13
-0.9999620792505732
 23
-0.0087086199176698
 33
0.0
 40
0.0
 40
0.0
 40
0.0
 40
0.0
 40
1.007020759529886
 40
3.965087433917521
 40
8.727183461721658
 40
15.0549965033525
 40
22.63256526945361
 40
31.08127896158419
 40
39.97887652465927
 40
39.97887652465927
 40
39.97887652465927
 40
39.97887652465927
 10
63500.86854808093
 20
-27179.35473907474
 30
0.0
 10
63500.85580391692
 20
-27179.01930749757
 30
0.0
 10
63498.76307789846
 20
-27179.66593456178
 30
0.0
 10
63496.58185502546
 20
-27178.98024560317
 30
0.0
 10
63491.50235093826
 20
-27179.31545448391
 30
0.0
 10
63485.44338808165
 20
-27179.17188628343
 30
0.0
 10
63477.93421843448
 20
-27179.24899668848
 30
0.0
 10
63469.64509244425
 20
-27179.28005779127
 30
0.0
 10
63463.85866838615
 20
-27179.32891047628
 30
0.0
 10
63460.89291499965
 20
-27179.35473907474
 30
0.0
 11
63500.86854808093
 21
-27179.35473907474
 31
0.0
 11
63499.86387922419
 21
-27179.28595464027
 31
0.0
 11
63496.90619992235
 21
-27179.23808400696
 31
0.0
 11
63492.14416697764
 21
-27179.21357254978
 31
0.0
 11
63485.81635393601
 21
-27179.21357701011
 31
0.0
 11
63478.23882484416
 21
-27179.23809775852
 31
0.0
 11
63469.79024671975
 21
-27179.28595930364
 31
0.0
 11
63460.89291499965
 21
-27179.35473907474
 31
0.0
  0
SPLINE
  5
140
330
2
100
AcDbEntity
  8
0
  6
Continuous
 62
     7
100
AcDbSpline
210
0.0
220
0.0
230
1.0
 70
     8
 71
     3
 72
    14
 73
    10
 74
     8
 42
0.0000000001
 43
0.0000000001
 44
0.0000000001
 12
0.9999905068972777
 22
0.0043573059710743
 32
0.0
 13
0.0407631617416609
 23
-0.9991688369063675
 33
0.0
 40
0.0
 40
0.0
 40
0.0
 40
0.0
 40
8.899026702335248
 40
17.34777904044413
 40
24.92678198070891
 40
31.25324631276756
 40
36.01546647115789
 40
38.97233245057272
 40
39.9764451987158
 40
39.9764451987158
 40
39.9764451987158
 40
39.9764451987158
 10
63464.5656893838
 20
-27284.52923655862
 30
0.0
 10
63467.53200345812
 20
-27284.51631129789
 30
0.0
 10
63473.31905702354
 20
-27284.48955647131
 30
0.0
 10
63481.60919597563
 20
-27284.48379616854
 30
0.0
 10
63489.11859768265
 20
-27284.41498438573
 30
0.0
 10
63495.17719791611
 20
-27284.57229434999
 30
0.0
 10
63500.2569323397
 20
-27284.19714126417
 30
0.0
 10
63502.4354541886
 20
-27284.92013706845
 30
0.0
 10
63504.52767886163
 20
-27284.19481050306
 30
0.0
 10
63504.54132246508
 20
-27284.52923655862
 30
0.0
 11
63464.5656893838
 21
-27284.52923655862
 31
0.0
 11
63473.46464964017
 21
-27284.49484754182
 31
0.0
 11
63481.91336808182
 21
-27284.47091504468
 31
0.0
 11
63489.49236110519
 21
-27284.45865453072
 31
0.0
 11
63495.81882543725
 21
-27284.4586518839
 31
0.0
 11
63500.58102983961
 21
-27284.47090207287
 31
0.0
 11
63503.53779888668
 21
-27284.4948441383
 31
0.0
 11
63504.54132246508
 21
-27284.52923655862
 31
0.0
  0
SPLINE
  5
141
330
2
100
AcDbEntity
  8
0
  6
Continuous
 62
     7
100
AcDbSpline
210
0.0
220
0.0
230
1.0
 70
     8
 71
     3
 72
    48
 73
    44
 74
    42
 42
0.0000000001
 43
0.0000000001
 44
0.0000000001
 12
-0.1137760322827015
 22
0.9935064239742013
 32
0.0
 13
0.1654658774751499
 23
-0.9862155156918689
 33
0.0
 40
0.0
 40
0.0
 40
0.0
 40
0.0
 40
0.2018791238379516
 40
0.7110396886046616
 40
1.598881579090055
 40
2.992774091956585
 40
4.833334667422308
 40
6.931844344755144
 40
9.136187000436745
 40
11.31862913113864
 40
13.38526796639052
 40
15.29647158469297
 40
17.14497424257238
 40
19.07755663888174
 40
21.1469777255778
 40
23.3442011248055
 40
25.6040708305892
 40
27.9012017733397
 40
30.37185000361135
 40
33.17534949344757
 40
36.32023077508307
 40
39.67502377297758
 40
43.06617973244165
 40
46.27626938938685
 40
49.09730247689302
 40
51.55297686979432
 40
53.85688729453107
 40
56.1243001041686
 40
58.3027314185686
 40
60.34518663062778
 40
62.24094349438173
 40
64.07658327877645
 40
65.98187368066276
 40
68.01615735227925
 40
70.16158237913984
 40
72.32809583026933
 40
74.37829736956304
 40
76.14007914881874
 40
77.39771639781666
 40
78.14939360185753
 40
78.54580454782229
 40
78.7072624445285
 40
78.70791487172659
 40
78.70791487172659
 40
78.70791487172659
 40
78.70791487172659
 10
62943.77977645424
 20
-27341.15428022473
 30
0.0
 10
62943.772120119
 20
-27341.08742415592
 30
0.0
 10
62943.40527159326
 20
-27341.20216707907
 30
0.0
 10
62942.98890086984
 20
-27341.08975274623
 30
0.0
 10
62941.98849753535
 20
-27341.15776289792
 30
0.0
 10
62940.64912354756
 20
-27341.13711082782
 30
0.0
 10
62938.85759480654
 20
-27341.16745027058
 30
0.0
 10
62936.81449391907
 20
-27341.17898326547
 30
0.0
 10
62934.65139543326
 20
-27341.19097590219
 30
0.0
 10
62932.5006197376
 20
-27341.19551421758
 30
0.0
 10
62930.44709958388
 20
-27341.19542177355
 30
0.0
 10
62928.50500945082
 20
-27341.19144395382
 30
0.0
 10
62926.60758628572
 20
-27341.18453112651
 30
0.0
 10
62924.65744273243
 20
-27341.17484268248
 30
0.0
 10
62922.59107036144
 20
-27341.16243208687
 30
0.0
 10
62920.41561252195
 20
-27341.14816622893
 30
0.0
 10
62918.16423417404
 20
-27341.1363494069
 30
0.0
 10
62915.82169270021
 20
-27341.12933663654
 30
0.0
 10
62913.29793075467
 20
-27341.12817051077
 30
0.0
 10
62910.49159081146
 20
-27341.13368573286
 30
0.0
 10
62907.39055299701
 20
-27341.14452264737
 30
0.0
 10
62904.09360762323
 20
-27341.15070224222
 30
0.0
 10
62900.77493347351
 20
-27341.14200208411
 30
0.0
 10
62897.63419222105
 20
-27341.13160445153
 30
0.0
 10
62894.80525918786
 20
-27341.12773156472
 30
0.0
 10
62892.27838600364
 20
-27341.13100216265
 30
0.0
 10
62889.93606746609
 20
-27341.13975055924
 30
0.0
 10
62887.68618848409
 20
-27341.15316540419
 30
0.0
 10
62885.52346724805
 20
-27341.16713436185
 30
0.0
 10
62883.48461867042
 20
-27341.17870216691
 30
0.0
 10
62881.56002003059
 20
-27341.18738616245
 30
0.0
 10
62879.68113410783
 20
-27341.19319100398
 30
0.0
 10
62877.75605767112
 20
-27341.1959017237
 30
0.0
 10
62875.72774779644
 20
-27341.19463227887
 30
0.0
 10
62873.61225009251
 20
-27341.18840073073
 30
0.0
 10
62871.49193311674
 20
-27341.17578704814
 30
0.0
 10
62869.49793535538
 20
-27341.16090711315
 30
0.0
 10
62867.81173179599
 20
-27341.13814256608
 30
0.0
 10
62866.54640223068
 20
-27341.14388015066
 30
0.0
 10
62865.75996829469
 20
-27341.11510987237
 30
0.0
 10
62865.29973957568
 20
-27341.16318334266
 30
0.0
 10
62865.1395721785
 20
-27341.12161369731
 30
0.0
 10
62865.07355198684
 20
-27341.14783139303
 30
0.0
 10
62865.07358797165
 20
-27341.14804587097
 30
0.0
 11
62943.77977645424
 21
-27341.15428022473
 31
0.0
 11
62943.57845385213
 21
-27341.13930055444
 31
0.0
 11
62943.06932143881
 21
-27341.13394645034
 31
0.0
 11
62942.18148055268
 21
-27341.13528189345
 31
0.0
 11
62940.78762753892
 21
-27341.14577539035
 31
0.0
 11
62938.94714482155
 21
-27341.16270462496
 31
0.0
 11
62936.84869653187
 21
-27341.1787558374
 31
0.0
 11
62934.64438127834
 21
-27341.1897470474
 31
0.0
 11
62932.46194497521
 21
-27341.19479052737
 31
0.0
 11
62930.39530614184
 21
-27341.19470250865
 31
0.0
 11
62928.48410633698
 21
-27341.1908845889
 31
0.0
 11
62926.63561564233
 21
-27341.18423417807
 31
0.0
 11
62924.7030565356
 21
-27341.17474642212
 31
0.0
 11
62922.63367166513
 21
-27341.16250338582
 31
0.0
 11
62920.43649114962
 21
-27341.14877573485
 31
0.0
 11
62918.17665080007
 21
-27341.13725698218
 31
0.0
 11
62915.87952996129
 21
-27341.13044374462
 31
0.0
 11
62913.40888206547
 21
-27341.12915820992
 31
0.0
 11
62910.60538699422
 21
-27341.13413566004
 31
0.0
 11
62907.46051952467
 21
-27341.14345630948
 31
0.0
 11
62904.10572985131
 21
-27341.14817926418
 31
0.0
 11
62900.71458058085
 21
-27341.14144377343
 31
0.0
 11
62897.50450400126
 21
-27341.13228087072
 31
0.0
 11
62894.68347293514
 21
-27341.12890377562
 31
0.0
 11
62892.22780062017
 21
-27341.13209836921
 31
0.0
 11
62889.92390609664
 21
-27341.14065813869
 31
0.0
 11
62887.65652984395
 21
-27341.1535336223
 31
0.0
 11
62885.47814097759
 21
-27341.16713283051
 31
0.0
 11
62883.43571778529
 21
-27341.17856947522
 31
0.0
 11
62881.53997975555
 21
-27341.18701986471
 31
0.0
 11
62879.70434849666
 21
-27341.19261445084
 31
0.0
 11
62877.79905987149
 21
-27341.19521644214
 31
0.0
 11
62875.76477663245
 21
-27341.19388981282
 31
0.0
 11
62873.61936156326
 21
-27341.18735323965
 31
0.0
 11
62871.45288337153
 21
-27341.17499287313
 31
0.0
 11
62869.40275240191
 21
-27341.15798231287
 31
0.0
 11
62867.64104258517
 21
-27341.14205876834
 31
0.0
 11
62866.38343090939
 21
-27341.13403860412
 31
0.0
 11
62865.63175410442
 21
-27341.13481316695
 31
0.0
 11
62865.23538399293
 21
-27341.14050287616
 31
0.0
 11
62865.07408307857
 21
-27341.14762098228
 31
0.0
 11
62865.07358797165
 21
-27341.14804587097
 31
0.0
  0
SPLINE
  5
142
330
2
100
AcDbEntity
  8
0
  6
Continuous
 62
     7
100
AcDbSpline
210
0.0
220
0.0
230
1.0
 70
     8
 71
     3
 72
    11
 73
     7
 74
     5
 42
0.0000000001
 43
0.0000000001
 44
0.0000000001
 12
0.9749333642036768
 22
-0.2224970457388162
 32
0.0
 13
0.9999928721242675
 23
-0.0037756722128009
 33
0.0
 40
0.0
 40
0.0
 40
0.0
 40
0.0
 40
6.051275654870052
 40
12.0375835322551
 40
14.81207088106992
 40
15.93663562111066
 40
15.93663562111066
 40
15.93663562111066
 40
15.93663562111066
 10
62610.09963340699
 20
-27289.82601110093
 30
0.0
 10
62612.0661635843
 20
-27290.27480808631
 30
0.0
 10
62616.0387675539
 20
-27290.91451402702
 30
0.0
 10
62620.97281540366
 20
-27291.19814930931
 30
0.0
 10
62624.26762232018
 20
-27291.24383469064
 30
0.0
 10
62625.56729687945
 20
-27291.25068306938
 30
0.0
 10
62625.94214912088
 20
-27291.25209839866
 30
0.0
 11
62610.09963340699
 21
-27289.82601110093
 31
0.0
 11
62616.06961740812
 21
-27290.81455957089
 31
0.0
 11
62622.04348899846
 21
-27291.20022811382
 31
0.0
 11
62624.817602
 21
-27291.24580336423
 31
0.0
 11
62625.94214912088
 21
-27291.25209839866
 31
0.0
  0
SPLINE
  5
143
330
2
100
AcDbEntity
  8
0000000000001
  6
Continuous
 62
     7
100
AcDbSpline
210
0.0
220
0.0
230
1.0
 70
     8
 71
     3
 72
     9
 73
     5
 74
     3
 42
0.0000000001
 43
0.0000000001
 44
0.0000000001
 12
-0.9997801249594612
 22
-0.0209690661700541
 32
0.0
 13
-0.9999931674089054
 23
0.0036966384059768
 33
0.0
 40
0.0
 40
0.0
 40
0.0
 40
0.0
 40
1.519367400923747
 40
3.062892378672732
 40
3.062892378672732
 40
3.062892378672732
 40
3.062892378672732
 10
62632.40466717634
 20
-27291.97910825527
 30
0.0
 10
62631.89832273302
 20
-27291.98972816045
 30
0.0
 10
62630.87752737789
 20
-27292.00884422481
 30
0.0
 10
62629.85652482027
 20
-27292.01464936207
 30
0.0
 10
62629.34202000979
 20
-27292.01274741083
 30
0.0
 11
62632.40466717634
 21
-27291.97910825527
 31
0.0
 11
62630.88552758566
 21
-27292.00541800706
 31
0.0
 11
62629.34202000979
 21
-27292.01274741083
 31
0.0
  0
SPLINE
  5
144
330
2
100
AcDbEntity
  8
0
  6
Continuous
 62
     7
100
AcDbSpline
210
0.0
220
0.0
230
1.0
 70
     8
 71
     3
 72
     9
 73
     5
 74
     3
 42
0.0000000001
 43
0.0000000001
 44
0.0000000001
 12
-0.9999887452081408
 22
0.0047444132459211
 32
0.0
 13
-0.985422153376121
 23
0.1701269515261145
 33
0.0
 40
0.0
 40
0.0
 40
0.0
 40
0.0
 40
6.410493369921706
 40
10.93991066805346
 40
10.93991066805346
 40
10.93991066805346
 40
10.93991066805346
 10
62631.67996430004
 20
-27292.4283027442
 30
0.0
 10
62629.54315722632
 20
-27292.41816473431
 30
0.0
 10
62625.89397893575
 20
-27292.21034026425
 30
0.0
 10
62622.28343186396
 20
-27291.68293465331
 30
0.0
 10
62620.7956358148
 20
-27291.42607600093
 30
0.0
 11
62631.67996430004
 21
-27292.4283027442
 31
0.0
 11
62625.27978118233
 21
-27292.06487282589
 31
0.0
 11
62620.7956358148
 21
-27291.42607600093
 31
0.0
  0
LINE
  5
145
330
2
100
AcDbEntity
  8
0000000000001
  6
Continuous
 62
     7
100
AcDbLine
 10
62632.40843936338
 20
-27291.60181304838
 30
0.0
 11
62629.34201989791
 21
-27291.62440327767
 31
0.0
  0
LINE
  5
146
330
2
100
AcDbEntity
  8
0000000000001
  6
Continuous
 62
     7
100
AcDbLine
 10
62627.4016597986
 20
-27291.09850324227
 30
0.0
 11
62627.38580699815
 21
-27289.70373405577
 31
0.0
  0
SPLINE
  5
147
330
2
100
AcDbEntity
  8
0
  6
Continuous
 62
     7
100
AcDbSpline
210
0.0
220
0.0
230
1.0
 70
     8
 71
     3
 72
    11
 73
     7
 74
     5
 42
0.0000000001
 43
0.0000000001
 44
0.0000000001
 12
-0.97493336963858
 22
-0.2224970219242587
 32
0.0
 13
-0.9999928721244531
 23
-0.003775672163632
 33
0.0
 40
0.0
 40
0.0
 40
0.0
 40
0.0
 40
6.051274518149975
 40
12.03758239576736
 40
14.81206974434939
 40
15.93663448462296
 40
15.93663448462296
 40
15.93663448462296
 40
15.93663448462296
 10
63198.76440528003
 20
-27289.82601135494
 30
0.0
 10
63196.79787546117
 20
-27290.27480820799
 30
0.0
 10
63192.82527186519
 20
-27290.91451404839
 30
0.0
 10
63187.89122439334
 20
-27291.19814930937
 30
0.0
 10
63184.59641747683
 20
-27291.24383469062
 30
0.0
 10
63183.29674291756
 20
-27291.2506830694
 30
0.0
 10
63182.92189067605
 20
-27291.25209839866
 30
0.0
 11
63198.76440528003
 21
-27289.82601135494
 31
0.0
 11
63192.79442238904
 21
-27290.81455957089
 31
0.0
 11
63186.82055079847
 21
-27291.20022811382
 31
0.0
 11
63184.04643779716
 21
-27291.24580336423
 31
0.0
 11
63182.92189067605
 21
-27291.25209839866
 31
0.0
  0
SPLINE
  5
148
330
2
100
AcDbEntity
  8
0000000000001
  6
Continuous
 62
     7
100
AcDbSpline
210
0.0
220
0.0
230
1.0
 70
     8
 71
     3
 72
     9
 73
     5
 74
     3
 42
0.0000000001
 43
0.0000000001
 44
0.0000000001
 12
0.9997801249594612
 22
-0.0209690661700541
 32
0.0
 13
0.9999931674089054
 23
0.0036966384059768
 33
0.0
 40
0.0
 40
0.0
 40
0.0
 40
0.0
 40
1.519367400923747
 40
3.062892378672732
 40
3.062892378672732
 40
3.062892378672732
 40
3.062892378672732
 10
63176.45937262071
 20
-27291.97910825527
 30
0.0
 10
63176.96571706402
 20
-27291.98972816045
 30
0.0
 10
63177.98651241912
 20
-27292.00884422481
 30
0.0
 10
63179.00751497677
 20
-27292.01464936207
 30
0.0
 10
63179.52201978726
 20
-27292.01274741083
 30
0.0
 11
63176.45937262071
 21
-27291.97910825527
 31
0.0
 11
63177.97851221138
 21
-27292.00541800706
 31
0.0
 11
63179.52201978726
 21
-27292.01274741083
 31
0.0
  0
SPLINE
  5
149
330
2
100
AcDbEntity
  8
0
  6
Continuous
 62
     7
100
AcDbSpline
210
0.0
220
0.0
230
1.0
 70
     8
 71
     3
 72
     9
 73
     5
 74
     3
 42
0.0000000001
 43
0.0000000001
 44
0.0000000001
 12
0.9999887452081617
 22
0.0047444132415146
 32
0.0
 13
0.9854221533318863
 23
0.1701269517823332
 33
0.0
 40
0.0
 40
0.0
 40
0.0
 40
0.0
 40
6.410493370154162
 40
10.93991067855877
 40
10.93991067855877
 40
10.93991067855877
 40
10.93991067855877
 10
63177.18407549689
 20
-27292.4283027442
 30
0.0
 10
63179.32088257068
 20
-27292.41816473432
 30
0.0
 10
63182.97006086482
 20
-27292.2103402645
 30
0.0
 10
63186.5806079399
 20
-27291.68293465171
 30
0.0
 10
63188.06840399236
 20
-27291.42607599837
 30
0.0
 11
63177.18407549689
 21
-27292.4283027442
 31
0.0
 11
63183.58425861483
 21
-27292.06487282589
 31
0.0
 11
63188.06840399236
 21
-27291.42607599837
 31
0.0
  0
LINE
  5
14A
330
2
100
AcDbEntity
  8
0000000000001
  6
Continuous
 62
     7
100
AcDbLine
 10
63181.46237999844
 20
-27291.09850324227
 30
0.0
 11
63181.47823279889
 21
-27289.70373405577
 31
0.0
  0
LINE
  5
14B
330
2
100
AcDbEntity
  8
0000000000001
  6
Continuous
 62
     7
100
AcDbLine
 10
63176.45560043378
 20
-27291.60181304838
 30
0.0
 11
63179.52201989901
 21
-27291.62440327767
 31
0.0
  0
SPLINE
  5
14C
330
2
100
AcDbEntity
  8
0000000000001
  6
Continuous
 62
     7
100
AcDbSpline
210
0.0
220
0.0
230
1.0
 70
     8
 71
     3
 72
    15
 73
    11
 74
     9
 42
0.0000000001
 43
0.0000000001
 44
0.0000000001
 12
-0.9994960986976938
 22
-0.0317419074425241
 32
0.0
 13
-0.9999968981956921
 23
-0.002490702510245
 33
0.0
 40
0.0
 40
0.0
 40
0.0
 40
0.0
 40
14.23806929102126
 40
21.20472069137453
 40
27.74731316515723
 40
33.85662694740422
 40
39.99434829294184
 40
46.77839506427996
 40
50.69437777416633
 40
55.06624299105522
 40
55.06624299105522
 40
55.06624299105522
 40
55.06624299105522
 10
63176.47200392899
 20
-27290.0542002813
 30
0.0
 10
63171.72837235921
 20
-27290.20484810717
 30
0.0
 10
63164.66297108969
 20
-27290.40570847772
 30
0.0
 10
63155.41801334092
 20
-27290.68274226515
 30
0.0
 10
63148.88224130201
 20
-27290.90511255337
 30
0.0
 10
63142.62389999483
 20
-27291.15224670329
 30
0.0
 10
63136.28492499113
 20
-27291.39692692987
 30
0.0
 10
63130.6749522006
 20
-27291.57204215902
 30
0.0
 10
63125.65192819954
 20
-27291.67363497776
 30
0.0
 10
63122.8893037848
 20
-27291.69430245018
 30
0.0
 10
63121.4320198994
 20
-27291.69793212207
 30
0.0
 11
63176.47200392899
 21
-27290.0542002813
 31
0.0
 11
63162.24028740127
 21
-27290.47947879069
 31
0.0
 11
63155.27687304528
 21
-27290.69182812728
 31
0.0
 11
63148.73812813699
 21
-27290.91617451634
 31
0.0
 11
63142.63332795645
 21
-27291.15097154726
 31
0.0
 11
63136.49993568941
 21
-27291.38145498271
 31
0.0
 11
63129.71897713808
 21
-27291.58612965341
 31
0.0
 11
63125.80374318294
 21
-27291.66270419667
 31
0.0
 11
63121.4320198994
 21
-27291.69793212207
 31
0.0
  0
LINE
  5
14D
330
2
100
AcDbEntity
  8
0000000000001
  6
Continuous
 62
     7
100
AcDbLine
 10
63121.4320198994
 20
-27291.69793211194
 30
0.0
 11
63121.43201451716
 21
-27289.70373405822
 31
0.0
  0
LINE
  5
14E
330
2
100
AcDbEntity
  8
0
  6
Continuous
 62
     7
100
AcDbLine
 10
63145.14743954749
 20
-27292.44327943507
 30
0.0
 11
63146.3028333149
 21
-27292.44282065521
 31
0.0
  0
LINE
  5
14F
330
2
100
AcDbEntity
  8
0000000000001
  6
Continuous
 62
     7
100
AcDbLine
 10
63146.3028333149
 20
-27292.44282065521
 30
0.0
 11
63176.43890132816
 21
-27292.42984172518
 31
0.0
  0
LINE
  5
150
330
2
100
AcDbEntity
  8
0000000000001
  6
Continuous
 62
     7
100
AcDbLine
 10
63176.43538856148
 20
-27292.42978627435
 30
0.0
 11
63176.44311099456
 21
-27291.97881876889
 31
0.0
  0
LINE
  5
151
330
2
100
AcDbEntity
  8
0000000000001
  6
Continuous
 62
     7
100
AcDbLine
 10
63176.45937261815
 20
-27291.97910593371
 30
0.0
 11
63176.45191998899
 21
-27291.62280026325
 31
0.0
  0
SPLINE
  5
152
330
2
100
AcDbEntity
  8
0000000000001
  6
Continuous
 62
     7
100
AcDbSpline
210
0.0
220
0.0
230
1.0
 70
     8
 71
     3
 72
    15
 73
    11
 74
     9
 42
0.0000000001
 43
0.0000000001
 44
0.0000000001
 12
-0.9999954322971969
 22
-0.0030224798994083
 32
0.0
 13
-0.9999991789612064
 23
-0.0012814354891349
 33
0.0
 40
0.0
 40
0.0
 40
0.0
 40
0.0
 40
13.75217159823203
 40
20.63013365462843
 40
27.50809890555003
 40
34.38606433991433
 40
41.26402705265071
 40
48.1419872452435
 40
51.58096694331071
 40
55.01994667764429
 40
55.01994667764429
 40
55.01994667764429
 40
55.01994667764429
 10
63176.45189519858
 20
-27291.61231005823
 30
0.0
 10
63171.86785893778
 20
-27291.62616527897
 30
0.0
 10
63164.99116004107
 20
-27291.64065365329
 30
0.0
 10
63155.82180291077
 20
-27291.6534663899
 30
0.0
 10
63148.94384311407
 20
-27291.66136946574
 30
0.0
 10
63142.06588289255
 20
-27291.66900778757
 30
0.0
 10
63135.18792621123
 20
-27291.67821648048
 30
0.0
 10
63129.45629841733
 20
-27291.68678631308
 30
0.0
 10
63124.87099659636
 20
-27291.69336755223
 30
0.0
 10
63122.57834553633
 20
-27291.69646317851
 30
0.0
 10
63121.4320198994
 20
-27291.69793212207
 30
0.0
 11
63176.45189519858
 21
-27291.61231005823
 31
0.0
 11
63162.69975854739
 21
-27291.64331318895
 31
0.0
 11
63155.82180357075
 21
-27291.65318175699
 31
0.0
 11
63148.94384314087
 21
-27291.66132533995
 31
0.0
 11
63142.06588229435
 21
-27291.66926951756
 31
0.0
 11
63135.18792563622
 21
-27291.67839566644
 31
0.0
 11
63128.30997273223
 21
-27291.68840873768
 31
0.0
 11
63124.87099653939
 21
-27291.69331880394
 31
0.0
 11
63121.4320198994
 21
-27291.69793212207
 31
0.0
  0
LINE
  5
153
330
2
100
AcDbEntity
  8
0
  6
Continuous
 62
     7
100
AcDbLine
 10
63121.432019747
 20
-27292.35371660432
 30
0.0
 11
63121.4320198994
 21
-27291.69793212207
 31
0.0
  0
SPLINE
  5
154
330
2
100
AcDbEntity
  8
0
  6
Continuous
 62
     7
100
AcDbSpline
210
0.0
220
0.0
230
1.0
 70
     8
 71
     3
 72
     9
 73
     5
 74
     3
 42
0.0000000001
 43
0.0000000001
 44
0.0000000001
 12
-0.9483164146908499
 22
0.3173262952039932
 32
0.0
 13
-0.9984171683816546
 23
0.0562419583652508
 33
0.0
 40
0.0
 40
0.0
 40
0.0
 40
0.0
 40
1.677573805337769
 40
5.15207149064434
 40
5.15207149064434
 40
5.15207149064434
 40
5.15207149064434
 10
62952.64475868366
 20
-27291.94223165899
 30
0.0
 10
62952.11446842484
 20
-27291.76478556546
 30
0.0
 10
62950.37147389937
 20
-27291.67941358153
 30
0.0
 10
62948.67277898672
 20
-27291.55165445464
 30
0.0
 10
62947.51644627321
 20
-27291.48651693659
 30
0.0
 11
62952.64475868366
 21
-27291.94223165899
 31
0.0
 11
62950.98408701902
 21
-27291.70469535727
 31
0.0
 11
62947.51644627321
 21
-27291.48651693659
 31
0.0
  0
SPLINE
  5
155
330
2
100
AcDbEntity
  8
0
  6
Continuous
 62
     7
100
AcDbSpline
210
0.0
220
0.0
230
1.0
 70
     8
 71
     3
 72
     9
 73
     5
 74
     3
 42
0.0000000001
 43
0.0000000001
 44
0.0000000001
 12
-0.9984171683708829
 22
0.0562419585564735
 32
0.0
 13
-0.9998277105064419
 23
0.0185620393127123
 33
0.0
 40
0.0
 40
0.0
 40
0.0
 40
0.0
 40
5.276125507188972
 40
12.08988752216425
 40
12.08988752216425
 40
12.08988752216425
 40
12.08988752216425
 10
62947.51644627321
 20
-27291.48651693659
 30
0.0
 10
62945.76052151026
 20
-27291.38760372589
 30
0.0
 10
62941.73133836433
 20
-27291.27491233285
 30
0.0
 10
62937.70289289009
 20
-27291.17418758738
 30
0.0
 10
62935.43203019831
 20
-27291.13202848125
 30
0.0
 11
62947.51644627321
 21
-27291.48651693659
 31
0.0
 11
62942.24392523596
 21
-27291.29152391295
 31
0.0
 11
62935.43203019831
 21
-27291.13202848125
 31
0.0
  0
LINE
  5
156
330
2
100
AcDbEntity
  8
0
  6
Continuous
 62
     7
100
AcDbLine
 10
62951.32096006386
 20
-27292.37106453258
 30
0.0
 11
62951.71845991144
 21
-27292.30981781487
 31
0.0
  0
LINE
  5
157
330
2
100
AcDbEntity
  8
0
  6
Continuous
 62
     7
100
AcDbLine
 10
62951.32096006386
 20
-27292.37106453258
 30
0.0
 11
63045.75499327053
 21
-27292.30074483834
 31
0.0
  0
SPLINE
  5
158
330
2
100
AcDbEntity
  8
0
  6
Continuous
 62
     7
100
AcDbSpline
210
0.0
220
0.0
230
1.0
 70
     8
 71
     3
 72
     9
 73
     5
 74
     3
 42
0.0000000001
 43
0.0000000001
 44
0.0000000001
 12
0.9999988527714558
 22
0.0015147461081983
 32
0.0
 13
0.9999991779906913
 23
0.0012821926304021
 33
0.0
 40
0.0
 40
0.0
 40
0.0
 40
0.0
 40
85.15922918824925
 40
168.7874388040041
 40
168.7874388040041
 40
168.7874388040041
 40
168.7874388040041
 10
62952.64475852615
 20
-27291.94223165899
 30
0.0
 10
62981.03113568987
 20
-27291.89923345533
 30
0.0
 10
63037.2935423516
 20
-27291.80840026991
 30
0.0
 10
63093.55597294186
 20
-27291.73367281783
 30
0.0
 10
63121.4320198994
 20
-27291.69793032648
 30
0.0
 11
62952.64475852615
 21
-27291.94223165899
 31
0.0
 11
63037.80388763864
 21
-27291.81167615941
 31
0.0
 11
63121.4320198994
 21
-27291.69793032648
 31
0.0
  0
SPLINE
  5
159
330
2
100
AcDbEntity
  8
0
  6
Continuous
 62
     7
100
AcDbSpline
210
0.0
220
0.0
230
1.0
 70
     8
 71
     3
 72
     9
 73
     5
 74
     3
 42
0.0000000001
 43
0.0000000001
 44
0.0000000001
 12
0.9878608093886859
 22
0.1553416276274013
 32
0.0
 13
-0.9481334417043262
 23
0.3178725793803379
 33
0.0
 40
0.0
 40
0.0
 40
0.0
 40
0.0
 40
0.6400104673621823
 40
0.8178367193118473
 40
0.8178367193118473
 40
0.8178367193118473
 40
0.8178367193118473
 10
62952.11511132031
 20
-27292.2479430541
 30
0.0
 10
62952.32585840641
 20
-27292.21480296486
 30
0.0
 10
62952.8574323939
 20
-27292.31812951176
 30
0.0
 10
62952.70095953157
 20
-27291.96107368879
 30
0.0
 10
62952.64475852615
 20
-27291.94223165899
 30
0.0
 11
62952.11511132031
 21
-27292.2479430541
 31
0.0
 11
62952.73647541928
 21
-27292.0945805592
 31
0.0
 11
62952.64475852615
 21
-27291.94223165899
 31
0.0
  0
LINE
  5
15A
330
2
100
AcDbEntity
  8
0
  6
Continuous
 62
     7
100
AcDbLine
 10
62950.67439917757
 20
-27304.49377603517
 30
0.0
 11
62951.32584377265
 21
-27297.35055544475
 31
0.0
  0
SPLINE
  5
15B
330
2
100
AcDbEntity
  8
0
  6
Continuous
 62
     7
100
AcDbSpline
210
0.0
220
0.0
230
1.0
 70
     8
 71
     3
 72
    10
 73
     6
 74
     4
 42
0.0000000001
 43
0.0000000001
 44
0.0000000001
 12
-0.9929000167531135
 22
-0.118951909323335
 32
0.0
 13
-0.9992649762609426
 23
-0.0383341521129391
 33
0.0
 40
0.0
 40
0.0
 40
0.0
 40
0.0
 40
17.7093279354679
 40
64.76064409687679
 40
95.44243852870328
 40
95.44243852870328
 40
95.44243852870328
 40
95.44243852870328
 10
63045.82029497137
 20
-27297.27022257264
 30
0.0
 10
63039.95909763677
 20
-27297.97240869622
 30
0.0
 10
63018.50478358558
 20
-27300.3707867833
 30
0.0
 10
62986.77628989869
 20
-27302.85225226404
 30
0.0
 10
62960.89455910017
 20
-27304.11247247846
 30
0.0
 10
62950.67481157198
 20
-27304.50452600341
 30
0.0
 11
63045.82029497137
 21
-27297.27022257264
 31
0.0
 11
63028.21981496274
 21
-27299.23068154734
 31
0.0
 11
62981.31965169697
 21
-27302.99910803142
 31
0.0
 11
62950.67481157198
 21
-27304.50452600341
 31
0.0
  0
LINE
  5
15C
330
2
100
AcDbEntity
  8
0
  6
Continuous
 62
     7
100
AcDbLine
 10
62951.32584377265
 20
-27297.35055544475
 30
0.0
 11
63045.82147137987
 21
-27297.28004213646
 31
0.0
  0
SPLINE
  5
15D
330
2
100
AcDbEntity
  8
0000000000001
  6
Continuous
 62
     7
100
AcDbSpline
210
0.0
220
0.0
230
1.0
 70
     8
 71
     3
 72
    10
 73
     6
 74
     4
 42
0.0000000001
 43
0.0000000001
 44
0.0000000001
 12
0.0030210753242217
 22
0.99999543654153
 32
0.0
 13
0.0398022464945109
 23
0.9992075766195881
 33
0.0
 40
0.0
 40
0.0
 40
0.0
 40
0.0
 40
0.6156463517624782
 40
1.420711195737432
 40
2.461312978034587
 40
2.461312978034587
 40
2.461312978034587
 40
2.461312978034587
 10
63121.4320547432
 20
-27301.80107299276
 30
0.0
 10
63121.43267471453
 20
-27301.59585847867
 30
0.0
 10
63121.35513152171
 20
-27301.12562982939
 30
0.0
 10
63121.37435816854
 20
-27300.30297054649
 30
0.0
 10
63121.41821731089
 20
-27299.68978819282
 30
0.0
 10
63121.43202340711
 20
-27299.34319579779
 30
0.0
 11
63121.4320547432
 21
-27301.80107299276
 31
0.0
 11
63121.38211518343
 21
-27301.18745546465
 31
0.0
 11
63121.37811992844
 21
-27300.38240053426
 31
0.0
 11
63121.43202340711
 21
-27299.34319579779
 31
0.0
  0
SPLINE
  5
15E
330
2
100
AcDbEntity
  8
0
  6
Continuous
 62
     7
100
AcDbSpline
210
0.0
220
0.0
230
1.0
 70
     8
 71
     3
 72
    10
 73
     6
 74
     4
 42
0.0000000001
 43
0.0000000001
 44
0.0000000001
 12
0.0398022476492794
 22
0.9992075765735894
 32
0.0
 13
0.0066528372380425
 23
0.9999778696334654
 33
0.0
 40
0.0
 40
0.0
 40
0.0
 40
0.0
 40
1.255146123175594
 40
2.7762942214323
 40
4.58624273906509
 40
4.58624273906509
 40
4.58624273906509
 40
4.58624273906509
 10
63121.43202340711
 20
-27299.34319579779
 30
0.0
 10
63121.44867595272
 20
-27298.92514529246
 30
0.0
 10
63121.53112306835
 20
-27298.00100550896
 30
0.0
 10
63121.40640389667
 20
-27296.47345555044
 30
0.0
 10
63121.39671133615
 20
-27295.36307128824
 30
0.0
 10
63121.40072510045
 20
-27294.7597684673
 30
0.0
 11
63121.43202340711
 21
-27299.34319579779
 31
0.0
 11
63121.49094118367
 21
-27298.08943326599
 31
0.0
 11
63121.43112640109
 21
-27296.569461645
 31
0.0
 11
63121.40072510045
 21
-27294.7597684673
 31
0.0
  0
LINE
  5
15F
330
2
100
AcDbEntity
  8
0
  6
Continuous
 62
     7
100
AcDbLine
 10
63121.02482044211
 20
-27294.77260051694
 30
0.0
 11
63121.40072510045
 21
-27294.7597684673
 31
0.0
  0
SPLINE
  5
160
330
2
100
AcDbEntity
  8
0
  6
Continuous
 62
     7
100
AcDbSpline
210
0.0
220
0.0
230
1.0
 70
     8
 71
     3
 72
    11
 73
     7
 74
     5
 42
0.0000000001
 43
0.0000000001
 44
0.0000000001
 12
0.9995749753189905
 22
0.0291525078859373
 32
0.0
 13
0.9994175419342992
 23
0.034125897409495
 33
0.0
 40
0.0
 40
0.0
 40
0.0
 40
0.0
 40
21.44841750412352
 40
41.04192690464742
 40
59.03425135878266
 40
75.36243168128115
 40
75.36243168128115
 40
75.36243168128115
 40
75.36243168128115
 10
63045.70472467414
 20
-27297.29359026279
 30
0.0
 10
63052.85115847325
 20
-27297.08516520932
 30
0.0
 10
63066.52544688424
 20
-27296.66767960348
 30
0.0
 10
63086.19274990048
 20
-27296.01545259857
 30
0.0
 10
63104.15235576392
 20
-27295.36600708981
 30
0.0
 10
63115.58526382805
 20
-27294.95833845246
 30
0.0
 10
63121.02482044211
 20
-27294.77260051694
 30
0.0
 11
63045.70472467414
 21
-27297.29359026279
 31
0.0
 11
63067.14315076338
 21
-27296.63899095988
 31
0.0
 11
63086.72582841283
 21
-27295.98757196558
 31
0.0
 11
63104.70676558013
 21
-27295.34754239724
 31
0.0
 11
63121.02482044211
 21
-27294.77260051694
 31
0.0
  0
LINE
  5
161
330
2
100
AcDbEntity
  8
0
  6
Continuous
 62
     7
100
AcDbLine
 10
62935.4320235638
 20
-27289.70373404296
 30
0.0
 11
62935.43202926104
 21
-27291.13167901794
 31
0.0
  0
LINE
  5
162
330
2
100
AcDbEntity
  8
0000000000001
  6
Continuous
 62
     7
100
AcDbLine
 10
63121.4320198994
 20
-27302.33739612895
 30
0.0
 11
63126.24083809988
 21
-27301.63366735857
 31
0.0
  0
LINE
  5
163
330
2
100
AcDbEntity
  8
0000000000001
  6
Continuous
 62
     7
100
AcDbLine
 10
63126.24083809988
 20
-27301.63366735857
 30
0.0
 11
63126.24571580919
 21
-27301.14635759409
 31
0.0
  0
LINE
  5
164
330
2
100
AcDbEntity
  8
0000000000001
  6
Continuous
 62
     7
100
AcDbLine
 10
63121.4320198994
 20
-27301.80085398387
 30
0.0
 11
63126.24571580919
 21
-27301.14635759409
 31
0.0
  0
LINE
  5
165
330
2
100
AcDbEntity
  8
0000000000001
  6
Continuous
 62
     7
100
AcDbLine
 10
63126.25111781773
 20
-27299.80611793781
 30
0.0
 11
63126.2529063714
 21
-27298.87205907437
 31
0.0
  0
LINE
  5
166
330
2
100
AcDbEntity
  8
0000000000001
  6
Continuous
 62
     7
100
AcDbLine
 10
63121.4320198994
 20
-27299.34317376584
 30
0.0
 11
63126.2529063714
 21
-27298.87205907437
 31
0.0
  0
SPLINE
  5
167
330
2
100
AcDbEntity
  8
0
  6
Continuous
 62
     7
100
AcDbSpline
210
0.0
220
0.0
230
1.0
 70
     8
 71
     3
 72
    15
 73
    11
 74
     9
 42
0.0000000001
 43
0.0000000001
 44
0.0000000001
 12
0.0066503319200183
 22
0.9999778862981688
 32
0.0
 13
0.979047797417175
 23
0.2036305732756706
 33
0.0
 40
0.0
 40
0.0
 40
0.0
 40
0.0
 40
0.1932502381448315
 40
0.4160771124412096
 40
0.6571599501322513
 40
0.926281849382611
 40
1.227150592190657
 40
1.553083809878332
 40
1.890609805805923
 40
2.249269337162296
 40
2.249269337162296
 40
2.249269337162296
 40
2.249269337162296
 10
63121.40072509789
 20
-27294.75976845217
 30
0.0
 10
63121.40115349063
 20
-27294.69535313062
 30
0.0
 10
63121.49417497543
 20
-27294.5688007827
 30
0.0
 10
63121.67841028688
 20
-27294.45670799053
 30
0.0
 10
63121.90135314983
 20
-27294.35283476397
 30
0.0
 10
63122.15522600664
 20
-27294.26038322479
 30
0.0
 10
63122.44070172793
 20
-27294.172041844
 30
0.0
 10
63122.75117263872
 20
-27294.08867672526
 30
0.0
 10
63123.08254413447
 20
-27294.00930483197
 30
0.0
 10
63123.30934729045
 20
-27293.96011126428
 30
0.0
 10
63123.42639556518
 20
-27293.93576658229
 30
0.0
 11
63121.40072509789
 21
-27294.75976845217
 31
0.0
 11
63121.4926592269
 21
-27294.58978677532
 31
0.0
 11
63121.67583814941
 21
-27294.46291164672
 31
0.0
 11
63121.89383588198
 21
-27294.35996543153
 31
0.0
 11
63122.14600434902
 21
-27294.26595659743
 31
0.0
 11
63122.43319431311
 21
-27294.17626866666
 31
0.0
 11
63122.74779972157
 21
-27294.09108709966
 31
0.0
 11
63123.07595104646
 21
-27294.0120902269
 31
0.0
 11
63123.42639556518
 21
-27293.93576658229
 31
0.0
  0
SPLINE
  5
168
330
2
100
AcDbEntity
  8
0
  6
Continuous
 62
     7
100
AcDbSpline
210
0.0
220
0.0
230
1.0
 70
     8
 71
     3
 72
    12
 73
     8
 74
     6
 42
0.0000000001
 43
0.0000000001
 44
0.0000000001
 12
0.9790477974233361
 22
0.203630573246048
 32
0.0
 13
0.9902614555446266
 23
0.1392201481921263
 33
0.0
 40
0.0
 40
0.0
 40
0.0
 40
0.0
 40
0.3876543301195532
 40
0.8085139330384567
 40
1.266688503005424
 40
1.766034175083282
 40
2.302097443324746
 40
2.302097443324746
 40
2.302097443324746
 40
2.302097443324746
 10
63123.42639556518
 20
-27293.93576658229
 30
0.0
 10
63123.5529062712
 20
-27293.90945382446
 30
0.0
 10
63123.81727316137
 20
-27293.85700559098
 30
0.0
 10
63124.23264843645
 20
-27293.78116296083
 30
0.0
 10
63124.68571319573
 20
-27293.70469482646
 30
0.0
 10
63125.17759942086
 20
-27293.62772792021
 30
0.0
 10
63125.51915029147
 20
-27293.57805899243
 30
0.0
 10
63125.6960978889
 20
-27293.55318205655
 30
0.0
 11
63123.42639556518
 21
-27293.93576658229
 31
0.0
 11
63123.80659109392
 21
-27293.86008805435
 31
0.0
 11
63124.22056748465
 21
-27293.78428334943
 31
0.0
 11
63124.67232065778
 21
-27293.70784378427
 31
0.0
 11
63125.16563656731
 21
-27293.63047768295
 31
0.0
 11
63125.6960978889
 21
-27293.55318205655
 31
0.0
  0
LINE
  5
169
330
2
100
AcDbEntity
  8
0
  6
Continuous
 62
     7
100
AcDbLine
 10
63126.2529063714
 20
-27298.87205907437
 30
0.0
 11
63126.25217301494
 21
-27293.47768304069
 31
0.0
  0
SPLINE
  5
16A
330
2
100
AcDbEntity
  8
0000000000001
  6
Continuous
 62
     7
100
AcDbSpline
210
0.0
220
0.0
230
1.0
 70
     8
 71
     3
 72
     9
 73
     5
 74
     3
 42
0.0000000001
 43
0.0000000001
 44
0.0000000001
 12
0.1702561910079549
 22
0.9853998322627536
 32
0.0
 13
0.0496468621146162
 23
0.9987668341921313
 33
0.0
 40
0.0
 40
0.0
 40
0.0
 40
0.0
 40
0.0468281563138151
 40
0.2919518280950993
 40
0.2919518280950993
 40
0.2919518280950993
 40
0.2919518280950993
 10
63146.25791757801
 20
-27298.7611264539
 30
0.0
 10
63146.26057517251
 20
-27298.74574496811
 30
0.0
 10
63146.27277537869
 20
-27298.64913549532
 30
0.0
 10
63146.27777094915
 20
-27298.55184642757
 30
0.0
 10
63146.28182748952
 20
-27298.47023929635
 30
0.0
 11
63146.25791757801
 21
-27298.7611264539
 31
0.0
 11
63146.26430356726
 21
-27298.71473577202
 31
0.0
 11
63146.28182748952
 21
-27298.47023929635
 31
0.0
  0
SPLINE
  5
16B
330
2
100
AcDbEntity
  8
0000000000001
  6
Continuous
 62
     7
100
AcDbSpline
210
0.0
220
0.0
230
1.0
 70
     8
 71
     3
 72
     9
 73
     5
 74
     3
 42
0.0000000001
 43
0.0000000001
 44
0.0000000001
 12
0.0496465674081445
 22
0.9987668488414044
 32
0.0
 13
0.017483068211224
 23
0.9998471594828489
 33
0.0
 40
0.0
 40
0.0
 40
0.0
 40
0.0
 40
0.2722024632826801
 40
0.8880925562089155
 40
0.8880925562089155
 40
0.8880925562089155
 40
0.8880925562089155
 10
63146.28182748952
 20
-27298.47023929635
 30
0.0
 10
63146.28633212883
 20
-27298.37961703085
 30
0.0
 10
63146.29742563886
 20
-27298.08377953258
 30
0.0
 10
63146.30430977572
 20
-27297.78781742556
 30
0.0
 10
63146.30789899188
 20
-27297.58255210557
 30
0.0
 11
63146.28182748952
 21
-27298.47023929635
 31
0.0
 11
63146.29273705874
 21
-27298.19825554257
 31
0.0
 11
63146.30789899188
 21
-27297.58255210557
 31
0.0
  0
SPLINE
  5
16C
330
2
100
AcDbEntity
  8
0
  6
Continuous
 62
     7
100
AcDbSpline
210
0.0
220
0.0
230
1.0
 70
     8
 71
     3
 72
    24
 73
    20
 74
    18
 42
0.0000000001
 43
0.0000000001
 44
0.0000000001
 12
0.9915037110736374
 22
0.1300784030006707
 32
0.0
 13
0.9999999175525291
 23
0.000406072573377
 33
0.0
 40
0.0
 40
0.0
 40
0.0
 40
0.0
 40
0.5854640627394871
 40
1.201271458248912
 40
1.855353170018336
 40
2.555381199340019
 40
3.309027428318493
 40
4.123973057254389
 40
5.007916595691496
 40
5.968490563442402
 40
7.013287399383427
 40
8.150060032542668
 40
9.38276553654188
 40
10.71007343626395
 40
12.12885967139207
 40
13.64386644142086
 40
15.27034009720532
 40
17.02771585924096
 40
18.93518687057743
 40
18.93518687057743
 40
18.93518687057743
 40
18.93518687057743
 10
63126.25217301494
 20
-27293.47768304069
 30
0.0
 10
63126.44566961191
 20
-27293.45229763059
 30
0.0
 10
63126.84292489712
 20
-27293.4019795097
 30
0.0
 10
63127.45708074182
 20
-27293.32916913662
 30
0.0
 10
63128.10971927314
 20
-27293.2567429878
 30
0.0
 10
63128.8085588545
 20
-27293.18423509047
 30
0.0
 10
63129.56125550956
 20
-27293.1113987187
 30
0.0
 10
63130.37548899676
 20
-27293.03818980896
 30
0.0
 10
63131.25893808066
 20
-27292.96477218444
 30
0.0
 10
63132.21926119831
 20
-27292.8915278602
 30
0.0
 10
63133.26414139727
 20
-27292.81906879178
 30
0.0
 10
63134.40004267698
 20
-27292.74833722541
 30
0.0
 10
63135.63045728353
 20
-27292.68068266426
 30
0.0
 10
63136.95524507704
 20
-27292.6177990654
 30
0.0
 10
63138.37450847603
 20
-27292.56144733454
 30
0.0
 10
63139.89385251748
 20
-27292.51333153981
 30
0.0
 10
63141.52638218713
 20
-27292.4753094522
 30
0.0
 10
63143.28999401637
 20
-27292.44980257279
 30
0.0
 10
63144.51161591166
 20
-27292.44353762562
 30
0.0
 10
63145.14743952968
 20
-27292.44327943507
 30
0.0
 11
63126.25217301494
 21
-27293.47768304069
 31
0.0
 11
63126.83298254167
 21
-27293.40400494067
 31
0.0
 11
63127.44449612186
 21
-27293.33141093541
 31
0.0
 11
63128.09457729061
 21
-27293.25917964222
 31
0.0
 11
63128.79085892057
 21
-27293.18685306611
 31
0.0
 11
63129.54099343254
 21
-27293.1141835924
 31
0.0
 11
63130.35265781384
 21
-27293.04112669502
 31
0.0
 11
63131.23355833793
 21
-27292.96784336949
 31
0.0
 11
63132.19134474339
 21
-27292.89471643165
 31
0.0
 11
63133.23363326341
 21
-27292.82236265207
 31
0.0
 11
63134.36820393303
 21
-27292.75164196806
 31
0.0
 11
63135.59904644979
 21
-27292.68389568748
 31
0.0
 11
63136.92485858095
 21
-27292.6209000248
 31
0.0
 11
63138.34252551445
 21
-27292.56455424722
 31
0.0
 11
63139.85677143445
 21
-27292.51654584173
 31
0.0
 11
63141.48280296256
 21
-27292.47862457393
 31
0.0
 11
63143.2399940456
 21
-27292.45314778728
 31
0.0
 11
63145.14743952968
 21
-27292.44327943507
 31
0.0
  0
SPLINE
  5
16D
330
2
100
AcDbEntity
  8
0000000000001
  6
Continuous
 62
     7
100
AcDbSpline
210
0.0
220
0.0
230
1.0
 70
     8
 71
     3
 72
     9
 73
     5
 74
     3
 42
0.0000000001
 43
0.0000000001
 44
0.0000000001
 12
0.0059700939041362
 22
0.9999821788305908
 32
0.0
 13
-0.0087526628256711
 23
0.9999616947130826
 33
0.0
 40
0.0
 40
0.0
 40
0.0
 40
0.0
 40
0.921514945083404
 40
4.49752342454372
 40
4.49752342454372
 40
4.49752342454372
 40
4.49752342454372
 10
63146.31621049161
 20
-27296.9407775776
 30
0.0
 10
63146.3180443352
 20
-27296.6336114034
 30
0.0
 10
63146.32202062735
 20
-27295.13443561134
 30
0.0
 10
63146.31326670942
 20
-27293.63525314964
 30
0.0
 10
63146.30283351059
 20
-27292.44329598316
 30
0.0
 11
63146.31621049161
 21
-27296.9407775776
 31
0.0
 11
63146.31913933766
 21
-27296.0192672869
 31
0.0
 11
63146.30283351059
 21
-27292.44329598316
 31
0.0
  0
LINE
  5
16E
330
2
100
AcDbEntity
  8
0000000000001
  6
Continuous
 62
     7
100
AcDbLine
 10
63166.46011540052
 20
-27295.81722238488
 30
0.0
 11
63166.89270101502
 21
-27295.75910421824
 31
0.0
  0
SPLINE
  5
16F
330
2
100
AcDbEntity
  8
0000000000001
  6
Continuous
 62
     7
100
AcDbSpline
210
0.0
220
0.0
230
1.0
 70
     8
 71
     3
 72
     9
 73
     5
 74
     3
 42
0.0000000001
 43
0.0000000001
 44
0.0000000001
 12
0.6125465812110808
 22
0.7904344918123303
 32
0.0
 13
0.1343963274834537
 23
0.9909276599020538
 33
0.0
 40
0.0
 40
0.0
 40
0.0
 40
0.0
 40
0.1459729130185599
 40
0.2180360465916474
 40
0.2180360465916474
 40
0.2180360465916474
 40
0.2180360465916474
 10
63176.39852583865
 20
-27294.45230510717
 30
0.0
 10
63176.42833090826
 20
-27294.41384443207
 30
0.0
 10
63176.44090666274
 20
-27294.3370365473
 30
0.0
 10
63176.45114025454
 20
-27294.26610791568
 30
0.0
 10
63176.45436859471
 20
-27294.24230479824
 30
0.0
 11
63176.39852583865
 21
-27294.45230510717
 31
0.0
 11
63176.44411979117
 21
-27294.31363541752
 31
0.0
 11
63176.45436859471
 21
-27294.24230479824
 31
0.0
  0
LINE
  5
170
330
2
100
AcDbEntity
  8
0000000000001
  6
Continuous
 62
     7
100
AcDbLine
 10
63176.45436859471
 20
-27294.24230479824
 30
0.0
 11
63176.47555995689
 21
-27294.04038505981
 31
0.0
  0
SPLINE
  5
171
330
2
100
AcDbEntity
  8
0000000000001
  6
Continuous
 62
     7
100
AcDbSpline
210
0.0
220
0.0
230
1.0
 70
     8
 71
     3
 72
     8
 73
     4
 74
     2
 42
0.0000000001
 43
0.0000000001
 44
0.0000000001
 12
0.9955417944337275
 22
0.0943214479091259
 32
0.0
 13
0.9949523150671055
 23
0.1003488452479999
 33
0.0
 40
0.0
 40
0.0
 40
0.0
 40
0.0
 40
30.29849232100499
 40
30.29849232100499
 40
30.29849232100499
 40
30.29849232100499
 10
63146.31621049161
 20
-27296.9407775776
 30
0.0
 10
63156.37068229624
 20
-27295.98817835587
 30
0.0
 10
63166.42704159761
 20
-27295.05385796553
 30
0.0
 10
63176.47555995689
 20
-27294.04038505981
 30
0.0
 11
63146.31621049161
 21
-27296.9407775776
 31
0.0
 11
63176.47555995689
 21
-27294.04038505981
 31
0.0
  0
SPLINE
  5
172
330
2
100
AcDbEntity
  8
0000000000001
  6
Continuous
 62
     7
100
AcDbSpline
210
0.0
220
0.0
230
1.0
 70
     8
 71
     3
 72
     9
 73
     5
 74
     3
 42
0.0000000001
 43
0.0000000001
 44
0.0000000001
 12
0.0429160710475423
 22
0.9990786810085792
 32
0.0
 13
-0.0505411435680955
 23
0.9987219797355162
 33
0.0
 40
0.0
 40
0.0
 40
0.0
 40
0.0
 40
0.3066399329357258
 40
1.61073209448423
 40
1.61073209448423
 40
1.61073209448423
 40
1.61073209448423
 10
63176.47555995689
 20
-27294.04038505981
 30
0.0
 10
63176.47994655061
 20
-27293.93826591989
 30
0.0
 10
63176.48924280649
 20
-27293.40131226407
 30
0.0
 10
63176.46953219367
 20
-27292.86433822551
 30
0.0
 10
63176.44756209062
 20
-27292.4301963904
 30
0.0
 11
63176.47555995689
 21
-27294.04038505981
 31
0.0
 11
63176.48243479958
 21
-27293.73382220327
 31
0.0
 11
63176.44756209062
 21
-27292.4301963904
 31
0.0
  0
SPLINE
  5
173
330
2
100
AcDbEntity
  8
0000000000001
  6
Continuous
 62
     7
100
AcDbSpline
210
0.0
220
0.0
230
1.0
 70
     8
 71
     3
 72
     9
 73
     5
 74
     3
 42
0.0000000001
 43
0.0000000001
 44
0.0000000001
 12
0.6900369140516151
 22
0.7237741755866426
 32
0.0
 13
0.1496310853318045
 23
0.9887418967063275
 33
0.0
 40
0.0
 40
0.0
 40
0.0
 40
0.0
 40
0.1346931456690219
 40
0.2022999784424062
 40
0.2022999784424062
 40
0.2022999784424062
 40
0.2022999784424062
 10
63177.12847798053
 20
-27294.34898224301
 30
0.0
 10
63177.15945906138
 20
-27294.31648643619
 30
0.0
 10
63177.17263050734
 20
-27294.24369146855
 30
0.0
 10
63177.18312068038
 20
-27294.17840377194
 30
0.0
 10
63177.18649270831
 20
-27294.15612186925
 30
0.0
 11
63177.12847798053
 21
-27294.34898224301
 31
0.0
 11
63177.17580978319
 21
-27294.22287933287
 31
0.0
 11
63177.18649270831
 21
-27294.15612186925
 31
0.0
  0
LINE
  5
174
330
2
100
AcDbEntity
  8
0000000000001
  6
Continuous
 62
     7
100
AcDbLine
 10
63177.18649270831
 20
-27294.15612186925
 30
0.0
 11
63177.2088004259
 21
-27293.96593526963
 31
0.0
  0
SPLINE
  5
175
330
2
100
AcDbEntity
  8
0000000000001
  6
Continuous
 62
     7
100
AcDbSpline
210
0.0
220
0.0
230
1.0
 70
     8
 71
     3
 72
     9
 73
     5
 74
     3
 42
0.0000000001
 43
0.0000000001
 44
0.0000000001
 12
0.0495883349630365
 22
0.9987697417501163
 32
0.0
 13
-0.0515489057243652
 23
0.9986704713360762
 33
0.0
 40
0.0
 40
0.0
 40
0.0
 40
0.0
 40
0.2910593458961347
 40
1.537951058643753
 40
1.537951058643753
 40
1.537951058643753
 40
1.537951058643753
 10
63177.2088004259
 20
-27293.96593526963
 30
0.0
 10
63177.21361147534
 20
-27293.86903484705
 30
0.0
 10
63177.22454902289
 20
-27293.35635917452
 30
0.0
 10
63177.20550181664
 20
-27292.84359505775
 30
0.0
 10
63177.18407651552
 20
-27292.42851707959
 30
0.0
 11
63177.2088004259
 21
-27293.96593526963
 31
0.0
 11
63177.2166774307
 21
-27293.67498253184
 31
0.0
 11
63177.18407651552
 21
-27292.42851707959
 31
0.0
  0
SPLINE
  5
176
330
2
100
AcDbEntity
  8
0
  6
Continuous
 62
     7
100
AcDbSpline
210
0.0
220
0.0
230
1.0
 70
     8
 71
     3
 72
     8
 73
     4
 74
     2
 42
0.0000000001
 43
0.0000000001
 44
0.0000000001
 12
0.9532148208481917
 22
0.3022937401193582
 32
0.0
 13
0.9336117676211978
 23
0.3582862924523104
 33
0.0
 40
0.0
 40
0.0
 40
0.0
 40
0.0
 40
1.718409459446867
 40
1.718409459446867
 40
1.718409459446867
 40
1.718409459446867
 10
63187.56203106048
 20
-27292.08106333963
 30
0.0
 10
63188.10803551549
 20
-27291.90790853211
 30
0.0
 10
63188.64749250787
 20
-27291.71378544447
 30
0.0
 10
63189.18226827218
 20
-27291.50855792642
 30
0.0
 11
63187.56203106048
 21
-27292.08106333963
 31
0.0
 11
63189.18226827218
 21
-27291.50855792642
 31
0.0
  0
SPLINE
  5
177
330
2
100
AcDbEntity
  8
0
  6
Continuous
 62
     7
100
AcDbSpline
210
0.0
220
0.0
230
1.0
 70
     8
 71
     3
 72
     8
 73
     4
 74
     2
 42
0.0000000001
 43
0.0000000001
 44
0.0000000001
 12
-0.9989673770831767
 22
-0.0454332424944365
 32
0.0
 13
-0.9944438692542531
 23
-0.1052681856147893
 33
0.0
 40
0.0
 40
0.0
 40
0.0
 40
0.0
 40
1.464636760730897
 40
1.464636760730897
 40
1.464636760730897
 40
1.464636760730897
 10
62861.09031098781
 20
-27297.02005455389
 30
0.0
 10
62860.6026028734
 20
-27297.0422356196
 30
0.0
 10
62860.11799179263
 20
-27297.10981713923
 30
0.0
 10
62859.63249211016
 20
-27297.16121035735
 30
0.0
 11
62861.09031098781
 21
-27297.02005455389
 31
0.0
 11
62859.63249211016
 21
-27297.16121035735
 31
0.0
  0
SPLINE
  5
178
330
2
100
AcDbEntity
  8
0
  6
Continuous
 62
     7
100
AcDbSpline
210
0.0
220
0.0
230
1.0
 70
     8
 71
     3
 72
     8
 73
     4
 74
     2
 42
0.0000000001
 43
0.0000000001
 44
0.0000000001
 12
-0.9944438691616424
 22
-0.1052681864896616
 32
0.0
 13
-0.9899098483439397
 23
-0.1416985961528145
 33
0.0
 40
0.0
 40
0.0
 40
0.0
 40
0.0
 40
2.102837985869836
 40
2.102837985869836
 40
2.102837985869836
 40
2.102837985869836
 10
62859.63249211016
 20
-27297.16121035735
 30
0.0
 10
62858.93544066254
 20
-27297.23499767111
 30
0.0
 10
62858.2320708924
 20
-27297.25124907414
 30
0.0
 10
62857.53819754851
 20
-27297.35057213765
 30
0.0
 11
62859.63249211016
 21
-27297.16121035735
 31
0.0
 11
62857.53819754851
 21
-27297.35057213765
 31
0.0
  0
SPLINE
  5
179
330
2
100
AcDbEntity
  8
0000000000001
  6
Continuous
 62
     7
100
AcDbSpline
210
0.0
220
0.0
230
1.0
 70
     8
 71
     3
 72
    15
 73
    11
 74
     9
 42
0.0000000001
 43
0.0000000001
 44
0.0000000001
 12
0.9994960986976938
 22
-0.0317419074425241
 32
0.0
 13
0.9999968981956921
 23
-0.002490702510245
 33
0.0
 40
0.0
 40
0.0
 40
0.0
 40
0.0
 40
14.2380692909049
 40
21.20472069137453
 40
27.74731316515723
 40
33.85662694740422
 40
39.99434829294184
 40
46.77839506439632
 40
50.69437777416631
 40
55.06624299105519
 40
55.06624299105519
 40
55.06624299105519
 40
55.06624299105519
 10
62632.39203586804
 20
-27290.0542002813
 30
0.0
 10
62637.13566743779
 20
-27290.20484810716
 30
0.0
 10
62644.20106870731
 20
-27290.40570847772
 30
0.0
 10
62653.44602645607
 20
-27290.68274226514
 30
0.0
 10
62659.98179849503
 20
-27290.90511255338
 30
0.0
 10
62666.24013980224
 20
-27291.15224670328
 30
0.0
 10
62672.57911480591
 20
-27291.39692692988
 30
0.0
 10
62678.1890875965
 20
-27291.57204215901
 30
0.0
 10
62683.21211159753
 20
-27291.67363497777
 30
0.0
 10
62685.97473601224
 20
-27291.69430245018
 30
0.0
 10
62687.43201989765
 20
-27291.69793212207
 30
0.0
 11
62632.39203586804
 21
-27290.0542002813
 31
0.0
 11
62646.62375239565
 21
-27290.47947879069
 31
0.0
 11
62653.58716675176
 21
-27290.69182812728
 31
0.0
 11
62660.12591166005
 21
-27290.91617451634
 31
0.0
 11
62666.23071184058
 21
-27291.15097154726
 31
0.0
 11
62672.36410410763
 21
-27291.38145498271
 31
0.0
 11
62679.14506265908
 21
-27291.58612965341
 31
0.0
 11
62683.0602966141
 21
-27291.66270419667
 31
0.0
 11
62687.43201989765
 21
-27291.69793212207
 31
0.0
  0
LINE
  5
17A
330
2
100
AcDbEntity
  8
0000000000001
  6
Continuous
 62
     7
100
AcDbLine
 10
62687.43201989765
 20
-27291.69793211194
 30
0.0
 11
62687.43202527987
 21
-27289.70373405822
 31
0.0
  0
LINE
  5
17B
330
2
100
AcDbEntity
  8
0000000000001
  6
Continuous
 62
     7
100
AcDbLine
 10
62682.62767175425
 20
-27301.74926638827
 30
0.0
 11
62682.62320169716
 21
-27301.63366735857
 31
0.0
  0
SPLINE
  5
17C
330
2
100
AcDbEntity
  8
0000000000001
  6
Continuous
 62
     7
100
AcDbSpline
210
0.0
220
0.0
230
1.0
 70
     8
 71
     3
 72
     8
 73
     4
 74
     2
 42
0.0000000001
 43
0.0000000001
 44
0.0000000001
 12
-0.9998016383265545
 22
-0.0199169274622791
 32
0.0
 13
-0.999972398543538
 23
-0.007429815010043
 33
0.0
 40
0.0
 40
0.0
 40
0.0
 40
0.0
 40
1.940768308965748
 40
1.940768308965748
 40
1.940768308965748
 40
1.940768308965748
 10
63181.46267374177
 20
-27291.62358841012
 30
0.0
 10
63180.8158792968
 20
-27291.63647312399
 30
0.0
 10
63180.16892478471
 20
-27291.63985754862
 30
0.0
 10
63179.52201987107
 20
-27291.64466406512
 30
0.0
 11
63181.46267374177
 21
-27291.62358841012
 31
0.0
 11
63179.52201987107
 21
-27291.64466406512
 31
0.0
  0
LINE
  5
17D
330
2
100
AcDbEntity
  8
0000000000001
  6
Continuous
 62
     7
100
AcDbLine
 10
63181.46219420506
 20
-27291.25564712405
 30
0.0
 11
63179.52202021648
 21
-27291.24564029116
 31
0.0
  0
LINE
  5
17E
330
2
100
AcDbEntity
  8
0000000000001
  6
Continuous
 62
     7
100
AcDbLine
 10
63182.92201832638
 20
-27291.25220048884
 30
0.0
 11
63182.92201989868
 21
-27291.10754810358
 31
0.0
  0
LINE
  5
17F
330
2
100
AcDbEntity
  8
0000000000001
  6
Continuous
 62
     7
100
AcDbLine
 10
63182.92201989868
 20
-27291.10754810358
 30
0.0
 11
63181.46220840621
 21
-27291.11075073868
 31
0.0
  0
LINE
  5
180
330
2
100
AcDbEntity
  8
0000000000001
  6
Continuous
 62
     7
100
AcDbLine
 10
63179.52201968562
 20
-27291.10487403211
 30
0.0
 11
63181.46240893929
 21
-27291.11074261836
 31
0.0
  0
LINE
  5
181
330
2
100
AcDbEntity
  8
0
  6
Continuous
 62
     7
100
AcDbLine
 10
62687.4320200526
 20
-27292.35371660432
 30
0.0
 11
62687.43201989765
 21
-27291.69793212207
 31
0.0
  0
SPLINE
  5
182
330
2
100
AcDbEntity
  8
0000000000001
  6
Continuous
 62
     7
100
AcDbSpline
210
0.0
220
0.0
230
1.0
 70
     8
 71
     3
 72
    15
 73
    11
 74
     9
 42
0.0000000001
 43
0.0000000001
 44
0.0000000001
 12
0.9999954322971969
 22
-0.0030224798994083
 32
0.0
 13
0.9999991789612064
 23
-0.0012814354891349
 33
0.0
 40
0.0
 40
0.0
 40
0.0
 40
0.0
 40
13.75217159811562
 40
20.63013365451201
 40
27.50809890555003
 40
34.38606433991433
 40
41.26402705265071
 40
48.1419872452435
 40
51.58096694331071
 40
55.01994667764429
 40
55.01994667764429
 40
55.01994667764429
 40
55.01994667764429
 10
62632.41214459847
 20
-27291.61231005823
 30
0.0
 10
62636.99618085922
 20
-27291.62616527897
 30
0.0
 10
62643.87287975591
 20
-27291.6406536533
 30
0.0
 10
62653.0422368862
 20
-27291.65346638989
 30
0.0
 10
62659.92019668293
 20
-27291.66136946575
 30
0.0
 10
62666.79815690452
 20
-27291.66900778757
 30
0.0
 10
62673.67611358578
 20
-27291.67821648048
 30
0.0
 10
62679.40774137971
 20
-27291.68678631308
 30
0.0
 10
62683.99304320068
 20
-27291.69336755223
 30
0.0
 10
62686.28569426072
 20
-27291.69646317851
 30
0.0
 10
62687.43201989765
 20
-27291.69793212207
 30
0.0
 11
62632.41214459847
 21
-27291.61231005823
 31
0.0
 11
62646.16428124954
 21
-27291.64331318895
 31
0.0
 11
62653.04223622617
 21
-27291.65318175699
 31
0.0
 11
62659.92019665617
 21
-27291.66132533995
 31
0.0
 11
62666.79815750269
 21
-27291.66926951756
 31
0.0
 11
62673.67611416083
 21
-27291.67839566644
 31
0.0
 11
62680.5540670648
 21
-27291.68840873768
 31
0.0
 11
62683.99304325765
 21
-27291.69331880394
 31
0.0
 11
62687.43201989765
 21
-27291.69793212207
 31
0.0
  0
LINE
  5
183
330
2
100
AcDbEntity
  8
0000000000001
  6
Continuous
 62
     7
100
AcDbLine
 10
62632.40466717889
 20
-27291.97910593371
 30
0.0
 11
62632.41211980817
 21
-27291.62280026325
 31
0.0
  0
LINE
  5
184
330
2
100
AcDbEntity
  8
0000000000001
  6
Continuous
 62
     7
100
AcDbLine
 10
62632.42865123556
 20
-27292.42978627435
 30
0.0
 11
62632.42092880237
 21
-27291.97881876889
 31
0.0
  0
SPLINE
  5
185
330
2
100
AcDbEntity
  8
0
  6
Continuous
 62
     7
100
AcDbSpline
210
0.0
220
0.0
230
1.0
 70
     8
 71
     3
 72
    11
 73
     7
 74
     5
 42
0.0000000001
 43
0.0000000001
 44
0.0000000001
 12
-0.9998541041228211
 22
-0.0170812900200981
 32
0.0
 13
-0.9455572033987396
 23
-0.3254559495550122
 33
0.0
 40
0.0
 40
0.0
 40
0.0
 40
0.0
 40
6.128173716247054
 40
10.86844488058841
 40
13.97599422202613
 40
15.47685003153624
 40
15.47685003153624
 40
15.47685003153624
 40
15.47685003153624
 10
62876.61933109808
 20
-27295.64226973769
 30
0.0
 10
62874.57690455108
 20
-27295.67716210854
 30
0.0
 10
62870.95832193088
 20
-27295.77202781436
 30
0.0
 10
62866.29283838299
 20
-27295.95960113747
 30
0.0
 10
62863.20707164692
 20
-27296.24575589054
 30
0.0
 10
62861.65005805009
 20
-27296.33815224717
 30
0.0
 10
62861.17700970944
 20
-27296.50097306471
 30
0.0
 11
62876.61933109808
 21
-27295.64226973769
 31
0.0
 11
62870.49319678687
 21
-27295.80035673166
 31
0.0
 11
62865.75852678207
 21
-27296.03072742655
 31
0.0
 11
62862.66042091339
 21
-27296.27280785938
 31
0.0
 11
62861.17700970944
 21
-27296.50097306471
 31
0.0
  0
SPLINE
  5
186
330
2
100
AcDbEntity
  8
0
  6
Continuous
 62
     7
100
AcDbSpline
210
0.0
220
0.0
230
1.0
 70
     8
 71
     3
 72
    25
 73
    21
 74
    19
 42
0.0000000001
 43
0.0000000001
 44
0.0000000001
 12
-0.9999999999999275
 22
0.0000003807172077
 32
0.0
 13
-0.9998542842861731
 23
-0.0170707408914983
 33
0.0
 40
0.0
 40
0.0
 40
0.0
 40
0.0
 40
1.912272145500043
 40
3.982281976984839
 40
6.219949839048054
 40
8.626765793108072
 40
11.03860396916757
 40
13.25569196603154
 40
15.23421867988959
 40
16.9792994674553
 40
18.5107619090944
 40
19.85349007230235
 40
21.04036544000964
 40
22.11541547392192
 40
23.12381955194176
 40
24.10256696309474
 40
25.0647261888522
 40
26.00860509607849
 40
26.92906920431747
 40
27.81397789863776
 40
27.81397789863776
 40
27.81397789863776
 40
27.81397789863776
 10
62904.43201989718
 20
-27295.39511696299
 30
0.0
 10
62903.79459584868
 20
-27295.3951167203
 30
0.0
 10
62902.46716813973
 20
-27295.39680087809
 30
0.0
 10
62900.39386278788
 20
-27295.40405411453
 30
0.0
 10
62898.15573040159
 20
-27295.41628470134
 30
0.0
 10
62895.80368169231
 20
-27295.43300778352
 30
0.0
 10
62893.45851559235
 20
-27295.45258038897
 30
0.0
 10
62891.25612335752
 20
-27295.47273231359
 30
0.0
 10
62889.27598329642
 20
-27295.49180113607
 30
0.0
 10
62887.52437955104
 20
-27295.50918400001
 30
0.0
 10
62885.98470146636
 20
-27295.52478690715
 30
0.0
 10
62884.63108508584
 20
-27295.53877600729
 30
0.0
 10
62883.42960054711
 20
-27295.55143284149
 30
0.0
 10
62882.33955564488
 20
-27295.56333388063
 30
0.0
 10
62881.31888923362
 20
-27295.5750730768
 30
0.0
 10
62880.33585926521
 20
-27295.58711088384
 30
0.0
 10
62879.37434680142
 20
-27295.59973699075
 30
0.0
 10
62878.43227434183
 20
-27295.61312122608
 30
0.0
 10
62877.51596255746
 20
-27295.62704620058
 30
0.0
 10
62876.91425768115
 20
-27295.63723438868
 30
0.0
 10
62876.61933109808
 20
-27295.64226973769
 30
0.0
 11
62904.43201989718
 21
-27295.39511696299
 31
0.0
 11
62902.51974913446
 21
-27295.39741663323
 31
0.0
 11
62900.44975145839
 21
-27295.4045105408
 31
0.0
 11
62898.21211608095
 21
-27295.41656784215
 31
0.0
 11
62895.80535962459
 21
-27295.43349109511
 31
0.0
 11
62893.39360410781
 21
-27295.45345893924
 31
0.0
 11
62891.17660802873
 21
-27295.47364733173
 31
0.0
 11
62889.19817260527
 21
-27295.49265345328
 31
0.0
 11
62887.45317759391
 21
-27295.50995563346
 31
0.0
 11
62885.92179382909
 21
-27295.52547900346
 31
0.0
 11
62884.57913742124
 21
-27295.53936031172
 31
0.0
 11
62883.39232835212
 21
-27295.55190510771
 31
0.0
 11
62882.31734285169
 21
-27295.56368429659
 31
0.0
 11
62881.30900583349
 21
-27295.57531366896
 31
0.0
 11
62880.33033211893
 21
-27295.58732430022
 31
0.0
 11
62879.36825627592
 21
-27295.5999911075
 31
0.0
 11
62878.42447247126
 21
-27295.61338967355
 31
0.0
 11
62877.5041164862
 21
-27295.62749766154
 31
0.0
 11
62876.61933109808
 21
-27295.64226973769
 31
0.0
  0
SPLINE
  5
187
330
2
100
AcDbEntity
  8
0
  6
Continuous
 62
     7
100
AcDbSpline
210
0.0
220
0.0
230
1.0
 70
     8
 71
     3
 72
    25
 73
    21
 74
    19
 42
0.0000000001
 43
0.0000000001
 44
0.0000000001
 12
-0.9998542857546832
 22
0.0170706548788336
 32
0.0
 13
-0.99999999999995
 23
-0.0000003158793066
 33
0.0
 40
0.0
 40
0.0
 40
0.0
 40
0.0
 40
0.8917519477077318
 40
1.819302420923411
 40
2.770697805895669
 40
3.740702267479065
 40
4.726793617796518
 40
5.741781720502367
 40
6.824126513978402
 40
8.020275403728064
 40
9.369409908521218
 40
10.87975808079977
 40
12.54315576951675
 40
14.3696342930986
 40
16.4032396539557
 40
18.672726297448
 40
21.09044229047687
 40
23.49080437243749
 40
25.7656102494775
 40
27.8139777350423
 40
27.8139777350423
 40
27.8139777350423
 40
27.8139777350423
 10
62932.24470869897
 20
-27295.64226973769
 30
0.0
 10
62931.94750136338
 20
-27295.63719547445
 30
0.0
 10
62931.34115386298
 20
-27295.62693340004
 30
0.0
 10
62930.41769402422
 20
-27295.61291136732
 30
0.0
 10
62929.46813934062
 20
-27295.5994407677
 30
0.0
 10
62928.49905864858
 20
-27295.58674022866
 30
0.0
 10
62927.50877115258
 20
-27295.57464116465
 30
0.0
 10
62926.48103066034
 20
-27295.56284740423
 30
0.0
 10
62925.3832685199
 20
-27295.55088630112
 30
0.0
 10
62924.17412605582
 20
-27295.53816240768
 30
0.0
 10
62922.82232091646
 20
-27295.52420466954
 30
0.0
 10
62921.3147714184
 20
-27295.50893786223
 30
0.0
 10
62919.64811199344
 20
-27295.49239981704
 30
0.0
 10
62917.80703712829
 20
-27295.47463638206
 30
0.0
 10
62915.76393373487
 20
-27295.4557948718
 30
0.0
 10
62913.52374545765
 20
-27295.43670435015
 30
0.0
 10
62911.16128800524
 20
-27295.41920196407
 30
0.0
 10
62908.7970318274
 20
-27295.40547549559
 30
0.0
 10
62906.55586730012
 20
-27295.39707487989
 30
0.0
 10
62905.11480905903
 20
-27295.3951167473
 30
0.0
 10
62904.43201989718
 20
-27295.39511696299
 30
0.0
 11
62932.24470869897
 21
-27295.64226973769
 31
0.0
 11
62931.35308092172
 21
-27295.62738877421
 31
0.0
 11
62930.42563921798
 21
-27295.6131843196
 31
0.0
 11
62929.47433941884
 21
-27295.59969837501
 31
0.0
 11
62928.50441869677
 21
-27295.5869528506
 31
0.0
 11
62927.51840126563
 21
-27295.57487904946
 31
0.0
 11
62926.50348035924
 21
-27295.56319990594
 31
0.0
 11
62925.4212002886
 21
-27295.55136349322
 31
0.0
 11
62924.22511805294
 21
-27295.53873606355
 31
0.0
 11
62922.87605551098
 21
-27295.52480157793
 31
0.0
 11
62921.3657848181
 21
-27295.50950335085
 31
0.0
 11
62919.70246888386
 21
-27295.49301172528
 31
0.0
 11
62917.87607502835
 21
-27295.47542531896
 31
0.0
 11
62915.84255547347
 21
-27295.45674421583
 31
0.0
 11
62913.57315014177
 21
-27295.43753313928
 31
0.0
 11
62911.15549913005
 21
-27295.41980721327
 31
0.0
 11
62908.75517631313
 21
-27295.40607771571
 31
0.0
 11
62906.48038569643
 21
-27295.39774534738
 31
0.0
 11
62904.43201989718
 21
-27295.39511696299
 31
0.0
  0
SPLINE
  5
188
330
2
100
AcDbEntity
  8
0
  6
Continuous
 62
     7
100
AcDbSpline
210
0.0
220
0.0
230
1.0
 70
     8
 71
     3
 72
    11
 73
     7
 74
     5
 42
0.0000000001
 43
0.0000000001
 44
0.0000000001
 12
-0.9455485138009038
 22
0.3254811946163746
 32
0.0
 13
-0.9998542157967522
 23
0.0170747519297293
 33
0.0
 40
0.0
 40
0.0
 40
0.0
 40
0.0
 40
1.499864987664092
 40
4.60748674676553
 40
9.345323763084572
 40
15.47685125200738
 40
15.47685125200738
 40
15.47685125200738
 40
15.47685125200738
 10
62947.6870300876
 20
-27296.50097306471
 30
0.0
 10
62947.21429838427
 20
-27296.3382471154
 30
0.0
 10
62945.65760286279
 20
-27296.2458069811
 30
0.0
 10
62942.57295206741
 20
-27295.95968901202
 30
0.0
 10
62937.90713909287
 20
-27295.77210686447
 30
0.0
 10
62934.28825323532
 20
-27295.67716784131
 30
0.0
 10
62932.24470869897
 20
-27295.64226973769
 30
0.0
 11
62947.6870300876
 21
-27296.50097306471
 31
0.0
 11
62946.20460550862
 21
-27296.27291090463
 31
0.0
 11
62943.10643200218
 21
-27296.03076648156
 31
0.0
 11
62938.37419448167
 21
-27295.80048916468
 31
0.0
 11
62932.24470869897
 21
-27295.64226973769
 31
0.0
  0
ELLIPSE
  5
189
330
2
100
AcDbEntity
  8
0
  6
Continuous
 62
     7
100
AcDbEllipse
 10
62667.19844388778
 20
-27320.37711826633
 30
0.0
 11
5.082094892939999
 21
0.02428330932
 31
0.0
210
0.0
220
0.0
230
-1.0
 40
0.1609270237
 41
-2.336512106699999
 42
-1.5411132761
  0
ELLIPSE
  5
18A
330
2
100
AcDbEntity
  8
0
  6
Continuous
 62
     7
100
AcDbEllipse
 10
63141.66559590915
 20
-27320.37711826633
 30
0.0
 11
5.082094892939999
 21
-0.02428330932
 31
0.0
210
0.0
220
0.0
230
-1.0
 40
0.1609270237
 41
-1.600479377499999
 42
-0.8050805471
  0
ELLIPSE
  5
18B
330
2
100
AcDbEntity
  8
0
  6
Continuous
 62
     7
100
AcDbEllipse
 10
62660.14848569923
 20
-27319.23162870053
 30
0.0
 11
5.082094892939999
 21
0.02428330932
 31
0.0
210
0.0
220
0.0
230
-1.0
 40
0.1609270237
 41
0.8050805476999999
 42
1.600479377499999
  0
ELLIPSE
  5
18C
330
2
100
AcDbEntity
  8
0
  6
Continuous
 62
     7
100
AcDbEllipse
 10
63148.71555409781
 20
-27319.23162870053
 30
0.0
 11
5.082094892939999
 21
-0.02428330932
 31
0.0
210
0.0
220
0.0
230
-1.0
 40
0.1609270237
 41
1.5411132761
 42
2.336512106199999
  0
LINE
  5
18D
330
2
100
AcDbEntity
  8
0
  6
Continuous
 62
     7
100
AcDbLine
 10
62801.6654235913
 20
-27169.70373404098
 30
0.0
 11
63133.26882599035
 21
-27169.70373404099
 31
0.0
  0
MTEXT
  5
208
330
2
100
AcDbEntity
  8
尺寸标注
100
AcDbMText
 10
62913.66644796623
 20
-26635.63967055706
 30
0.0
 40
75.0
 41
801.6353349369019
 71
     2
 72
     5
  1
SCALE\P1:1
 73
     1
 44
1.0
  0
LINE
  5
228
330
2
100
AcDbEntity
  8
0
  6
Continuous
 62
     7
100
AcDbLine
 10
64129.51477518899
 20
-27179.35473907474
 30
0.0
 11
64133.18754957314
 21
-27284.52923655862
 31
0.0
  0
LINE
  5
229
330
2
100
AcDbEntity
  8
06___PRT_ALL_SURFS
  6
Continuous
 62
     7
100
AcDbLine
 10
63887.19949760312
 20
-27341.14821316549
 30
0.0
 11
63891.28459547565
 21
-27295.39511699861
 31
0.0
  0
LINE
  5
22A
330
2
100
AcDbEntity
  8
0
  6
Continuous
 62
     7
100
AcDbLine
 10
63835.07586169313
 20
-27292.31954956069
 30
0.0
 11
63835.08763380571
 21
-27292.30074483834
 31
0.0
  0
LINE
  5
22B
330
2
100
AcDbEntity
  8
0
  6
Continuous
 62
     7
100
AcDbLine
 10
63831.28574601457
 20
-27294.25274166083
 30
0.0
 11
63831.7867372199
 21
-27293.69299191414
 31
0.0
  0
LINE
  5
22C
330
2
100
AcDbEntity
  8
0
  6
Continuous
 62
     7
100
AcDbLine
 10
63651.29275466782
 20
-27169.70373404099
 30
0.0
 11
64119.52086691932
 21
-27169.70373404099
 31
0.0
  0
LINE
  5
22D
330
2
100
AcDbEntity
  8
0
  6
Continuous
 62
     7
100
AcDbLine
 10
63651.29275466782
 20
-27179.35473907474
 30
0.0
 11
64089.53914210771
 21
-27179.35473907474
 31
0.0
  0
LINE
  5
22E
330
2
100
AcDbEntity
  8
0000000000001
  6
Continuous
 62
     7
100
AcDbLine
 10
64111.01849446516
 20
-27169.70329560144
 30
0.0
 11
64089.53914211016
 21
-27169.70284781969
 31
0.0
  0
LWPOLYLINE
  5
22F
330
2
100
AcDbEntity
  8
0
  6
Continuous
 62
     7
100
AcDbPolyline
 90
        3
 70
     0
 43
0.0
 10
63835.07753289888
 20
-27292.37106453258
 10
63835.07703947334
 20
-27292.35489188021
 10
63835.07643212123
 20
-27292.33761594319
  0
LINE
  5
230
330
2
100
AcDbEntity
  8
0
  6
Continuous
 62
     7
100
AcDbLine
 10
63830.22700660304
 20
-27297.28004213646
 30
0.0
 11
63830.18022166484
 21
-27304.49377603517
 31
0.0
  0
LINE
  5
231
330
2
100
AcDbEntity
  8
0000000000001
  6
Continuous
 62
     7
100
AcDbLine
 10
63830.19883513276
 20
-27302.22850567617
 30
0.0
 11
63830.25087953976
 21
-27297.39136535048
 31
0.0
  0
LINE
  5
232
330
2
100
AcDbEntity
  8
0
  6
Continuous
 62
     7
100
AcDbLine
 10
63830.15354252072
 20
-27304.73188553602
 30
0.0
 11
63830.15634841554
 21
-27304.49376592078
 31
0.0
  0
LINE
  5
233
330
2
100
AcDbEntity
  8
0
  6
Continuous
 62
     7
100
AcDbLine
 10
63830.25127106544
 20
-27297.29359026279
 30
0.0
 11
63830.25177390933
 21
-27297.26312386957
 31
0.0
  0
LINE
  5
234
330
2
100
AcDbEntity
  8
0000000000001
  6
Continuous
 62
     7
100
AcDbLine
 10
63830.15353677783
 20
-27304.73218627975
 30
0.0
 11
63830.19883513276
 21
-27302.22850567617
 31
0.0
  0
LINE
  5
235
330
2
100
AcDbEntity
  8
0000000000001
  6
Continuous
 62
     7
100
AcDbLine
 10
63829.07898879483
 20
-27292.42985291386
 30
0.0
 11
63829.07903740789
 21
-27292.4283027442
 31
0.0
  0
LINE
  5
236
330
2
100
AcDbEntity
  8
0
  6
Continuous
 62
     7
100
AcDbLine
 10
63830.25179829577
 20
-27297.26249113786
 30
0.0
 11
63830.44979164122
 21
-27295.90394678353
 31
0.0
  0
LINE
  5
237
330
2
100
AcDbEntity
  8
0000000000001
  6
Continuous
 62
     7
100
AcDbLine
 10
63829.07891300636
 20
-27292.44282065521
 30
0.0
 11
63829.08035565518
 21
-27292.43416322782
 31
0.0
  0
LINE
  5
238
330
2
100
AcDbEntity
  8
0
  6
Continuous
 62
     7
100
AcDbLine
 10
63830.44979164122
 20
-27295.90394678353
 30
0.0
 11
63831.28574601457
 21
-27294.25274166083
 31
0.0
  0
LINE
  5
239
330
2
100
AcDbEntity
  8
0
  6
Continuous
 62
     7
100
AcDbLine
 10
63836.73548302462
 20
-27289.70373404296
 30
0.0
 11
63651.29275466782
 21
-27320.04983553258
 31
0.0
  0
LINE
  5
23A
330
2
100
AcDbEntity
  8
0000000000001
  6
Continuous
 62
     7
100
AcDbLine
 10
63889.82242449595
 20
-27291.01360835743
 30
0.0
 11
63942.31854925457
 21
-27289.70373404296
 31
0.0
  0
LINE
  5
23B
330
2
100
AcDbEntity
  8
0
  6
Continuous
 62
     7
100
AcDbLine
 10
64093.21191649186
 20
-27284.52923655862
 30
0.0
 11
63651.29275466782
 21
-27284.52923655862
 31
0.0
  0
LINE
  5
23C
330
2
100
AcDbEntity
  8
0
  6
Continuous
 62
     7
100
AcDbLine
 10
64128.19059543708
 20
-27289.70373404296
 30
0.0
 11
63651.29275466782
 21
-27289.70373404296
 31
0.0
  0
LINE
  5
23D
330
2
100
AcDbEntity
  8
0
  6
Continuous
 62
     7
100
AcDbLine
 10
63827.94222925231
 20
-27294.77260051694
 30
0.0
 11
63827.91376527306
 21
-27294.7597684673
 31
0.0
  0
LINE
  5
23E
330
2
100
AcDbEntity
  8
0
  6
Continuous
 62
     7
100
AcDbLine
 10
63829.07934097085
 20
-27292.44327943507
 30
0.0
 11
63829.07891300636
 21
-27292.44282065521
 31
0.0
  0
LINE
  5
23F
330
2
100
AcDbEntity
  8
0000000000001
  6
Continuous
 62
     7
100
AcDbLine
 10
63829.08035565518
 20
-27292.43416322782
 30
0.0
 11
63829.0790304686
 21
-27292.42984172518
 31
0.0
  0
LWPOLYLINE
  5
240
330
2
100
AcDbEntity
  8
0
  6
Continuous
 62
     7
100
AcDbPolyline
 90
        5
 70
     0
 43
0.0
 10
63882.22058931611
 20
-27345.70373404168
 10
63884.27665106883
 20
-27345.26150341998
 10
63885.96894816181
 20
-27344.01311048635
 10
63886.99824037543
 20
-27342.17939344505
 10
63887.20116516145
 20
-27341.14835761537
  0
LINE
  5
241
330
2
100
AcDbEntity
  8
0
  6
Continuous
 62
     7
100
AcDbLine
 10
63803.78088480642
 20
-27345.70373404168
 30
0.0
 11
63882.22054404067
 21
-27345.70373404168
 31
0.0
  0
LINE
  5
242
330
2
100
AcDbEntity
  8
06___PRT_ALL_SURFS
  6
Continuous
 62
     7
100
AcDbLine
 10
63793.02711597621
 20
-27312.40455318024
 30
0.0
 11
63798.87011185441
 21
-27341.68194629674
 31
0.0
  0
LINE
  5
243
330
2
100
AcDbEntity
  8
0
  6
Continuous
 62
     7
100
AcDbLine
 10
63651.29275466782
 20
-27169.70373404099
 30
0.0
 11
63651.29275466782
 21
-27320.04983553258
 31
0.0
  0
ARC
  5
244
330
2
100
AcDbEntity
  8
0
  6
Continuous
 62
     7
100
AcDbCircle
 10
67796.59782375909
 20
-26691.38701395798
 30
0.0
 40
4047.90483416398
100
AcDbArc
 50
188.8781672204501
 51
189.242863258035
  0
ARC
  5
245
330
2
100
AcDbEntity
  8
0
  6
Continuous
 62
     7
100
AcDbCircle
 10
63843.0535879474
 20
-25416.29545869273
 30
0.0
 40
1875.30143191186
100
AcDbArc
 50
271.3009615453946
 51
271.4290802917213
  0
ARC
  5
246
330
2
100
AcDbEntity
  8
0
  6
Continuous
 62
     7
100
AcDbCircle
 10
63795.36233632232
 20
-25770.31645633399
 30
0.0
 40
1527.14946914174
100
AcDbArc
 50
271.5260219170768
 51
271.7025444180103
  0
ARC
  5
247
330
2
100
AcDbEntity
  8
0
  6
Continuous
 62
     7
100
AcDbCircle
 10
63862.80379609997
 20
-26180.69986011463
 30
0.0
 40
1110.642131746599
100
AcDbArc
 50
271.3939928547284
 51
271.7172951069879
  0
ARC
  5
248
330
2
100
AcDbEntity
  8
0
  6
Continuous
 62
     7
100
AcDbCircle
 10
63857.83439760086
 20
-28192.98580300229
 30
0.0
 40
901.0014633198601
100
AcDbArc
 50
91.6405433931574
 51
91.82887953765412
  0
ARC
  5
249
330
2
100
AcDbEntity
  8
0000000000001
  6
Continuous
 62
     7
100
AcDbCircle
 10
63818.93291047134
 20
-27245.96909601081
 30
0.0
 40
56.04533283163999
100
AcDbArc
 50
261.1337529144845
 51
263.3654700289399
  0
ARC
  5
24A
330
2
100
AcDbEntity
  8
0
  6
Continuous
 62
     7
100
AcDbCircle
 10
63819.17363940575
 20
-27285.0375039622
 30
0.0
 40
40.63108990605999
100
AcDbArc
 50
249.2198824911665
 51
257.3067269108177
  0
ARC
  5
24B
330
2
100
AcDbEntity
  8
0
  6
Continuous
 62
     7
100
AcDbCircle
 10
64119.52026728634
 20
-27179.70373404087
 30
0.0
 40
9.999999999959999
100
AcDbArc
 50
1.999880117915432
 51
89.99656436231834
  0
ARC
  5
24C
330
2
100
AcDbEntity
  8
0
  6
Continuous
 62
     7
100
AcDbCircle
 10
63896.26478533482
 20
-27295.83977680772
 30
0.0
 40
5.000000406379998
100
AcDbArc
 50
91.42901858738374
 51
174.8978343213242
  0
ARC
  5
24D
330
2
100
AcDbEntity
  8
0
  6
Continuous
 62
     7
100
AcDbCircle
 10
64128.18989559089
 20
-27284.70373404308
 30
0.0
 40
4.999999999979999
100
AcDbArc
 50
270.0080196409603
 51
1.999720209347231
  0
ARC
  5
24E
330
2
100
AcDbEntity
  8
0
  6
Continuous
 62
     7
100
AcDbCircle
 10
63835.2512732473
 20
-27297.29812013686
 30
0.0
 40
4.999995999479999
100
AcDbArc
 50
91.7360710864259
 51
163.3972904128668
  0
ARC
  5
24F
330
2
100
AcDbEntity
  8
0
  6
Continuous
 62
     7
100
AcDbCircle
 10
63832.20674344607
 20
-27297.31232290252
 30
0.0
 40
4.961421103299999
100
AcDbArc
 50
91.92995515073663
 51
149.0414347438051
  0
ARC
  5
250
330
2
100
AcDbEntity
  8
0
  6
Continuous
 62
     7
100
AcDbCircle
 10
63925.18977269426
 20
-30183.46052746012
 30
0.0
 40
2887.90395244572
100
AcDbArc
 50
91.46533065136901
 51
91.6758164588476
  0
ARC
  5
251
330
2
100
AcDbEntity
  8
0000000000001
  6
Continuous
 62
     7
100
AcDbCircle
 10
63818.58383974456
 20
-27249.31123808949
 30
0.0
 40
53.41100567459999
100
AcDbArc
 50
261.0719034991549
 51
263.4319989357426
  0
ARC
  5
252
330
2
100
AcDbEntity
  8
0
  6
Continuous
 62
     7
100
AcDbCircle
 10
63808.06382735051
 20
-27294.84498080393
 30
0.0
 40
22.13284715154
100
AcDbArc
 50
233.3741093039289
 51
235.9465041854452
  0
ARC
  5
253
330
2
100
AcDbEntity
  8
0000000000001
  6
Continuous
 62
     7
100
AcDbCircle
 10
63814.36283516908
 20
-27285.19560817993
 30
0.0
 40
16.5535025419
100
AcDbArc
 50
263.3910991847939
 51
276.7706425430461
  0
ARC
  5
254
330
2
100
AcDbEntity
  8
0000000000001
  6
Continuous
 62
     7
100
AcDbCircle
 10
63814.2945739365
 20
-27285.26774521629
 30
0.0
 40
16.49803057258
100
AcDbArc
 50
285.7500452759251
 51
304.4518092590404
  0
ARC
  5
255
330
2
100
AcDbEntity
  8
0
  6
Continuous
 62
     7
100
AcDbCircle
 10
63814.49797712384
 20
-27285.59648139393
 30
0.0
 40
16.11189649597999
100
AcDbArc
 50
304.5166854739131
 51
330.7149960395264
  0
ARC
  5
256
330
2
100
AcDbEntity
  8
0000000000001
  6
Continuous
 62
     7
100
AcDbCircle
 10
63814.42081646529
 20
-27285.63594663635
 30
0.0
 40
16.10940026779999
100
AcDbArc
 50
276.7505005627814
 51
285.6733716212553
  0
ARC
  5
257
330
2
100
AcDbEntity
  8
0000000000001
  6
Continuous
 62
     7
100
AcDbCircle
 10
63814.28440362914
 20
-27286.59014473299
 30
0.0
 40
15.88498982
100
AcDbArc
 50
263.4578408298743
 51
277.5506809953408
  0
ARC
  5
258
330
2
100
AcDbEntity
  8
0000000000001
  6
Continuous
 62
     7
100
AcDbCircle
 10
63814.33593507298
 20
-27286.88593664838
 30
0.0
 40
15.58499557874
100
AcDbArc
 50
277.5057684592649
 51
286.8622558526007
  0
ARC
  5
259
330
2
100
AcDbEntity
  8
0
  6
Continuous
 62
     7
100
AcDbCircle
 10
63813.96203791374
 20
-27305.05512623072
 30
0.0
 40
15.5743638728
100
AcDbArc
 50
257.329428696658
 51
259.0332157461221
  0
ARC
  5
25A
330
2
100
AcDbEntity
  8
0
  6
Continuous
 62
     7
100
AcDbCircle
 10
63803.77187579975
 20
-27340.7037340418
 30
0.0
 40
4.999999999979999
100
AcDbArc
 50
191.2858726628954
 51
270.0
  0
ARC
  5
25B
330
2
100
AcDbEntity
  8
0
  6
Continuous
 62
     7
100
AcDbCircle
 10
63788.123895737
 20
-27313.3831047182
 30
0.0
 40
4.99999035052
100
AcDbArc
 50
11.28662753339551
 51
40.74773864155389
  0
ARC
  5
25C
330
2
100
AcDbEntity
  8
0
  6
Continuous
 62
     7
100
AcDbCircle
 10
64019.24193203939
 20
-33337.57241002136
 30
0.0
 40
6047.934465125419
100
AcDbArc
 50
91.27359246225507
 51
91.38925698369435
  0
SPLINE
  5
25D
330
2
100
AcDbEntity
  8
0
  6
Continuous
 62
     7
100
AcDbSpline
210
0.0
220
0.0
230
1.0
 70
     8
 71
     3
 72
    10
 73
     6
 74
     4
 42
0.0000000001
 43
0.0000000001
 44
0.0000000001
 12
0.0053643785566985
 22
0.9999856116178376
 32
0.0
 13
-0.8208992416334732
 23
0.5710730558217476
 33
0.0
 40
0.0
 40
0.0
 40
0.0
 40
0.0
 40
0.6362702742344397
 40
1.412802123898447
 40
2.385334676164767
 40
2.385334676164767
 40
2.385334676164767
 40
2.385334676164767
 10
63830.25174972602
 20
-27297.26312374012
 30
0.0
 10
63830.25288745756
 20
-27297.05103670034
 30
0.0
 10
63830.15424445201
 20
-27296.5746549494
 30
0.0
 10
63829.6882441783
 20
-27295.91220249301
 30
0.0
 10
63829.23926086755
 20
-27295.53267144274
 30
0.0
 10
63828.97314378934
 20
-27295.34754239724
 30
0.0
 11
63830.25174972602
 21
-27297.26312374012
 31
0.0
 11
63830.12806409831
 21
-27296.63899095988
 31
0.0
 11
63829.70538809069
 21
-27295.98757196558
 31
0.0
 11
63828.97314378934
 21
-27295.34754239724
 31
0.0
  0
SPLINE
  5
25E
330
2
100
AcDbEntity
  8
0
  6
Continuous
 62
     7
100
AcDbSpline
210
0.0
220
0.0
230
1.0
 70
     8
 71
     3
 72
     8
 73
     4
 74
     2
 42
0.0000000001
 43
0.0000000001
 44
0.0000000001
 12
-0.8208992423682675
 22
0.5710730547655043
 32
0.0
 13
-0.9110335823203646
 23
0.4123321620787339
 33
0.0
 40
0.0
 40
0.0
 40
0.0
 40
0.0
 40
1.180399486774896
 40
1.180399486774896
 40
1.180399486774896
 40
1.180399486774896
 10
63828.97314378934
 20
-27295.34754239724
 30
0.0
 10
63828.65014744122
 20
-27295.12284428365
 30
0.0
 10
63828.30069044332
 20
-27294.93483940777
 30
0.0
 10
63827.94222925231
 20
-27294.77260051694
 30
0.0
 11
63828.97314378934
 21
-27295.34754239724
 31
0.0
 11
63827.94222925231
 21
-27294.77260051694
 31
0.0
  0
LINE
  5
25F
330
2
100
AcDbEntity
  8
0
  6
Continuous
 62
     7
100
AcDbLine
 10
63872.61204535317
 20
-27291.44349953477
 30
0.0
 11
63865.67293860403
 21
-27291.61377338276
 31
0.0
  0
LINE
  5
260
330
2
100
AcDbEntity
  8
0
  6
Continuous
 62
     7
100
AcDbLine
 10
63883.55337903812
 20
-27291.15563575693
 30
0.0
 11
63879.8433991886
 21
-27291.25761378
 31
0.0
  0
SPLINE
  5
261
330
2
100
AcDbEntity
  8
0000000000001
  6
Continuous
 62
     7
100
AcDbSpline
210
0.0
220
0.0
230
1.0
 70
     8
 71
     3
 72
     8
 73
     4
 74
     2
 42
0.0000000001
 43
0.0000000001
 44
0.0000000001
 12
0.3280394420958905
 22
-0.9446640272760559
 32
0.0
 13
0.4460071831781722
 23
-0.8950293808325358
 33
0.0
 40
0.0
 40
0.0
 40
0.0
 40
0.0
 40
4.393030410550777
 40
4.393030410550777
 40
4.393030410550777
 40
4.393030410550777
 10
63785.02456100344
 20
-27298.18022228431
 30
0.0
 10
63785.50492341843
 20
-27299.56353488417
 30
0.0
 10
63786.04917254765
 20
-27300.9296379512
 30
0.0
 10
63786.70228025399
 20
-27302.24026838064
 30
0.0
 11
63785.02456100344
 21
-27298.18022228431
 31
0.0
 11
63786.70228025399
 21
-27302.24026838064
 31
0.0
  0
LINE
  5
262
330
2
100
AcDbEntity
  8
0
  6
Continuous
 62
     7
100
AcDbLine
 10
63832.03965419427
 20
-27292.35371660432
 30
0.0
 11
63838.60200171732
 21
-27292.13462512477
 31
0.0
  0
LINE
  5
263
330
2
100
AcDbEntity
  8
0
  6
Continuous
 62
     7
100
AcDbLine
 10
63838.60200171732
 20
-27292.13462512477
 30
0.0
 11
63850.79875050637
 21
-27291.72773659395
 31
0.0
  0
LINE
  5
264
330
2
100
AcDbEntity
  8
0
  6
Continuous
 62
     7
100
AcDbLine
 10
63850.79875050637
 20
-27291.72773659395
 30
0.0
 11
63851.69253175159
 21
-27291.69793212207
 31
0.0
  0
LINE
  5
265
330
2
100
AcDbEntity
  8
0
  6
Continuous
 62
     7
100
AcDbLine
 10
63851.6024879946
 20
-27291.94223165899
 30
0.0
 11
63854.7378002482
 21
-27291.86182754745
 31
0.0
  0
LINE
  5
266
330
2
100
AcDbEntity
  8
0
  6
Continuous
 62
     7
100
AcDbLine
 10
63854.7378002482
 20
-27291.86182754745
 30
0.0
 11
63855.54826615589
 21
-27291.84112446211
 31
0.0
  0
LINE
  5
267
330
2
100
AcDbEntity
  8
0
  6
Continuous
 62
     7
100
AcDbLine
 10
63855.54826615589
 20
-27291.84112446211
 30
0.0
 11
63860.92616465083
 21
-27291.70469535727
 31
0.0
  0
LINE
  5
268
330
2
100
AcDbEntity
  8
0
  6
Continuous
 62
     7
100
AcDbLine
 10
63860.92616465083
 20
-27291.70469535727
 30
0.0
 11
63861.73868404423
 21
-27291.68423817693
 31
0.0
  0
LINE
  5
269
330
2
100
AcDbEntity
  8
0
  6
Continuous
 62
     7
100
AcDbLine
 10
63861.73868404423
 20
-27291.68423817693
 30
0.0
 11
63865.77465219541
 21
-27291.5833329788
 31
0.0
  0
LINE
  5
26A
330
2
100
AcDbEntity
  8
0
  6
Continuous
 62
     7
100
AcDbLine
 10
63865.77465219541
 20
-27291.5833329788
 30
0.0
 11
63869.70008607431
 21
-27291.48651693659
 31
0.0
  0
LINE
  5
26B
330
2
100
AcDbEntity
  8
0
  6
Continuous
 62
     7
100
AcDbLine
 10
63835.07753289888
 20
-27292.37106453258
 30
0.0
 11
63837.42719671608
 21
-27292.30981781487
 31
0.0
  0
LINE
  5
26C
330
2
100
AcDbEntity
  8
0
  6
Continuous
 62
     7
100
AcDbLine
 10
63837.42719671608
 20
-27292.30981781487
 30
0.0
 11
63839.80143512739
 21
-27292.2479430541
 31
0.0
  0
SPLINE
  5
26D
330
2
100
AcDbEntity
  8
0
  6
Continuous
 62
     7
100
AcDbSpline
210
0.0
220
0.0
230
1.0
 70
     8
 71
     3
 72
    11
 73
     7
 74
     5
 42
0.0000000001
 43
0.0000000001
 44
0.0000000001
 12
-0.9963816997798426
 22
0.0849912250990167
 32
0.0
 13
-0.9995984981331242
 23
-0.0283344759966137
 33
0.0
 40
0.0
 40
0.0
 40
0.0
 40
0.0
 40
0.159084087417516
 40
0.7202600751761397
 40
1.692407448360615
 40
3.048999058726039
 40
3.048999058726039
 40
3.048999058726039
 40
3.048999058726039
 10
63835.08763380571
 20
-27292.30074483834
 30
0.0
 10
63835.03479764789
 20
-27292.29623792118
 30
0.0
 10
63834.79496227349
 20
-27292.28237621246
 30
0.0
 10
63834.23057038561
 20
-27292.30311370232
 30
0.0
 10
63833.26769355384
 20
-27292.3173101193
 30
0.0
 10
63832.49166983969
 20
-27292.34090383351
 30
0.0
 10
63832.03965419427
 20
-27292.35371660432
 30
0.0
 11
63835.08763380571
 21
-27292.30074483834
 31
0.0
 11
63834.92883503007
 21
-27292.29122140797
 31
0.0
 11
63834.3676845344
 21
-27292.29657028222
 31
0.0
 11
63833.39576334391
 21
-27292.31753965609
 31
0.0
 11
63832.03965419427
 21
-27292.35371660432
 31
0.0
  0
LINE
  5
26E
330
2
100
AcDbEntity
  8
0
  6
Continuous
 62
     7
100
AcDbLine
 10
63839.80143512739
 20
-27292.2479430541
 30
0.0
 11
63841.72577553837
 21
-27292.19782393673
 31
0.0
  0
LINE
  5
26F
330
2
100
AcDbEntity
  8
0
  6
Continuous
 62
     7
100
AcDbLine
 10
63841.72577553837
 20
-27292.19782393673
 30
0.0
 11
63850.80404024688
 21
-27291.96277974071
 31
0.0
  0
LINE
  5
270
330
2
100
AcDbEntity
  8
0
  6
Continuous
 62
     7
100
AcDbLine
 10
63850.80404024688
 20
-27291.96277974071
 30
0.0
 11
63851.6024879946
 21
-27291.94223165899
 31
0.0
  0
SPLINE
  5
271
330
2
100
AcDbEntity
  8
0
  6
Continuous
 62
     7
100
AcDbSpline
210
0.0
220
0.0
230
1.0
 70
     8
 71
     3
 72
    16
 73
    12
 74
    10
 42
0.0000000001
 43
0.0000000001
 44
0.0000000001
 12
0.9817601263828422
 22
-0.1901237866358271
 32
0.0
 13
0.0192308540379122
 23
0.9998150700269388
 33
0.0
 40
0.0
 40
0.0
 40
0.0
 40
0.0
 40
3.824913999466773
 40
7.246589585894751
 40
10.30021185760824
 40
12.99740373094576
 40
15.50380104320426
 40
18.19581646262812
 40
21.19377864395308
 40
24.53716462247113
 40
28.08158323646144
 40
28.08158323646144
 40
28.08158323646144
 40
28.08158323646144
 10
63810.99917263806
 20
-27320.34506538664
 30
0.0
 10
63812.25088865523
 20
-27320.58746776436
 30
0.0
 10
63814.68804647768
 20
-27320.76429368137
 30
0.0
 10
63818.10452512369
 20
-27320.22021837563
 30
0.0
 10
63820.97929751851
 20
-27319.12806026411
 30
0.0
 10
63823.36145108784
 20
-27317.72456002523
 30
0.0
 10
63825.3814139297
 20
-27316.01927755091
 30
0.0
 10
63827.16485293884
 20
-27313.93454647337
 30
0.0
 10
63828.72630236761
 20
-27311.33994050343
 30
0.0
 10
63829.83315841677
 20
-27308.21130376881
 30
0.0
 10
63830.13081694469
 20
-27305.91313982622
 30
0.0
 10
63830.15353767702
 20
-27304.73188544463
 30
0.0
 11
63810.99917263806
 21
-27320.34506538664
 31
0.0
 11
63814.81431987952
 21
-27320.61822949352
 31
0.0
 11
63818.19355722564
 21
-27320.08099697649
 31
0.0
 11
63821.05060297461
 21
-27319.00308298799
 31
0.0
 11
63823.37083419902
 21
-27317.62781171771
 31
0.0
 11
63825.28770922229
 21
-27316.01299976828
 31
0.0
 11
63827.04130616715
 21
-27313.97049033784
 31
0.0
 11
63828.58029488498
 21
-27311.39769206222
 31
0.0
 11
63829.69907649549
 21
-27308.24704807895
 31
0.0
 11
63830.15353767702
 21
-27304.73188544463
 31
0.0
  0
LINE
  5
272
330
2
100
AcDbEntity
  8
0
  6
Continuous
 62
     7
100
AcDbLine
 10
63884.81719474006
 20
-27291.13167901794
 30
0.0
 11
63885.63064033702
 21
-27291.11348284912
 31
0.0
  0
SPLINE
  5
273
330
2
100
AcDbEntity
  8
0
  6
Continuous
 62
     7
100
AcDbSpline
210
0.0
220
0.0
230
1.0
 70
     8
 71
     3
 72
     8
 73
     4
 74
     2
 42
0.0000000001
 43
0.0000000001
 44
0.0000000001
 12
0.4460071830995111
 22
-0.8950293808717336
 32
0.0
 13
0.6527212397832778
 23
-0.7575981673260442
 33
0.0
 40
0.0
 40
0.0
 40
0.0
 40
0.0
 40
9.44570601645131
 40
9.44570601645131
 40
9.44570601645131
 40
9.44570601645131
 10
63786.70228025399
 20
-27302.24026838064
 30
0.0
 10
63788.10656449825
 20
-27305.05832984991
 30
0.0
 10
63789.85666061039
 20
-27307.73414972594
 30
0.0
 10
63791.91179825762
 20
-27310.11949958166
 30
0.0
 11
63786.70228025399
 21
-27302.24026838064
 31
0.0
 11
63791.91179825762
 21
-27310.11949958166
 31
0.0
  0
LINE
  5
274
330
2
100
AcDbEntity
  8
0
  6
Continuous
 62
     7
100
AcDbLine
 10
63830.16867038736
 20
-27304.15773930811
 30
0.0
 11
63830.18079541018
 21
-27303.28497434305
 31
0.0
  0
SPLINE
  5
275
330
2
100
AcDbEntity
  8
0
  6
Continuous
 62
     7
100
AcDbSpline
210
0.0
220
0.0
230
1.0
 70
     8
 71
     3
 72
    13
 73
     9
 74
     7
 42
0.0000000001
 43
0.0000000001
 44
0.0000000001
 12
0.8175656730867263
 22
-0.5758353672624218
 32
0.0
 13
0.9348821732602392
 23
-0.3549581977081416
 33
0.0
 40
0.0
 40
0.0
 40
0.0
 40
0.0
 40
1.091466105763569
 40
2.625087307568541
 40
4.542996667977817
 40
6.723238701897552
 40
8.965538393823868
 40
11.09206124934255
 40
11.09206124934255
 40
11.09206124934255
 40
11.09206124934255
 10
63796.05269744597
 20
-27313.45501945624
 30
0.0
 10
63796.35014585311
 20
-27313.66452105153
 30
0.0
 10
63797.06089417754
 20
-27314.17494587308
 30
0.0
 10
63798.31058063141
 20
-27315.03065346456
 30
0.0
 10
63799.90177043134
 20
-27316.02815231694
 30
0.0
 10
63801.75152951868
 20
-27317.05295655264
 30
0.0
 10
63803.71961326905
 20
-27318.0002617404
 30
0.0
 10
63805.06662215076
 20
-27318.5560831894
 30
0.0
 10
63805.7293049203
 20
-27318.80769209613
 30
0.0
 11
63796.05269744597
 21
-27313.45501945624
 31
0.0
 11
63796.94314356195
 21
-27314.08621195823
 31
0.0
 11
63798.20995304257
 21
-27314.95061217251
 31
0.0
 11
63799.83591032914
 21
-27315.96778433936
 31
0.0
 11
63801.74285576086
 21
-27317.02467338127
 31
0.0
 11
63803.76339330222
 21
-27317.99695726591
 31
0.0
 11
63805.7293049203
 21
-27318.80769209613
 31
0.0
  0
SPLINE
  5
276
330
2
100
AcDbEntity
  8
0
  6
Continuous
 62
     7
100
AcDbSpline
210
0.0
220
0.0
230
1.0
 70
     8
 71
     3
 72
    10
 73
     6
 74
     4
 42
0.0000000001
 43
0.0000000001
 44
0.0000000001
 12
0.9348621693213406
 22
-0.3550108792301963
 32
0.0
 13
0.975556295457013
 23
-0.2197496630126862
 33
0.0
 40
0.0
 40
0.0
 40
0.0
 40
0.0
 40
1.781625491547612
 40
3.456120084230215
 40
5.031685424487621
 40
5.031685424487621
 40
5.031685424487621
 40
5.031685424487621
 10
63805.7293049203
 20
-27318.80769209613
 30
0.0
 10
63806.28449634428
 20
-27319.0185242402
 30
0.0
 10
63807.37247325001
 20
-27319.39922509239
 30
0.0
 10
63808.98139011126
 20
-27319.8749531227
 30
0.0
 10
63810.0333734013
 20
-27320.13541492793
 30
0.0
 10
63810.54572429683
 20
-27320.25082491213
 30
0.0
 11
63805.7293049203
 21
-27318.80769209613
 31
0.0
 11
63807.41075301031
 21
-27319.39669270118
 31
0.0
 11
63809.0164089303
 21
-27319.87187814657
 31
0.0
 11
63810.54572429683
 21
-27320.25082491213
 31
0.0
  0
SPLINE
  5
277
330
2
100
AcDbEntity
  8
0000000000001
  6
Continuous
 62
     7
100
AcDbSpline
210
0.0
220
0.0
230
1.0
 70
     8
 71
     3
 72
    10
 73
     6
 74
     4
 42
0.0000000001
 43
0.0000000001
 44
0.0000000001
 12
0.9567736608119483
 22
0.2908335640473826
 32
0.0
 13
0.8030371495936799
 23
0.5959289692341344
 33
0.0
 40
0.0
 40
0.0
 40
0.0
 40
0.0
 40
1.797363955193194
 40
3.596926311015685
 40
5.491114604968384
 40
5.491114604968384
 40
5.491114604968384
 40
5.491114604968384
 10
63818.85676981335
 20
-27301.80107299276
 30
0.0
 10
63819.42999331042
 20
-27301.62682840444
 30
0.0
 10
63820.56103991986
 20
-27301.22010865766
 30
0.0
 10
63822.20087444509
 20
-27300.39804605422
 30
0.0
 10
63823.23222303128
 20
-27299.71946302363
 30
0.0
 10
63823.73925755406
 20
-27299.34319579779
 30
0.0
 11
63818.85676981335
 21
-27301.80107299276
 31
0.0
 11
63820.54614564975
 21
-27301.18745546465
 31
0.0
 11
63822.15559003572
 21
-27300.38240053426
 31
0.0
 11
63823.73925755406
 21
-27299.34319579779
 31
0.0
  0
SPLINE
  5
278
330
2
100
AcDbEntity
  8
0
  6
Continuous
 62
     7
100
AcDbSpline
210
0.0
220
0.0
230
1.0
 70
     8
 71
     3
 72
    10
 73
     6
 74
     4
 42
0.0000000001
 43
0.0000000001
 44
0.0000000001
 12
0.8030371495552383
 22
0.5959289692859358
 32
0.0
 13
0.5198095242390439
 23
0.8542821890396515
 33
0.0
 40
0.0
 40
0.0
 40
0.0
 40
0.0
 40
1.944140574803098
 40
4.017800715170283
 40
6.233302171683937
 40
6.233302171683937
 40
6.233302171683937
 40
6.233302171683937
 10
63823.73925755406
 20
-27299.34319579779
 30
0.0
 10
63824.2596632559
 20
-27298.95700590149
 30
0.0
 10
63825.28368533916
 20
-27298.08794803995
 30
0.0
 10
63826.70299497283
 20
-27296.5638846747
 30
0.0
 10
63827.52988568704
 20
-27295.39065627867
 30
0.0
 10
63827.91376527306
 20
-27294.7597684673
 30
0.0
 11
63823.73925755406
 21
-27299.34319579779
 31
0.0
 11
63825.22511154705
 21
-27298.08943326599
 31
0.0
 11
63826.6356974711
 21
-27296.569461645
 31
0.0
 11
63827.91376527306
 21
-27294.7597684673
 31
0.0
  0
LINE
  5
279
330
2
100
AcDbEntity
  8
0
  6
Continuous
 62
     7
100
AcDbLine
 10
63941.31438532693
 20
-27289.70406457831
 30
0.0
 11
63927.04316506058
 21
-27290.06546063724
 31
0.0
  0
LINE
  5
27A
330
2
100
AcDbEntity
  8
0
  6
Continuous
 62
     7
100
AcDbLine
 10
63927.04316506058
 20
-27290.06546063724
 30
0.0
 11
63892.19853420906
 21
-27290.94561014444
 31
0.0
  0
LINE
  5
27B
330
2
100
AcDbEntity
  8
0
  6
Continuous
 62
     7
100
AcDbLine
 10
63892.19853420906
 20
-27290.94561014444
 30
0.0
 11
63884.81719474006
 21
-27291.13167904075
 31
0.0
  0
SPLINE
  5
27C
330
2
100
AcDbEntity
  8
0
  6
Continuous
 62
     7
100
AcDbSpline
210
0.0
220
0.0
230
1.0
 70
     8
 71
     3
 72
    12
 73
     8
 74
     6
 42
0.0000000001
 43
0.0000000001
 44
0.0000000001
 12
0.7563454756561116
 22
-0.6541723942926133
 32
0.0
 13
0.8025968417578789
 23
-0.5965218433555291
 33
0.0
 40
0.0
 40
0.0
 40
0.0
 40
0.0
 40
0.4300881560266782
 40
1.011979838885336
 40
1.848317364839001
 40
2.843908672211581
 40
3.858886482175548
 40
3.858886482175548
 40
3.858886482175548
 40
3.858886482175548
 10
63791.91179825762
 20
-27310.11949958166
 30
0.0
 10
63792.02023000127
 20
-27310.21328351459
 30
0.0
 10
63792.27336306067
 20
-27310.43626714929
 30
0.0
 10
63792.73154377727
 20
-27310.84815698032
 30
0.0
 10
63793.33379953892
 20
-27311.38175353959
 30
0.0
 10
63794.05922210186
 20
-27311.99380232742
 30
0.0
 10
63794.5881060893
 20
-27312.40583359694
 30
0.0
 10
63794.85964541755
 20
-27312.60765240833
 30
0.0
 11
63791.91179825762
 21
-27310.11949958166
 31
0.0
 11
63792.23498097167
 21
-27310.40327547086
 31
0.0
 11
63792.66885397234
 21
-27310.79102816249
 31
0.0
 11
63793.29609178065
 21
-27311.34423082802
 31
0.0
 11
63794.05834502879
 21
-27311.98467757602
 31
0.0
 11
63794.85964541755
 21
-27312.60765240833
 31
0.0
  0
SPLINE
  5
27D
330
2
100
AcDbEntity
  8
0
  6
Continuous
 62
     7
100
AcDbSpline
210
0.0
220
0.0
230
1.0
 70
     8
 71
     3
 72
     8
 73
     4
 74
     2
 42
0.0000000001
 43
0.0000000001
 44
0.0000000001
 12
-0.7635114110280821
 22
0.6457943366350523
 32
0.0
 13
-0.4977536652373998
 23
0.8673184471361917
 33
0.0
 40
0.0
 40
0.0
 40
0.0
 40
0.0
 40
12.83720797957685
 40
12.83720797957685
 40
12.83720797957685
 40
12.83720797957685
 10
63796.06262476161
 20
-27313.45670809145
 30
0.0
 10
63792.79550650222
 20
-27310.69330935432
 30
0.0
 10
63790.01934738969
 20
-27307.26889694758
 30
0.0
 10
63787.88942494861
 20
-27303.55758118411
 30
0.0
 11
63796.06262476161
 21
-27313.45670809145
 31
0.0
 11
63787.88942494861
 21
-27303.55758118411
 31
0.0
  0
LINE
  5
27E
330
2
100
AcDbEntity
  8
0
  6
Continuous
 62
     7
100
AcDbLine
 10
63795.67016966397
 20
-27313.18237898804
 30
0.0
 11
63796.06263240194
 21
-27313.45669905669
 31
0.0
  0
SPLINE
  5
27F
330
2
100
AcDbEntity
  8
0000000000001
  6
Continuous
 62
     7
100
AcDbSpline
210
0.0
220
0.0
230
1.0
 70
     8
 71
     3
 72
     9
 73
     5
 74
     3
 42
0.0000000001
 43
0.0000000001
 44
0.0000000001
 12
-0.4977543665500789
 22
0.8673180446527846
 32
0.0
 13
-0.3760072142281326
 23
0.9266167356833133
 33
0.0
 40
0.0
 40
0.0
 40
0.0
 40
0.0
 40
5.191444997707245
 40
5.997989995090324
 40
5.997989995090324
 40
5.997989995090324
 40
5.997989995090324
 10
63787.8894392869
 20
-27303.55757323399
 30
0.0
 10
63787.02808448147
 20
-27302.05669525922
 30
0.0
 10
63786.15496153711
 20
-27300.25032722291
 30
0.0
 10
63785.3899500478
 20
-27298.40340205101
 30
0.0
 10
63785.28886113526
 20
-27298.15428268679
 30
0.0
 11
63787.8894392869
 21
-27303.55757323399
 31
0.0
 11
63785.59764590243
 21
-27298.89937784875
 31
0.0
 11
63785.28886113526
 21
-27298.15428268679
 31
0.0
  0
SPLINE
  5
280
330
2
100
AcDbEntity
  8
0
  6
Continuous
 62
     7
100
AcDbSpline
210
0.0
220
0.0
230
1.0
 70
     8
 71
     3
 72
    15
 73
    11
 74
     9
 42
0.0000000001
 43
0.0000000001
 44
0.0000000001
 12
0.5198095738437774
 22
0.8542821588563993
 32
0.0
 13
0.4091675884529732
 23
0.9124592509036107
 33
0.0
 40
0.0
 40
0.0
 40
0.0
 40
0.0
 40
0.1969150249926654
 40
0.3416277275889504
 40
0.563363788770638
 40
0.7580295441324684
 40
0.9297014065573316
 40
1.096367063225246
 40
1.265116720167349
 40
1.432569721857137
 40
1.432569721857137
 40
1.432569721857137
 40
1.432569721857137
 10
63827.91376528331
 20
-27294.75976845217
 30
0.0
 10
63827.94788472172
 20
-27294.70369478795
 30
0.0
 10
63828.00529188429
 20
-27294.60531570603
 30
0.0
 10
63828.09553388169
 20
-27294.44062034386
 30
0.0
 10
63828.181277683
 20
-27294.27436427772
 30
0.0
 10
63828.26726064734
 20
-27294.0981935999
 30
0.0
 10
63828.34283562056
 20
-27293.93739637569
 30
0.0
 10
63828.41323096576
 20
-27293.78372180992
 30
0.0
 10
63828.48210206299
 20
-27293.63090058529
 30
0.0
 10
63828.52789142671
 20
-27293.52861438752
 30
0.0
 10
63828.55073020701
 20
-27293.47768304069
 30
0.0
 11
63827.91376528331
 21
-27294.75976845217
 31
0.0
 11
63828.01317230822
 21
-27294.58978677532
 31
0.0
 11
63828.08277452109
 21
-27294.46291164672
 31
0.0
 11
63828.18463515817
 21
-27294.26595659743
 31
0.0
 11
63828.27016535786
 21
-27294.09108709966
 31
0.0
 11
63828.34328693629
 21
-27293.93576658229
 31
0.0
 11
63828.41278708936
 21
-27293.78428334943
 31
0.0
 11
63828.48221520812
 21
-27293.63047768295
 31
0.0
 11
63828.55073020701
 21
-27293.47768304069
 31
0.0
  0
SPLINE
  5
281
330
2
100
AcDbEntity
  8
0
  6
Continuous
 62
     7
100
AcDbSpline
210
0.0
220
0.0
230
1.0
 70
     8
 71
     3
 72
    14
 73
    10
 74
     8
 42
0.0000000001
 43
0.0000000001
 44
0.0000000001
 12
0.4091675892651247
 22
0.9124592505394232
 32
0.0
 13
0.5765590148882982
 23
0.8170555075091503
 33
0.0
 40
0.0
 40
0.0
 40
0.0
 40
0.0
 40
0.1603941114581027
 40
0.3192668705922712
 40
0.4801064631337809
 40
0.6428208287666964
 40
0.8035296200082413
 40
0.9527521173955289
 40
1.163117633757256
 40
1.163117633757256
 40
1.163117633757256
 40
1.163117633757256
 10
63828.55073020701
 20
-27293.47768304069
 30
0.0
 10
63828.57260623098
 20
-27293.42889867711
 30
0.0
 10
63828.61621050617
 20
-27293.33181930699
 30
0.0
 10
63828.68249839303
 20
-27293.186156582
 30
0.0
 10
63828.75043607971
 20
-27293.04039946338
 30
0.0
 10
63828.82069124875
 20
-27292.89506155185
 30
0.0
 10
63828.89227923167
 20
-27292.75469285675
 30
0.0
 10
63828.97531528798
 20
-27292.60242249297
 30
0.0
 10
63829.03891159256
 20
-27292.50057286964
 30
0.0
 10
63829.07934097085
 20
-27292.44327943507
 30
0.0
 11
63828.55073020701
 21
-27293.47768304069
 31
0.0
 11
63828.61653858191
 21
-27293.33141093541
 31
0.0
 11
63828.68244439364
 21
-27293.18685306611
 31
0.0
 11
63828.75051200192
 21
-27293.04112669502
 31
0.0
 11
63828.82150495623
 21
-27292.89471643165
 31
0.0
 11
63828.89469657769
 21
-27292.75164196806
 31
0.0
 11
63828.96662639071
 21
-27292.6209000248
 31
0.0
 11
63829.07934097085
 21
-27292.44327943507
 31
0.0
  0
SPLINE
  5
282
330
2
100
AcDbEntity
  8
0
  6
Continuous
 62
     7
100
AcDbSpline
210
0.0
220
0.0
230
1.0
 70
     8
 71
     3
 72
     9
 73
     5
 74
     3
 42
0.0000000001
 43
0.0000000001
 44
0.0000000001
 12
-0.9993109773280059
 22
-0.0371156381023644
 32
0.0
 13
-0.0574258144562646
 23
0.9983497762978837
 33
0.0
 40
0.0
 40
0.0
 40
0.0
 40
0.0
 40
1.463332773566981
 40
2.267875824969714
 40
2.267875824969714
 40
2.267875824969714
 40
2.267875824969714
 10
63801.24942137814
 20
-27341.55997192793
 30
0.0
 10
63800.76197987677
 20
-27341.57807610448
 30
0.0
 10
63800.23595465626
 20
-27341.34966942634
 30
0.0
 10
63798.99986683789
 20
-27341.94137346374
 30
0.0
 10
63798.98446632457
 20
-27341.67363500528
 30
0.0
 11
63801.24942137814
 21
-27341.55997192793
 31
0.0
 11
63799.787523738
 21
-27341.62476464317
 31
0.0
 11
63798.98446632457
 21
-27341.67363500528
 31
0.0
  0
SPLINE
  5
283
330
2
100
AcDbEntity
  8
0
  6
Continuous
 62
     7
100
AcDbSpline
210
0.0
220
0.0
230
1.0
 70
     8
 71
     3
 72
    13
 73
     9
 74
     7
 42
0.0000000001
 43
0.0000000001
 44
0.0000000001
 12
0.7186301114730495
 22
-0.6953925243229415
 32
0.0
 13
0.8032163157609014
 23
-0.5956874600790956
 33
0.0
 40
0.0
 40
0.0
 40
0.0
 40
0.0
 40
0.4978771002460111
 40
1.171291966850467
 40
2.137611199361067
 40
3.284306435543276
 40
4.448680049132509
 40
5.583774365070084
 40
5.583774365070084
 40
5.583774365070084
 40
5.583774365070084
 10
63793.0271124203
 20
-27312.40453535961
 30
0.0
 10
63793.14637557898
 20
-27312.5199420308
 30
0.0
 10
63793.42544070417
 20
-27312.7930029937
 30
0.0
 10
63793.93257012904
 20
-27313.29352875235
 30
0.0
 10
63794.60049231132
 20
-27313.93901188392
 30
0.0
 10
63795.4056364197
 20
-27314.67772215671
 30
0.0
 10
63796.28217851624
 20
-27315.42069125737
 30
0.0
 10
63796.88808740739
 20
-27315.89059822643
 30
0.0
 10
63797.19199616555
 20
-27316.11598537644
 30
0.0
 11
63793.0271124203
 21
-27312.40453535961
 31
0.0
 11
63793.38340374467
 21
-27312.75229691461
 31
0.0
 11
63793.86376265705
 21
-27313.2242533722
 31
0.0
 11
63794.55988945626
 21
-27313.89446254741
 31
0.0
 11
63795.40623581026
 21
-27314.6681600424
 31
0.0
 11
63796.29501860473
 21
-27315.4203774686
 31
0.0
 11
63797.19199616555
 21
-27316.11598537644
 31
0.0
  0
SPLINE
  5
284
330
2
100
AcDbEntity
  8
0
  6
Continuous
 62
     7
100
AcDbSpline
210
0.0
220
0.0
230
1.0
 70
     8
 71
     3
 72
    10
 73
     6
 74
     4
 42
0.0000000001
 43
0.0000000001
 44
0.0000000001
 12
0.1684545792157573
 22
-0.9857094169892272
 32
0.0
 13
0.9999999999992748
 23
-0.0000012043223536
 33
0.0
 40
0.0
 40
0.0
 40
0.0
 40
0.0
 40
2.304126271244875
 40
4.591605802341968
 40
6.865022455444423
 40
6.865022455444423
 40
6.865022455444423
 40
6.865022455444423
 10
63801.24943742331
 20
-27341.55996907808
 30
0.0
 10
63801.37881763047
 20
-27342.31703539924
 30
0.0
 10
63801.99547178681
 20
-27343.78837314315
 30
0.0
 10
63803.79094703763
 20
-27345.33091758036
 30
0.0
 10
63805.33507234804
 20
-27345.70373312904
 30
0.0
 10
63806.09287789907
 20
-27345.70373404168
 30
0.0
 11
63801.24943742331
 21
-27341.55996907808
 31
0.0
 11
63802.14482657996
 21
-27343.6830037297
 31
0.0
 11
63803.88298500097
 21
-27345.17007061073
 31
0.0
 11
63806.09287789907
 21
-27345.70373404168
 31
0.0
  0
SPLINE
  5
285
330
2
100
AcDbEntity
  8
0
  6
Continuous
 62
     7
100
AcDbSpline
210
0.0
220
0.0
230
1.0
 70
     8
 71
     3
 72
    10
 73
     6
 74
     4
 42
0.0000000001
 43
0.0000000001
 44
0.0000000001
 12
0.0416224957401043
 22
0.9991334084337111
 32
0.0
 13
-0.9998173308686341
 23
-0.0191129509683881
 33
0.0
 40
0.0
 40
0.0
 40
0.0
 40
0.0
 40
2.319988134850753
 40
4.005641583918174
 40
4.72774909210304
 40
4.72774909210304
 40
4.72774909210304
 40
4.72774909210304
 10
63836.0317890955
 20
-27296.9242864192
 30
0.0
 10
63836.06397699425
 20
-27296.15162720163
 30
0.0
 10
63835.86826965517
 20
-27294.73710095585
 30
0.0
 10
63835.63754667714
 20
-27293.41718556191
 30
0.0
 10
63835.31819195074
 20
-27292.36644448262
 30
0.0
 10
63835.07753341692
 20
-27292.37104501776
 30
0.0
 11
63836.0317890955
 21
-27296.9242864192
 31
0.0
 11
63835.83735270508
 21
-27294.61246042317
 31
0.0
 11
63835.49159068894
 21
-27292.9626494708
 31
0.0
 11
63835.07753341692
 21
-27292.37104501776
 31
0.0
  0
SPLINE
  5
286
330
2
100
AcDbEntity
  8
0
  6
Continuous
 62
     7
100
AcDbSpline
210
0.0
220
0.0
230
1.0
 70
     8
 71
     3
 72
    30
 73
    26
 74
    24
 42
0.0000000001
 43
0.0000000001
 44
0.0000000001
 12
0.9999943056281754
 22
-0.0033747164656006
 32
0.0
 13
-0.0578257769901027
 23
-0.9983266897741897
 33
0.0
 40
0.0
 40
0.0
 40
0.0
 40
0.0
 40
2.275684549908558
 40
4.829404381452341
 40
7.637902051879464
 40
10.66195932864654
 40
13.82166225204617
 40
17.11758300717689
 40
20.62289678330806
 40
24.02902759238664
 40
27.14027499235528
 40
29.90821397407125
 40
32.30211519258601
 40
34.32046163781188
 40
36.00279225999642
 40
37.47647194629833
 40
38.86355077279478
 40
40.17697490920468
 40
41.37228389712337
 40
42.38446562169182
 40
43.20048237247766
 40
43.85841533769431
 40
44.35963240856603
 40
44.6593169428046
 40
44.66053116172388
 40
44.66053116172388
 40
44.66053116172388
 40
44.66053116172388
 10
63842.45911742945
 20
-27341.15300808105
 30
0.0
 10
63843.21767462656
 20
-27341.15556801108
 30
0.0
 10
63844.82747716035
 20
-27341.15811562635
 30
0.0
 10
63847.37344474737
 20
-27341.15529154411
 30
0.0
 10
63850.16885944938
 20
-27341.14759181733
 30
0.0
 10
63853.16626519079
 20
-27341.13860204124
 30
0.0
 10
63856.32615488334
 20
-27341.13273326656
 30
0.0
 10
63859.64647081487
 20
-27341.13383736743
 30
0.0
 10
63863.04891407893
 20
-27341.14434863047
 30
0.0
 10
63866.38976469793
 20
-27341.16213751092
 30
0.0
 10
63869.48482546405
 20
-27341.17884579172
 30
0.0
 10
63872.24249897061
 20
-27341.19017654005
 30
0.0
 10
63874.6358916043
 20
-27341.19545457527
 30
0.0
 10
63876.66741594129
 20
-27341.19552325663
 30
0.0
 10
63878.39220874509
 20
-27341.19170582429
 30
0.0
 10
63879.90652703217
 20
-27341.18497355443
 30
0.0
 10
63881.29799454987
 20
-27341.17542810756
 30
0.0
 10
63882.59619074274
 20
-27341.16371268879
 30
0.0
 10
63883.77088034204
 20
-27341.14875131295
 30
0.0
 10
63884.77532174499
 20
-27341.13965276723
 30
0.0
 10
63885.61314791133
 20
-27341.12416153898
 30
0.0
 10
63886.24703725848
 20
-27341.14362710716
 30
0.0
 10
63886.79241858583
 20
-27341.09544874843
 30
0.0
 10
63886.96577030051
 20
-27341.18490866495
 30
0.0
 10
63887.11906137424
 20
-27341.14312027846
 30
0.0
 10
63887.11903796986
 20
-27341.14352434084
 30
0.0
 11
63842.45911742945
 21
-27341.15300808105
 31
0.0
 11
63844.73479846621
 21
-27341.1570067853
 31
0.0
 11
63847.2885172728
 21
-27341.15471880152
 31
0.0
 11
63850.09700612119
 21
-27341.14767939216
 31
0.0
 11
63853.1210517902
 21
-27341.13930055444
 31
0.0
 11
63856.28075017734
 21
-27341.13394645034
 31
0.0
 11
63859.57667066192
 21
-27341.13528189345
 31
0.0
 11
63863.08196873136
 21
-27341.14577539035
 31
0.0
 11
63866.48805746914
 21
-27341.16270462496
 31
0.0
 11
63869.59926346399
 21
-27341.1787558374
 31
0.0
 11
63872.36718062312
 21
-27341.1897470474
 31
0.0
 11
63874.76107652882
 21
-27341.19479052737
 31
0.0
 11
63876.77942297212
 21
-27341.19470250865
 31
0.0
 11
63878.46174926207
 21
-27341.1908845889
 31
0.0
 11
63879.93541394233
 21
-27341.18423417807
 31
0.0
 11
63881.32246031985
 21
-27341.17474642212
 31
0.0
 11
63882.63582739351
 21
-27341.16250338582
 31
0.0
 11
63883.83105755051
 21
-27341.14877573485
 31
0.0
 11
63884.84317373054
 21
-27341.13725698218
 31
0.0
 11
63885.65916203766
 21
-27341.13044374462
 31
0.0
 11
63886.31709374697
 21
-27341.12915820992
 31
0.0
 11
63886.81828610239
 21
-27341.13413566004
 31
0.0
 11
63887.1178256583
 21
-27341.14345630948
 31
0.0
 11
63887.11903796986
 21
-27341.14352434084
 31
0.0
  0
SPLINE
  5
287
330
2
100
AcDbEntity
  8
0
  6
Continuous
 62
     7
100
AcDbSpline
210
0.0
220
0.0
230
1.0
 70
     8
 71
     3
 72
    11
 73
     7
 74
     5
 42
0.0000000001
 43
0.0000000001
 44
0.0000000001
 12
0.9996528982390891
 22
0.0263454558166968
 32
0.0
 13
0.9997945090156374
 23
0.020271648728724
 33
0.0
 40
0.0
 40
0.0
 40
0.0
 40
0.0
 40
8.34897150546876
 40
16.204174369847
 40
23.50923030242579
 40
29.80522465943249
 40
29.80522465943249
 40
29.80522465943249
 40
29.80522465943249
 10
63851.34012929409
 20
-27296.50097306471
 30
0.0
 10
63854.12215381501
 20
-27296.42765391141
 30
0.0
 10
63859.52164710346
 20
-27296.28396360453
 30
0.0
 10
63867.3542458858
 20
-27296.03902046309
 30
0.0
 10
63874.50240960862
 20
-27295.802172312
 30
0.0
 10
63879.03465311619
 20
-27295.68481313303
 30
0.0
 10
63881.13288664515
 20
-27295.64226973769
 30
0.0
 11
63851.34012929409
 21
-27296.50097306471
 31
0.0
 11
63859.6859853227
 21
-27296.27291090463
 31
0.0
 11
63867.53745512898
 21
-27296.03076648156
 31
0.0
 11
63874.83888064291
 21
-27295.80048916468
 31
0.0
 11
63881.13288664515
 21
-27295.64226973769
 31
0.0
  0
SPLINE
  5
288
330
2
100
AcDbEntity
  8
0
  6
Continuous
 62
     7
100
AcDbSpline
210
0.0
220
0.0
230
1.0
 70
     8
 71
     3
 72
    24
 73
    20
 74
    18
 42
0.0000000001
 43
0.0000000001
 44
0.0000000001
 12
0.9997945756550162
 22
0.0202683618185114
 32
0.0
 13
0.998483002086408
 23
0.0550608258611692
 33
0.0
 40
0.0
 40
0.0
 40
0.0
 40
0.0
 40
0.7315169678543568
 40
1.452470552731303
 40
2.152037718812397
 40
2.825860965662057
 40
3.472070224030197
 40
4.098261634505736
 40
4.724376781947626
 40
5.368466576513947
 40
6.037379966383324
 40
6.717424999724673
 40
7.386519427317308
 40
8.029611429952556
 40
8.638339632816403
 40
9.190466720433041
 40
9.637441266760427
 40
9.942439853220392
 40
10.15503372164678
 40
10.15503372164678
 40
10.15503372164678
 40
10.15503372164678
 10
63881.13288664515
 20
-27295.64226973769
 30
0.0
 10
63881.37667554397
 20
-27295.63732752084
 30
0.0
 10
63881.86072917646
 20
-27295.62732801772
 30
0.0
 10
63882.57793783464
 20
-27295.61329205315
 30
0.0
 10
63883.27592238076
 20
-27295.59981411999
 30
0.0
 10
63883.94900222344
 20
-27295.58710016517
 30
0.0
 10
63884.59763064008
 20
-27295.5749982085
 30
0.0
 10
63885.23035969779
 20
-27295.56322365781
 30
0.0
 10
63885.86237976378
 20
-27295.55132126214
 30
0.0
 10
63886.50862954936
 20
-27295.53870725004
 30
0.0
 10
63887.17283580833
 20
-27295.5249055763
 30
0.0
 10
63887.84535151231
 20
-27295.5098290276
 30
0.0
 10
63888.50922919384
 20
-27295.49352804814
 30
0.0
 10
63889.14929784597
 20
-27295.47610145713
 30
0.0
 10
63889.75033466731
 20
-27295.45774631067
 30
0.0
 10
63890.28596029417
 20
-27295.43923999675
 30
0.0
 10
63890.72032427661
 20
-27295.42210739968
 30
0.0
 10
63891.04153242221
 20
-27295.40785621276
 30
0.0
 10
63891.21383835678
 20
-27295.39901882764
 30
0.0
 10
63891.28459547809
 20
-27295.39511696299
 30
0.0
 11
63881.13288664515
 21
-27295.64226973769
 31
0.0
 11
63881.86425223854
 21
-27295.62738877421
 31
0.0
 11
63882.58506587951
 21
-27295.6131843196
 31
0.0
 11
63883.2845030455
 21
-27295.59969837501
 31
0.0
 11
63883.95820573927
 21
-27295.5869528506
 31
0.0
 11
63884.60430219409
 21
-27295.57487904946
 31
0.0
 11
63885.2303846808
 21
-27295.56319990594
 31
0.0
 11
63885.85638793733
 21
-27295.55136349322
 31
0.0
 11
63886.50035393914
 21
-27295.53873606355
 31
0.0
 11
63887.16912217497
 21
-27295.52480157793
 31
0.0
 11
63887.84899511282
 21
-27295.50950335085
 31
0.0
 11
63888.51788626937
 21
-27295.49301172528
 31
0.0
 11
63889.16073776247
 21
-27295.47542531896
 31
0.0
 11
63889.76917924803
 21
-27295.45674421583
 31
0.0
 11
63890.32097201294
 21
-27295.43753313928
 31
0.0
 11
63890.76759493736
 21
-27295.41980721327
 31
0.0
 11
63891.07228435076
 21
-27295.40607771571
 31
0.0
 11
63891.28459547809
 21
-27295.39511696299
 31
0.0
  0
SPLINE
  5
289
330
2
100
AcDbEntity
  8
0
  6
Continuous
 62
     7
100
AcDbSpline
210
0.0
220
0.0
230
1.0
 70
     8
 71
     3
 72
     8
 73
     4
 74
     2
 42
0.0000000001
 43
0.0000000001
 44
0.0000000001
 12
-0.9995524073343959
 22
-0.0299162997714222
 32
0.0
 13
-0.9999995175417854
 23
-0.0009823014793988
 33
0.0
 40
0.0
 40
0.0
 40
0.0
 40
0.0
 40
2.150564422872354
 40
2.150564422872354
 40
2.150564422872354
 40
2.150564422872354
 10
63836.0317890955
 20
-27296.9242864192
 30
0.0
 10
63835.31525514682
 20
-27296.94573206252
 30
0.0
 10
63834.59808005039
 20
-27296.9255671499
 30
0.0
 10
63833.88122558862
 20
-27296.92627131744
 30
0.0
 11
63836.0317890955
 21
-27296.9242864192
 31
0.0
 11
63833.88122558862
 21
-27296.92627131744
 31
0.0
  0
SPLINE
  5
28A
330
2
100
AcDbEntity
  8
0
  6
Continuous
 62
     7
100
AcDbSpline
210
0.0
220
0.0
230
1.0
 70
     8
 71
     3
 72
     9
 73
     5
 74
     3
 42
0.0000000001
 43
0.0000000001
 44
0.0000000001
 12
-0.9999995175416968
 22
-0.0009823015695793
 32
0.0
 13
-0.9980188740871653
 23
-0.0629152363564406
 33
0.0
 40
0.0
 40
0.0
 40
0.0
 40
0.0
 40
1.906473805464878
 40
3.220528623872964
 40
3.220528623872964
 40
3.220528623872964
 40
3.220528623872964
 10
63833.88122558862
 20
-27296.92627131744
 30
0.0
 10
63833.24573462673
 20
-27296.92689556151
 30
0.0
 10
63832.16906052028
 20
-27296.94987353852
 30
0.0
 10
63831.10838216922
 20
-27297.13363540519
 30
0.0
 10
63830.67123166577
 20
-27297.16119342835
 30
0.0
 11
63833.88122558862
 21
-27296.92627131744
 31
0.0
 11
63831.97661087115
 21
-27297.01044464416
 31
0.0
 11
63830.67123166577
 21
-27297.16119342835
 31
0.0
  0
SPLINE
  5
28B
330
2
100
AcDbEntity
  8
0
  6
Continuous
 62
     7
100
AcDbSpline
210
0.0
220
0.0
230
1.0
 70
     8
 71
     3
 72
     8
 73
     4
 74
     2
 42
0.0000000001
 43
0.0000000001
 44
0.0000000001
 12
-0.99801887408449
 22
-0.0629152363988816
 32
0.0
 13
-0.0023185011179778
 23
-0.9999973122726709
 33
0.0
 40
0.0
 40
0.0
 40
0.0
 40
0.0
 40
0.5011592327847636
 40
0.5011592327847636
 40
0.5011592327847636
 40
0.5011592327847636
 10
63830.67123166577
 20
-27297.16119342835
 30
0.0
 10
63830.50450954136
 20
-27297.17170361222
 30
0.0
 10
63830.20761185981
 20
-27297.18350280857
 30
0.0
 10
63830.20722454705
 20
-27297.35055543718
 30
0.0
 11
63830.67123166577
 21
-27297.16119342835
 31
0.0
 11
63830.20722454705
 21
-27297.35055543718
 31
0.0
  0
SPLINE
  5
28C
330
2
100
AcDbEntity
  8
0
  6
Continuous
 62
     7
100
AcDbSpline
210
0.0
220
0.0
230
1.0
 70
     8
 71
     3
 72
    16
 73
    12
 74
    10
 42
0.0000000001
 43
0.0000000001
 44
0.0000000001
 12
0.9999999954308652
 22
-0.0000955942961823
 32
0.0
 13
0.9999929263773124
 23
-0.0037612757595358
 33
0.0
 40
0.0
 40
0.0
 40
0.0
 40
0.0
 40
4.618050917869481
 40
8.67609418683288
 40
12.28177492099139
 40
15.50850729288827
 40
18.4100815299624
 40
21.03999116341974
 40
23.44521176975414
 40
25.63589845781978
 40
27.62587524091969
 40
27.62587524091969
 40
27.62587524091969
 40
27.62587524091969
 10
63814.83325069503
 20
-27341.14710219742
 30
0.0
 10
63816.37260099395
 20
-27341.14724935054
 30
0.0
 10
63819.26463232738
 20
-27341.14803157896
 30
0.0
 10
63823.35855691174
 20
-27341.14979180125
 30
0.0
 10
63826.988708849
 20
-27341.15103751311
 30
0.0
 10
63830.2333712965
 20
-27341.15136995374
 30
0.0
 10
63833.15277676134
 20
-27341.15102112487
 30
0.0
 10
63835.79834452216
 20
-27341.14938536219
 30
0.0
 10
63838.20694871743
 20
-27341.14655636031
 30
0.0
 10
63840.40224441
 20
-27341.14719238999
 30
0.0
 10
63841.7957965272
 20
-27341.15051313056
 30
0.0
 10
63842.45911742945
 20
-27341.15300808105
 30
0.0
 11
63814.83325069503
 21
-27341.14710219742
 31
0.0
 11
63819.45130147937
 21
-27341.14821274139
 31
0.0
 11
63823.50934444008
 21
-27341.1497944603
 31
0.0
 11
63827.11502499599
 21
-27341.15092818931
 31
0.0
 11
63830.3417573513
 21
-27341.15125536677
 31
0.0
 11
63833.24333154562
 21
-27341.15075723201
 31
0.0
 11
63835.87324064703
 21
-27341.14908436525
 31
0.0
 11
63838.27846042382
 21
-27341.14708674667
 31
0.0
 11
63840.46914691619
 21
-27341.14801272403
 31
0.0
 11
63842.45911742945
 21
-27341.15300808105
 31
0.0
  0
SPLINE
  5
28D
330
2
100
AcDbEntity
  8
0
  6
Continuous
 62
     7
100
AcDbSpline
210
0.0
220
0.0
230
1.0
 70
     8
 71
     3
 72
    16
 73
    12
 74
    10
 42
0.0000000001
 43
0.0000000001
 44
0.0000000001
 12
0.981365120665052
 22
-0.1921522832080526
 32
0.0
 13
0.0043245792076558
 23
0.9999906489636174
 33
0.0
 40
0.0
 40
0.0
 40
0.0
 40
0.0
 40
5.015163707602609
 40
9.525736053652101
 40
13.51122739198204
 40
17.044512057272
 40
20.35929206547335
 40
23.86876069153908
 40
27.78728926691564
 40
32.1759881669637
 40
37.32219270258584
 40
37.32219270258584
 40
37.32219270258584
 40
37.32219270258584
 10
63810.84252930898
 20
-27324.80092551725
 30
0.0
 10
63812.48309822135
 20
-27325.12215056961
 30
0.0
 10
63815.68666052112
 20
-27325.35386196603
 30
0.0
 10
63820.16975219626
 20
-27324.65242541378
 30
0.0
 10
63823.94314617361
 20
-27323.22831405439
 30
0.0
 10
63827.07198265094
 20
-27321.39286302212
 30
0.0
 10
63829.72710470145
 20
-27319.16237142844
 30
0.0
 10
63832.07460341199
 20
-27316.43822837145
 30
0.0
 10
63834.11281645654
 20
-27313.04019984673
 30
0.0
 10
63835.61038071294
 20
-27308.78082148553
 30
0.0
 10
63835.99498715772
 20
-27305.59105298121
 30
0.0
 10
63836.00240554742
 20
-27303.87566751011
 30
0.0
 11
63810.84252930898
 21
-27324.80092551725
 31
0.0
 11
63815.84447288397
 21
-27325.16483139343
 31
0.0
 11
63820.3005790466
 21
-27324.46598895316
 31
0.0
 11
63824.0324496677
 21
-27323.06695969138
 31
0.0
 11
63827.07590888429
 21
-27321.27211804854
 31
0.0
 11
63829.61628951354
 21
-27319.14274425295
 31
0.0
 11
63831.90888887807
 21
-27316.48561079919
 31
0.0
 11
63833.91865144217
 21
-27313.12172604611
 31
0.0
 11
63835.38268243336
 21
-27308.98442121179
 31
0.0
 11
63836.00240554742
 21
-27303.87566751011
 31
0.0
  0
LINE
  5
28E
330
2
100
AcDbEntity
  8
0
  6
Continuous
 62
     7
100
AcDbLine
 10
63836.00240554742
 20
-27303.87566751011
 30
0.0
 11
63836.03178983461
 21
-27296.92429617283
 31
0.0
  0
LINE
  5
28F
330
2
100
AcDbEntity
  8
0
  6
Continuous
 62
     7
100
AcDbLine
 10
63807.71863931092
 20
-27341.14713066831
 30
0.0
 11
63814.83325069503
 21
-27341.14710219742
 31
0.0
  0
LINE
  5
290
330
2
100
AcDbEntity
  8
0
  6
Continuous
 62
     7
100
AcDbLine
 10
63810.24571996672
 20
-27324.67550544292
 30
0.0
 11
63810.84252930898
 21
-27324.80092551725
 31
0.0
  0
SPLINE
  5
291
330
2
100
AcDbEntity
  8
0
  6
Continuous
 62
     7
100
AcDbSpline
210
0.0
220
0.0
230
1.0
 70
     8
 71
     3
 72
     8
 73
     4
 74
     2
 42
0.0000000001
 43
0.0000000001
 44
0.0000000001
 12
-0.3584378138744844
 22
0.9335536050944693
 32
0.0
 13
-0.9014620870643501
 23
0.4328580663284284
 33
0.0
 40
0.0
 40
0.0
 40
0.0
 40
0.0
 40
0.2183937504791663
 40
0.2183937504791663
 40
0.2183937504791663
 40
0.2183937504791663
 10
63810.69028132037
 20
-27320.41435900974
 30
0.0
 10
63810.66418779421
 20
-27320.34639825204
 30
0.0
 10
63810.61177872338
 20
-27320.2817872929
 30
0.0
 10
63810.54615416134
 20
-27320.25027612739
 30
0.0
 11
63810.69028132037
 21
-27320.41435900974
 31
0.0
 11
63810.54615416134
 21
-27320.25027612739
 31
0.0
  0
SPLINE
  5
292
330
2
100
AcDbEntity
  8
0
  6
Continuous
 62
     7
100
AcDbSpline
210
0.0
220
0.0
230
1.0
 70
     8
 71
     3
 72
    10
 73
     6
 74
     4
 42
0.0000000001
 43
0.0000000001
 44
0.0000000001
 12
-0.1230190515001358
 22
0.9924043092248275
 32
0.0
 13
-0.7470808075712656
 23
0.66473322991909
 33
0.0
 40
0.0
 40
0.0
 40
0.0
 40
0.0
 40
1.133980795519238
 40
2.255955489994881
 40
3.369473240145812
 40
3.369473240145812
 40
3.369473240145812
 40
3.369473240145812
 10
63797.19211358985
 20
-27316.11598135045
 30
0.0
 10
63797.14561317589
 20
-27315.74085887443
 30
0.0
 10
63796.96563201825
 20
-27315.00215558834
 30
0.0
 10
63796.4450034969
 20
-27313.99576815506
 30
0.0
 10
63795.94738144233
 20
-27313.42920638275
 30
0.0
 10
63795.67008552899
 20
-27313.18247563255
 30
0.0
 11
63797.19211358985
 21
-27316.11598135045
 31
0.0
 11
63796.92207583925
 21
-27315.01462216387
 31
0.0
 11
63796.40535616665
 21
-27314.01871654836
 31
0.0
 11
63795.67008552899
 21
-27313.18247563255
 31
0.0
  0
SPLINE
  5
293
330
2
100
AcDbEntity
  8
0
  6
Continuous
 62
     7
100
AcDbSpline
210
0.0
220
0.0
230
1.0
 70
     8
 71
     3
 72
    13
 73
     9
 74
     7
 42
0.0000000001
 43
0.0000000001
 44
0.0000000001
 12
0.6781096405887732
 22
-0.7349607576874871
 32
0.0
 13
0.8310432579409122
 23
-0.5562077879991922
 33
0.0
 40
0.0
 40
0.0
 40
0.0
 40
0.0
 40
1.001626768712177
 40
2.411353290338517
 40
4.159789863599169
 40
6.102831172668198
 40
8.046967333711245
 40
9.844933804914836
 40
9.844933804914836
 40
9.844933804914836
 40
9.844933804914836
 10
63797.48553582491
 20
-27316.43086960565
 30
0.0
 10
63797.71194008095
 20
-27316.67625506194
 30
0.0
 10
63798.24576334378
 20
-27317.27724109791
 30
0.0
 10
63799.18830552837
 20
-27318.29442310611
 30
0.0
 10
63800.38524980325
 20
-27319.50291553204
 30
0.0
 10
63801.7739656281
 20
-27320.76946502066
 30
0.0
 10
63803.24578842793
 20
-27321.96487615735
 30
0.0
 10
63804.26048170661
 20
-27322.69192719824
 30
0.0
 10
63804.75854434457
 20
-27323.02527484952
 30
0.0
 11
63797.48553582491
 21
-27316.43086960565
 31
0.0
 11
63798.15758413531
 21
-27317.17357227314
 31
0.0
 11
63799.11662825733
 21
-27318.20680179159
 31
0.0
 11
63800.34934181685
 21
-27319.44674039123
 31
0.0
 11
63801.78580868477
 21
-27320.75516404819
 31
0.0
 11
63803.29601996718
 21
-27321.97947091135
 31
0.0
 11
63804.75854434457
 21
-27323.02527484952
 31
0.0
  0
SPLINE
  5
294
330
2
100
AcDbEntity
  8
0
  6
Continuous
 62
     7
100
AcDbSpline
210
0.0
220
0.0
230
1.0
 70
     8
 71
     3
 72
     9
 73
     5
 74
     3
 42
0.0000000001
 43
0.0000000001
 44
0.0000000001
 12
0.7028470305230958
 22
-0.7113410234795029
 32
0.0
 13
0.676227588052972
 23
-0.7366927779991196
 33
0.0
 40
0.0
 40
0.0
 40
0.0
 40
0.0
 40
0.1888428348534118
 40
0.4305273669916346
 40
0.4305273669916346
 40
0.4305273669916346
 40
0.4305273669916346
 10
63797.19199465426
 20
-27316.11597598347
 30
0.0
 10
63797.23623719615
 20
-27316.16075320194
 30
0.0
 10
63797.33572816915
 20
-27316.26422425001
 30
0.0
 10
63797.43105790883
 20
-27316.37152052253
 30
0.0
 10
63797.48553582491
 20
-27316.43086960565
 30
0.0
 11
63797.19199465426
 21
-27316.11597598347
 31
0.0
 11
63797.32271632075
 21
-27316.25226047335
 31
0.0
 11
63797.48553582491
 21
-27316.43086960565
 31
0.0
  0
SPLINE
  5
295
330
2
100
AcDbEntity
  8
0
  6
Continuous
 62
     7
100
AcDbSpline
210
0.0
220
0.0
230
1.0
 70
     8
 71
     3
 72
    15
 73
    11
 74
     9
 42
0.0000000001
 43
0.0000000001
 44
0.0000000001
 12
0.9948232086885107
 22
-0.1016207825924182
 32
0.0
 13
0.9954875853798213
 23
0.0948918719103627
 33
0.0
 40
0.0
 40
0.0
 40
0.0
 40
0.0
 40
0.2687875310066176
 40
0.6584285747403755
 40
1.180267277293323
 40
1.854979747054541
 40
2.704248787122474
 40
3.7517265472203
 40
5.013482555275884
 40
6.485784512023595
 40
6.485784512023595
 40
6.485784512023595
 40
6.485784512023595
 10
63801.24942134775
 20
-27341.55997192036
 30
0.0
 10
63801.33855337243
 20
-27341.56907672011
 30
0.0
 10
63801.55830473221
 20
-27341.57506761269
 30
0.0
 10
63801.95160646549
 20
-27341.57096052641
 30
0.0
 10
63802.48008749239
 20
-27341.5516470276
 30
0.0
 10
63803.16108336457
 20
-27341.51591039787
 30
0.0
 10
63804.01646267745
 20
-27341.46036210112
 30
0.0
 10
63805.06636870989
 20
-27341.38174939007
 30
0.0
 10
63806.3225120765
 20
-27341.27671892506
 30
0.0
 10
63807.23008637255
 20
-27341.19369939798
 30
0.0
 10
63807.71863914584
 20
-27341.14712956841
 30
0.0
 11
63801.24942134775
 21
-27341.55997192036
 31
0.0
 11
63801.51791264455
 21
-27341.57258779803
 31
0.0
 11
63801.90754490824
 21
-27341.56997206554
 31
0.0
 11
63802.42908442906
 21
-27341.55230402367
 31
0.0
 11
63803.1029102162
 21
-27341.51772476072
 31
0.0
 11
63803.9504395905
 21
-27341.46339371873
 31
0.0
 11
63804.99503288873
 21
-27341.38571167961
 31
0.0
 11
63806.25244129846
 21
-27341.28105837098
 31
0.0
 11
63807.71863914584
 21
-27341.14712956841
 31
0.0
  0
SPLINE
  5
296
330
2
100
AcDbEntity
  8
0
  6
Continuous
 62
     7
100
AcDbSpline
210
0.0
220
0.0
230
1.0
 70
     8
 71
     3
 72
    14
 73
    10
 74
     8
 42
0.0000000001
 43
0.0000000001
 44
0.0000000001
 12
0.9999621361397647
 22
0.0087020851983133
 32
0.0
 13
0.046660710286224
 23
-0.9989107958749794
 33
0.0
 40
0.0
 40
0.0
 40
0.0
 40
0.0
 40
8.897517583910129
 40
17.34623502319125
 40
24.92384793966321
 40
31.25166777063562
 40
36.01375316076828
 40
38.97183766632043
 40
39.97887612211256
 40
39.97887612211256
 40
39.97887612211256
 40
39.97887612211256
 10
64089.53914210771
 20
-27179.35473907474
 30
0.0
 10
64092.50486900423
 20
-27179.32893008938
 30
0.0
 10
64098.29122646994
 20
-27179.28004870002
 30
0.0
 10
64106.58051199773
 20
-27179.24897359624
 30
0.0
 10
64114.08917382681
 20
-27179.17189939616
 30
0.0
 10
64120.1496382741
 20
-27179.31540857822
 30
0.0
 10
64125.22553479331
 20
-27178.98037062338
 30
0.0
 10
64127.41338439317
 20
-27179.66577481572
 30
0.0
 10
64129.49911214578
 20
-27179.01942521296
 30
0.0
 10
64129.51477518899
 20
-27179.35473907474
 30
0.0
 11
64089.53914210771
 21
-27179.35473907474
 31
0.0
 11
64098.43639381021
 21
-27179.28595464027
 31
0.0
 11
64106.88497563033
 21
-27179.23808400696
 31
0.0
 11
64114.46254890284
 21
-27179.21357254978
 31
0.0
 11
64120.79036873381
 21
-27179.21357701011
 31
0.0
 11
64125.55239099288
 21
-27179.23809775852
 31
0.0
 11
64128.51008827531
 21
-27179.28595930364
 31
0.0
 11
64129.51477518899
 21
-27179.35473907474
 31
0.0
  0
SPLINE
  5
297
330
2
100
AcDbEntity
  8
0
  6
Continuous
 62
     7
100
AcDbSpline
210
0.0
220
0.0
230
1.0
 70
     8
 71
     3
 72
    14
 73
    10
 74
     8
 42
0.0000000001
 43
0.0000000001
 44
0.0000000001
 12
-0.0585907829455958
 22
0.9982820844600098
 32
0.0
 13
-0.9999905232826794
 23
-0.0043535439394937
 33
0.0
 40
0.0
 40
0.0
 40
0.0
 40
0.0
 40
1.004172542848305
 40
3.960904601369845
 40
8.723255903309349
 40
15.04973497494472
 40
22.62851384552889
 40
31.07768166916905
 40
39.9764450241998
 40
39.9764450241998
 40
39.9764450241998
 40
39.9764450241998
 10
64133.18754957314
 20
-27284.52923655862
 30
0.0
 10
64133.1679378213
 20
-27284.19508740554
 30
0.0
 10
64131.09011296147
 20
-27284.91970789431
 30
0.0
 10
64128.89797845156
 20
-27284.19741160478
 30
0.0
 10
64123.8256439613
 20
-27284.57218134982
 30
0.0
 10
64117.76401619056
 20
-27284.41502681556
 30
0.0
 10
64110.25562681427
 20
-27284.48376568372
 30
0.0
 10
64101.96516312993
 20
-27284.48955450418
 30
0.0
 10
64096.17814283318
 20
-27284.51632283952
 30
0.0
 10
64093.21191649186
 20
-27284.52923655862
 30
0.0
 11
64133.18754957314
 21
-27284.52923655862
 31
0.0
 11
64132.1839660483
 21
-27284.49484754182
 31
0.0
 11
64129.22733084904
 21
-27284.47091504468
 31
0.0
 11
64124.46499532928
 21
-27284.45865453072
 31
0.0
 11
64118.13851625764
 21
-27284.4586518839
 31
0.0
 11
64110.55974728754
 21
-27284.47090207287
 31
0.0
 11
64102.1106133858
 21
-27284.4948441383
 31
0.0
 11
64093.21191649186
 21
-27284.52923655862
 31
0.0
  0
SPLINE
  5
298
330
2
100
AcDbEntity
  8
0
  6
Continuous
 62
     7
100
AcDbSpline
210
0.0
220
0.0
230
1.0
 70
     8
 71
     3
 72
     9
 73
     5
 74
     3
 42
0.0000000001
 43
0.0000000001
 44
0.0000000001
 12
-0.0502667574318141
 22
0.9987358274825686
 32
0.0
 13
0.2025307589090955
 23
0.9792759017231588
 33
0.0
 40
0.0
 40
0.0
 40
0.0
 40
0.0
 40
0.3734246295067412
 40
1.500369529651381
 40
1.500369529651381
 40
1.500369529651381
 40
1.500369529651381
 10
63829.07903740789
 20
-27292.4283027442
 30
0.0
 10
63829.07278045946
 20
-27292.30398522541
 30
0.0
 10
63828.86193903411
 20
-27291.82830561186
 30
0.0
 10
63829.06099701244
 20
-27291.31501085805
 30
0.0
 10
63829.13707734773
 20
-27290.9471475303
 30
0.0
 11
63829.07903740789
 21
-27292.4283027442
 31
0.0
 11
63828.99321987818
 21
-27292.06487282589
 31
0.0
 11
63829.13707734773
 21
-27290.9471475303
 31
0.0
  0
LINE
  5
299
330
2
100
AcDbEntity
  8
0000000000001
  6
Continuous
 62
     7
100
AcDbLine
 10
63851.69253175159
 20
-27291.69793211194
 30
0.0
 11
63854.73177313561
 21
-27291.59659144599
 31
0.0
  0
LINE
  5
29A
330
2
100
AcDbEntity
  8
0000000000001
  6
Continuous
 62
     7
100
AcDbLine
 10
63854.73177313561
 20
-27291.59659144599
 30
0.0
 11
63855.55605380599
 21
-27291.56910810238
 31
0.0
  0
LINE
  5
29B
330
2
100
AcDbEntity
  8
0000000000001
  6
Continuous
 62
     7
100
AcDbLine
 10
63855.55605380599
 20
-27291.56910810238
 30
0.0
 11
63861.73161512532
 21
-27291.36321094763
 31
0.0
  0
LINE
  5
29C
330
2
100
AcDbEntity
  8
0000000000001
  6
Continuous
 62
     7
100
AcDbLine
 10
63861.73161512532
 20
-27291.36321094763
 30
0.0
 11
63865.76668946038
 21
-27291.2286767996
 31
0.0
  0
LINE
  5
29D
330
2
100
AcDbEntity
  8
0000000000001
  6
Continuous
 62
     7
100
AcDbLine
 10
63865.76668946038
 20
-27291.2286767996
 30
0.0
 11
63892.18865104369
 21
-27290.34694976444
 31
0.0
  0
LINE
  5
29E
330
2
100
AcDbEntity
  8
0000000000001
  6
Continuous
 62
     7
100
AcDbLine
 10
63892.18865104369
 20
-27290.34694976444
 30
0.0
 11
63896.1022893606
 21
-27290.21612850463
 31
0.0
  0
LINE
  5
29F
330
2
100
AcDbEntity
  8
0000000000001
  6
Continuous
 62
     7
100
AcDbLine
 10
63896.1022893606
 20
-27290.21612850463
 30
0.0
 11
63911.39114410919
 21
-27289.70435540823
 31
0.0
  0
SPLINE
  5
2A0
330
2
100
AcDbEntity
  8
0
  6
Continuous
 62
     7
100
AcDbSpline
210
0.0
220
0.0
230
1.0
 70
     8
 71
     3
 72
    12
 73
     8
 74
     6
 42
0.0000000001
 43
0.0000000001
 44
0.0000000001
 12
0.9023520257162175
 22
-0.4309997931389739
 32
0.0
 13
0.9907516374173752
 23
-0.1356878511687398
 33
0.0
 40
0.0
 40
0.0
 40
0.0
 40
0.0
 40
4.80446830276429
 40
8.307485109622344
 40
11.86845090346539
 40
15.4149620646415
 40
16.40558889290501
 40
16.40558889290501
 40
16.40558889290501
 40
16.40558889290501
 10
63794.66051579547
 20
-27296.58906885495
 30
0.0
 10
63796.10562303064
 20
-27297.27931046983
 30
0.0
 10
63798.65245783353
 20
-27298.37657655167
 30
0.0
 10
63802.39708285406
 20
-27299.66104140369
 30
0.0
 10
63805.81721302168
 20
-27300.57406111702
 30
0.0
 10
63808.47113631156
 20
-27301.08067841763
 30
0.0
 10
63809.96759446487
 20
-27301.29982357776
 30
0.0
 10
63810.2947495156
 20
-27301.34462891964
 30
0.0
 11
63794.66051579547
 21
-27296.58906885495
 31
0.0
 11
63799.07628496236
 21
-27298.48218753506
 31
0.0
 11
63802.39065327903
 21
-27299.61624635654
 31
0.0
 11
63805.83148301405
 21
-27300.53339853559
 31
0.0
 11
63809.31458374661
 21
-27301.20104417755
 31
0.0
 11
63810.2947495156
 21
-27301.34462891964
 31
0.0
  0
SPLINE
  5
2A1
330
2
100
AcDbEntity
  8
0
  6
Continuous
 62
     7
100
AcDbSpline
210
0.0
220
0.0
230
1.0
 70
     8
 71
     3
 72
    10
 73
     6
 74
     4
 42
0.0000000001
 43
0.0000000001
 44
0.0000000001
 12
0.8865554965176258
 22
-0.4626222558355643
 32
0.0
 13
0.9878360916890393
 23
-0.1554987329740149
 33
0.0
 40
0.0
 40
0.0
 40
0.0
 40
0.0
 40
5.897038680009257
 40
11.44563431975538
 40
17.03054895887675
 40
17.03054895887675
 40
17.03054895887675
 40
17.03054895887675
 10
63794.22094639775
 20
-27296.66087091612
 30
0.0
 10
63795.96363041606
 20
-27297.57023802842
 30
0.0
 10
63799.43006706001
 20
-27299.18257334356
 30
0.0
 10
63804.81704360565
 20
-27301.00827251542
 30
0.0
 10
63808.4557338562
 20
-27301.78562723687
 30
0.0
 10
63810.29472727271
 20
-27302.07510962026
 30
0.0
 11
63794.22094639775
 21
-27296.66087091612
 31
0.0
 11
63799.57646641066
 21
-27299.1293665278
 31
0.0
 11
63804.83462016914
 21
-27300.90101339601
 31
0.0
 11
63810.29472727271
 21
-27302.07510962026
 31
0.0
  0
LINE
  5
2CB
330
2
100
AcDbEntity
  8
尺寸标注
 62
     0
100
AcDbLine
 10
62633.34044137524
 20
-27891.12422340201
 30
0.0
 11
62633.34044137524
 21
-28033.59308451129
 31
0.0
  0
LINE
  5
2CC
330
2
100
AcDbEntity
  8
尺寸标注
 62
     0
100
AcDbLine
 10
63175.46124828789
 20
-27890.82813418732
 30
0.0
 11
63175.4612482879
 21
-28033.59308451129
 31
0.0
  0
LINE
  5
2CD
330
2
100
AcDbEntity
  8
0
  6
Continuous
 62
     7
100
AcDbLine
 10
63125.4612482879
 20
-28083.59308451129
 30
0.0
 11
62683.34044137525
 21
-28083.59308451129
 31
0.0
  0
ARC
  5
2CE
330
2
100
AcDbEntity
  8
尺寸标注
 62
     0
100
AcDbCircle
 10
63125.4612482879
 20
-28033.59308451129
 30
0.0
 40
50.0
100
AcDbArc
 50
270.0
 51
0.0
  0
ARC
  5
2CF
330
2
100
AcDbEntity
  8
尺寸标注
 62
     0
100
AcDbCircle
 10
62683.34044137525
 20
-28033.59308451129
 30
0.0
 40
50.0
100
AcDbArc
 50
180.0
 51
270.0
  0
ENDSEC
  0
SECTION
  2
OBJECTS
  0
DICTIONARY
  5
9
330
0
100
AcDbDictionary
281
     1
  3
ACAD_COLOR
350
34
  3
ACAD_GROUP
350
2F
  3
ACAD_LAYOUT
350
F
  3
ACAD_MATERIAL
350
B
  3
ACAD_MLEADERSTYLE
350
2F3
  3
ACAD_MLINESTYLE
350
30
  3
ACAD_PLOTSETTINGS
350
31
  3
ACAD_PLOTSTYLENAME
350
8
  3
ACAD_SCALELIST
350
2D1
  3
ACAD_TABLESTYLE
350
35
  3
ACAD_VISUALSTYLE
350
26
  3
ACDB_RECOMPOSE_DATA
350
303
  3
ACDBHEADERROUNDTRIPXREC
350
2FD
  3
AcDbVariableDictionary
350
20B
  0
DICTIONARY
  5
16
330
15
100
AcDbDictionary
280
     1
281
     1
  3
ACAD_LAYERFILTERS
360
17
  3
ACAD_LAYERSTATES
360
18
  3
ACLYDICTIONARY
360
19
  0
DICTIONARY
  5
3
330
2
100
AcDbDictionary
280
     1
281
     1
  3
ACAD_SORTENTS
360
209
  0
DICTIONARY
  5
34
102
{ACAD_REACTORS
330
9
102
}
330
9
100
AcDbDictionary
281
     1
  0
DICTIONARY
  5
2F
102
{ACAD_REACTORS
330
9
102
}
330
9
100
AcDbDictionary
281
     1
  0
DICTIONARY
  5
F
102
{ACAD_REACTORS
330
9
102
}
330
9
100
AcDbDictionary
281
     1
  3
Model
350
E
  3
布局1
350
14
  0
DICTIONARY
  5
B
102
{ACAD_REACTORS
330
9
102
}
330
9
100
AcDbDictionary
281
     1
  3
ByBlock
350
33
  3
ByLayer
350
32
  3
Global
350
A
  0
DICTIONARY
  5
2F3
102
{ACAD_REACTORS
330
9
102
}
330
9
100
AcDbDictionary
281
     1
  3
Standard
350
2F4
  0
DICTIONARY
  5
30
102
{ACAD_REACTORS
330
9
102
}
330
9
100
AcDbDictionary
281
     1
  3
Standard
350
38
  0
DICTIONARY
  5
31
102
{ACAD_REACTORS
330
9
102
}
330
9
100
AcDbDictionary
281
     1
  0
ACDBDICTIONARYWDFLT
  5
8
102
{ACAD_REACTORS
330
9
102
}
330
9
100
AcDbDictionary
281
     1
  3
Normal
350
7
100
AcDbDictionaryWithDefault
340
7
  0
DICTIONARY
  5
2D1
102
{ACAD_REACTORS
330
9
102
}
330
9
100
AcDbDictionary
281
     1
  3
A0
350
2D2
  3
A1
350
2D3
  3
A2
350
2D4
  3
A3
350
2D5
  3
A4
350
2D6
  3
A5
350
2D7
  3
A6
350
2D8
  3
A7
350
2D9
  3
A8
350
2DA
  3
A9
350
2DB
  3
B0
350
2DC
  3
B1
350
2DD
  3
B2
350
2DE
  3
B3
350
2DF
  3
B4
350
2E0
  3
B5
350
2E1
  3
B6
350
2E2
  3
B7
350
2E3
  3
B8
350
2E4
  3
B9
350
2E5
  3
C0
350
2E6
  3
C1
350
2E7
  3
C2
350
2E8
  3
C3
350
2E9
  3
C4
350
2EA
  3
C5
350
2EB
  3
C6
350
2EC
  3
C7
350
2ED
  3
C8
350
2EE
  3
C9
350
2EF
  3
D0
350
2F0
  3
D1
350
2F1
  3
D2
350
2F2
  0
DICTIONARY
  5
35
102
{ACAD_REACTORS
330
9
102
}
330
9
100
AcDbDictionary
281
     1
  3
Standard
350
39
  0
DICTIONARY
  5
26
102
{ACAD_REACTORS
330
9
102
}
330
9
100
AcDbDictionary
281
     1
  3
2dWireframe
350
25
  3
3D Hidden
350
213
  3
3dWireframe
350
3B
  3
Basic
350
212
  3
Brighten
350
216
  3
ColorChange
350
21A
  3
Conceptual
350
214
  3
Dim
350
215
  3
Facepattern
350
219
  3
Flat
350
20E
  3
FlatWithEdges
350
20F
  3
Gouraud
350
210
  3
GouraudWithEdges
350
211
  3
Linepattern
350
218
  3
Realistic
350
3A
  3
Thicken
350
217
  0
XRECORD
  5
303
102
{ACAD_REACTORS
330
9
102
}
330
9
100
AcDbXrecord
280
     1
 90
        1
330
39
  0
DICTIONARY
  5
2FD
102
{ACAD_REACTORS
330
9
102
}
330
9
100
AcDbDictionary
281
     1
  0
DICTIONARY
  5
20B
102
{ACAD_REACTORS
330
9
102
}
330
9
100
AcDbDictionary
281
     1
  3
CMLEADERSTYLE
350
2FB
  3
CTABLESTYLE
350
20C
  0
DICTIONARY
  5
17
102
{ACAD_REACTORS
330
16
102
}
330
16
100
AcDbDictionary
281
     1
  0
DICTIONARY
  5
18
102
{ACAD_REACTORS
330
16
102
}
330
16
100
AcDbDictionary
281
     1
  0
DICTIONARY
  5
19
102
{ACAD_REACTORS
330
16
102
}
330
16
100
AcDbDictionary
281
     1
1001
ACAD
1000
<All
  0
SORTENTSTABLE
  5
209
102
{ACAD_REACTORS
330
3
102
}
330
3
100
AcDbSortentsTable
330
2
331
42
  5
42
331
4A
  5
4B
331
52
  5
53
331
5A
  5
5B
331
B8
  5
B9
331
79
  5
7A
331
263
  5
264
331
136
  5
137
331
16D
  5
16E
331
81
  5
82
331
C0
  5
C1
331
F7
  5
F8
331
22C
  5
22D
331
234
  5
235
331
26B
  5
26C
331
13E
  5
13F
331
175
  5
176
331
89
  5
8A
331
C8
  5
C9
331
FF
  5
100
331
23C
  5
23D
331
273
  5
274
331
107
  5
108
331
146
  5
147
331
91
  5
92
331
D0
  5
D1
331
17D
  5
17E
331
185
  5
186
331
244
  5
245
331
10F
  5
110
331
14E
  5
14F
331
27B
  5
27C
331
62
  5
64
331
6A
  5
6B
331
72
  5
73
331
D8
  5
D9
331
99
  5
9A
331
283
  5
284
331
156
  5
157
331
18D
  5
208
331
E0
  5
E1
331
117
  5
118
331
24C
  5
24D
331
A1
  5
A2
331
28B
  5
28C
331
15E
  5
15F
331
A9
  5
AA
331
E8
  5
E9
331
11F
  5
120
331
254
  5
255
331
25C
  5
25D
331
127
  5
128
331
B1
  5
B2
331
166
  5
167
331
293
  5
294
331
12F
  5
130
331
29B
  5
29C
331
43
  5
43
331
4B
  5
4C
331
53
  5
54
331
5B
  5
5C
331
F0
  5
F1
331
7A
  5
7B
331
B9
  5
BA
331
22D
  5
22E
331
264
  5
265
331
F8
  5
F9
331
137
  5
138
331
82
  5
83
331
C1
  5
C2
331
16E
  5
16F
331
176
  5
177
331
235
  5
236
331
C9
  5
CA
331
100
  5
101
331
8A
  5
8B
331
13F
  5
140
331
26C
  5
26D
331
274
  5
275
331
147
  5
148
331
17E
  5
17F
331
92
  5
93
331
D1
  5
D2
331
108
  5
109
331
23D
  5
23E
331
245
  5
246
331
27C
  5
27D
331
14F
  5
150
331
186
  5
187
331
6B
  5
6C
331
73
  5
74
331
9A
  5
9B
331
D9
  5
DA
331
110
  5
111
331
24D
  5
24E
331
118
  5
119
331
157
  5
158
331
284
  5
285
331
A2
  5
A3
331
E1
  5
E2
331
2CB
  5
2CC
331
255
  5
256
331
E9
  5
EA
331
120
  5
121
331
AA
  5
AB
331
15F
  5
160
331
28C
  5
28D
331
294
  5
295
331
167
  5
168
331
128
  5
129
331
25D
  5
25E
331
B2
  5
B3
331
29C
  5
29D
331
44
  5
45
331
4C
  5
4D
331
54
  5
55
331
5C
  5
5D
331
BA
  5
BB
331
F1
  5
F2
331
7B
  5
7C
331
130
  5
131
331
265
  5
266
331
138
  5
139
331
16F
  5
170
331
83
  5
84
331
C2
  5
C3
331
F9
  5
FA
331
22E
  5
22F
331
236
  5
237
331
26D
  5
26E
331
101
  5
102
331
140
  5
141
331
8B
  5
8C
331
CA
  5
CB
331
177
  5
178
331
23E
  5
23F
331
275
  5
276
331
109
  5
10A
331
148
  5
149
331
93
  5
94
331
D2
  5
D3
331
17F
  5
180
331
187
  5
188
331
246
  5
247
331
27D
  5
27E
331
64
  5
65
331
6C
  5
6D
331
74
  5
75
331
3D
  5
3D
331
DA
  5
DB
331
111
  5
112
331
9B
  5
9C
331
150
  5
151
331
285
  5
286
331
158
  5
159
331
A3
  5
A4
331
E2
  5
E3
331
119
  5
11A
331
24E
  5
24F
331
256
  5
257
331
160
  5
161
331
28D
  5
28E
331
2CC
  5
2CE
331
AB
  5
AC
331
EA
  5
EB
331
121
  5
122
331
129
  5
12A
331
25E
  5
25F
331
B3
  5
B4
331
295
  5
296
331
29D
  5
29E
331
45
  5
46
331
4D
  5
4E
331
55
  5
56
331
5D
  5
5E
331
F2
  5
F3
331
131
  5
132
331
7C
  5
7D
331
BB
  5
BC
331
168
  5
169
331
170
  5
171
331
22F
  5
230
331
FA
  5
FB
331
139
  5
13A
331
266
  5
267
331
84
  5
85
331
C3
  5
C4
331
178
  5
179
331
237
  5
238
331
CB
  5
CC
331
102
  5
103
331
8C
  5
8D
331
141
  5
142
331
26E
  5
26F
331
276
  5
277
331
149
  5
14A
331
180
  5
181
331
94
  5
95
331
D3
  5
D4
331
10A
  5
10B
331
23F
  5
240
331
247
  5
248
331
27E
  5
27F
331
65
  5
66
331
6D
  5
6E
331
75
  5
76
331
3E
  5
3E
331
112
  5
113
331
151
  5
152
331
9C
  5
9D
331
DB
  5
DC
331
188
  5
189
331
24F
  5
250
331
286
  5
287
331
11A
  5
11B
331
159
  5
15A
331
A4
  5
A5
331
E3
  5
E4
331
208
  5
228
331
2CD
  5
44
331
257
  5
258
331
EB
  5
EC
331
122
  5
123
331
AC
  5
AD
331
161
  5
162
331
28E
  5
28F
331
296
  5
297
331
B4
  5
B5
331
12A
  5
12B
331
25F
  5
260
331
29E
  5
29F
331
46
  5
47
331
4E
  5
4F
331
56
  5
57
331
5E
  5
5F
331
169
  5
16A
331
228
  5
229
331
BC
  5
BD
331
F3
  5
F4
331
7D
  5
7E
331
132
  5
133
331
267
  5
268
331
13A
  5
13B
331
171
  5
172
331
85
  5
86
331
C4
  5
C5
331
FB
  5
FC
331
230
  5
231
331
238
  5
239
331
26F
  5
270
331
103
  5
104
331
142
  5
143
331
8D
  5
8E
331
CC
  5
CD
331
179
  5
17A
331
181
  5
182
331
240
  5
241
331
10B
  5
10C
331
14A
  5
14B
331
277
  5
278
331
95
  5
96
331
D4
  5
D5
331
27F
  5
280
331
66
  5
67
331
6E
  5
6F
331
76
  5
77
331
3F
  5
3F
331
189
  5
18A
331
248
  5
249
331
DC
  5
DD
331
113
  5
114
331
9D
  5
9E
331
152
  5
153
331
287
  5
288
331
15A
  5
15B
331
A5
  5
A6
331
E4
  5
E5
331
11B
  5
11C
331
250
  5
251
331
258
  5
259
331
123
  5
124
331
162
  5
163
331
28F
  5
290
331
AD
  5
AE
331
EC
  5
ED
331
2CE
  5
2CF
331
12B
  5
12C
331
B5
  5
B6
331
297
  5
298
331
29F
  5
2A0
331
47
  5
48
331
4F
  5
50
331
57
  5
58
331
5F
  5
60
331
229
  5
22A
331
260
  5
261
331
F4
  5
F5
331
133
  5
134
331
7E
  5
7F
331
BD
  5
BE
331
16A
  5
16B
331
172
  5
173
331
231
  5
232
331
C5
  5
C6
331
FC
  5
FD
331
86
  5
87
331
13B
  5
13C
331
268
  5
269
331
270
  5
271
331
17A
  5
17B
331
239
  5
23A
331
CD
  5
CE
331
104
  5
105
331
8E
  5
8F
331
143
  5
144
331
278
  5
279
331
14B
  5
14C
331
182
  5
183
331
96
  5
97
331
D5
  5
D6
331
10C
  5
10D
331
241
  5
242
331
67
  5
68
331
6F
  5
70
331
77
  5
78
331
249
  5
24A
331
280
  5
281
331
114
  5
115
331
153
  5
154
331
9E
  5
9F
331
DD
  5
DE
331
18A
  5
18B
331
251
  5
252
331
11C
  5
11D
331
15B
  5
15C
331
288
  5
289
331
A6
  5
A7
331
E5
  5
E6
331
2CF
  5
2CD
331
259
  5
25A
331
ED
  5
EE
331
124
  5
125
331
AE
  5
AF
331
163
  5
164
331
290
  5
291
331
298
  5
299
331
B6
  5
B7
331
12C
  5
12D
331
40
  5
40
331
48
  5
49
331
50
  5
51
331
58
  5
59
331
261
  5
262
331
2A0
  5
2A1
331
134
  5
135
331
16B
  5
16C
331
BE
  5
BF
331
F5
  5
F6
331
22A
  5
22B
331
7F
  5
80
331
269
  5
26A
331
13C
  5
13D
331
173
  5
174
331
87
  5
88
331
C6
  5
C7
331
FD
  5
FE
331
232
  5
233
331
23A
  5
23B
331
271
  5
272
331
105
  5
106
331
144
  5
145
331
8F
  5
90
331
CE
  5
CF
331
17B
  5
17C
331
183
  5
184
331
242
  5
243
331
D6
  5
D7
331
10D
  5
10E
331
97
  5
98
331
14C
  5
14D
331
279
  5
27A
331
60
  5
61
331
68
  5
69
331
70
  5
71
331
281
  5
282
331
18B
  5
18C
331
24A
  5
24B
331
DE
  5
DF
331
115
  5
116
331
9F
  5
A0
331
154
  5
155
331
289
  5
28A
331
15C
  5
15D
331
A7
  5
A8
331
E6
  5
E7
331
11D
  5
11E
331
252
  5
253
331
25A
  5
25B
331
125
  5
126
331
164
  5
165
331
291
  5
292
331
AF
  5
B0
331
EE
  5
EF
331
12D
  5
12E
331
B7
  5
B8
331
299
  5
29A
331
49
  5
4A
331
51
  5
52
331
59
  5
5A
331
78
  5
79
331
22B
  5
22C
331
262
  5
263
331
F6
  5
F7
331
135
  5
136
331
80
  5
81
331
BF
  5
C0
331
16C
  5
16D
331
2A1
  5
2CB
331
174
  5
175
331
233
  5
234
331
C7
  5
C8
331
FE
  5
FF
331
88
  5
89
331
13D
  5
13E
331
26A
  5
26B
331
272
  5
273
331
145
  5
146
331
17C
  5
17D
331
CF
  5
D0
331
106
  5
107
331
23B
  5
23C
331
90
  5
91
331
27A
  5
27B
331
14D
  5
14E
331
184
  5
185
331
D7
  5
D8
331
10E
  5
10F
331
243
  5
244
331
61
  5
62
331
69
  5
6A
331
71
  5
72
331
98
  5
99
331
24B
  5
24C
331
282
  5
283
331
116
  5
117
331
155
  5
156
331
A0
  5
A1
331
DF
  5
E0
331
18C
  5
18D
331
253
  5
254
331
E7
  5
E8
331
11E
  5
11F
331
A8
  5
A9
331
15D
  5
15E
331
28A
  5
28B
331
292
  5
293
331
25B
  5
25C
331
EF
  5
F0
331
126
  5
127
331
B0
  5
B1
331
165
  5
166
331
29A
  5
29B
331
12E
  5
12F
  0
LAYOUT
  5
E
102
{ACAD_REACTORS
330
F
102
}
330
F
100
AcDbPlotSettings
  1

  2
\\10.1.200.73\HP LaserJet M1005
  4
A4
  6

 40
4.519083023071289
 41
4.349743366241455
 42
4.561416625976562
 43
4.349761962890625
 44
210.0156707763672
 45
297.0106506347656
 46
55.24379606390717
 47
0.0
 48
0.0
 49
0.0
140
0.0
141
0.0
142
1.0
143
16.71874049572011
 70
 11956
 72
     1
 73
     1
 74
     1
  7
acad.ctb
 75
     0
147
0.0598131181147284
 76
     0
 77
     2
 78
   300
148
-10684.40043882581
149
2957.131382769171
100
AcDbLayout
  1
Model
 70
     1
 71
     0
 10
0.0
 20
0.0
 11
12.0
 21
9.0
 12
0.0
 22
0.0
 32
0.0
 14
0.0
 24
0.0
 34
0.0
 15
0.0
 25
0.0
 35
0.0
146
0.0
 13
0.0
 23
0.0
 33
0.0
 16
1.0
 26
0.0
 36
0.0
 17
0.0
 27
1.0
 37
0.0
 76
     0
330
2
331
24
1001
ACAD_PSEXT
1000
\\10.1.200.73\HP LaserJet M1005
1000
HP LaserJet M1005
1000
\\10.1.200.73
1000

1070
     0
  0
LAYOUT
  5
14
102
{ACAD_REACTORS
330
F
102
}
330
F
100
AcDbPlotSettings
  1

  2
C:\Documents and Settings\basas\Application Data\Autodesk\AutoCAD 2005\R16.1\enu\plotters\Default Windows System Printer.pc3
  4

  6

 40
0.0
 41
0.0
 42
0.0
 43
0.0
 44
0.0
 45
0.0
 46
0.0
 47
0.0
 48
0.0
 49
0.0
140
0.0
141
0.0
142
1.0
143
1.0
 70
   688
 72
     0
 73
     0
 74
     5
  7
acad.ctb
 75
    16
147
1.0
 76
     0
 77
     2
 78
   300
148
0.0
149
0.0
100
AcDbLayout
  1
布局1
 70
     1
 71
     1
 10
0.0
 20
0.0
 11
12.0
 21
9.0
 12
0.0
 22
0.0
 32
0.0
 14
0.0
 24
0.0
 34
0.0
 15
0.0
 25
0.0
 35
0.0
146
0.0
 13
0.0
 23
0.0
 33
0.0
 16
1.0
 26
0.0
 36
0.0
 17
0.0
 27
1.0
 37
0.0
 76
     0
330
11
  0
MATERIAL
  5
33
102
{ACAD_REACTORS
330
B
102
}
330
B
100
AcDbMaterial
  1
ByBlock
  2

  0
MATERIAL
  5
32
102
{ACAD_REACTORS
330
B
102
}
330
B
100
AcDbMaterial
  1
ByLayer
  2

  0
MATERIAL
  5
A
102
{ACAD_REACTORS
330
B
102
}
330
B
100
AcDbMaterial
  1
Global
  2

  0
MLEADERSTYLE
  5
2F4
102
{ACAD_REACTORS
330
2F3
102
}
330
2F3
100
AcDbMLeaderStyle
170
     2
171
     1
172
     0
 90
        2
 40
0.0
 41
0.0
173
     1
 91
-1056964608
340
1F
 92
       -2
290
     1
 42
0.09
291
     1
 43
8.0
  3
Standard
341
0
 44
0.18
300

342
1C
174
     1
178
     1
175
     1
176
     0
 93
-1056964608
 45
0.18
292
     0
297
     0
 46
0.18
343
0
 94
-1056964608
 47
1.0
 49
1.0
140
1.0
293
     1
141
0.0
294
     1
177
     0
142
1.0
295
     0
296
     0
143
3.75
1001
ACAD_MLEADERVER
1070
     2
  0
MLINESTYLE
  5
38
102
{ACAD_REACTORS
330
30
102
}
330
30
100
AcDbMlineStyle
  2
STANDARD
 70
     0
  3

 62
   256
 51
90.0
 52
90.0
 71
     2
 49
0.5
 62
   256
  6
BYLAYER
 49
-0.5
 62
   256
  6
BYLAYER
  0
ACDBPLACEHOLDER
  5
7
102
{ACAD_REACTORS
330
8
102
}
330
8
  0
SCALE
  5
2D2
102
{ACAD_REACTORS
330
2D1
102
}
330
2D1
100
AcDbScale
 70
     0
300
1:1
140
1.0
141
1.0
290
     1
  0
SCALE
  5
2D3
102
{ACAD_REACTORS
330
2D1
102
}
330
2D1
100
AcDbScale
 70
     0
300
1:2
140
1.0
141
2.0
290
     0
  0
SCALE
  5
2D4
102
{ACAD_REACTORS
330
2D1
102
}
330
2D1
100
AcDbScale
 70
     0
300
1:4
140
1.0
141
4.0
290
     0
  0
SCALE
  5
2D5
102
{ACAD_REACTORS
330
2D1
102
}
330
2D1
100
AcDbScale
 70
     0
300
1:5
140
1.0
141
5.0
290
     0
  0
SCALE
  5
2D6
102
{ACAD_REACTORS
330
2D1
102
}
330
2D1
100
AcDbScale
 70
     0
300
1:8
140
1.0
141
8.0
290
     0
  0
SCALE
  5
2D7
102
{ACAD_REACTORS
330
2D1
102
}
330
2D1
100
AcDbScale
 70
     0
300
1:10
140
1.0
141
10.0
290
     0
  0
SCALE
  5
2D8
102
{ACAD_REACTORS
330
2D1
102
}
330
2D1
100
AcDbScale
 70
     0
300
1:16
140
1.0
141
16.0
290
     0
  0
SCALE
  5
2D9
102
{ACAD_REACTORS
330
2D1
102
}
330
2D1
100
AcDbScale
 70
     0
300
1:20
140
1.0
141
20.0
290
     0
  0
SCALE
  5
2DA
102
{ACAD_REACTORS
330
2D1
102
}
330
2D1
100
AcDbScale
 70
     0
300
1:30
140
1.0
141
30.0
290
     0
  0
SCALE
  5
2DB
102
{ACAD_REACTORS
330
2D1
102
}
330
2D1
100
AcDbScale
 70
     0
300
1:40
140
1.0
141
40.0
290
     0
  0
SCALE
  5
2DC
102
{ACAD_REACTORS
330
2D1
102
}
330
2D1
100
AcDbScale
 70
     0
300
1:50
140
1.0
141
50.0
290
     0
  0
SCALE
  5
2DD
102
{ACAD_REACTORS
330
2D1
102
}
330
2D1
100
AcDbScale
 70
     0
300
1:100
140
1.0
141
100.0
290
     0
  0
SCALE
  5
2DE
102
{ACAD_REACTORS
330
2D1
102
}
330
2D1
100
AcDbScale
 70
     0
300
2:1
140
2.0
141
1.0
290
     0
  0
SCALE
  5
2DF
102
{ACAD_REACTORS
330
2D1
102
}
330
2D1
100
AcDbScale
 70
     0
300
4:1
140
4.0
141
1.0
290
     0
  0
SCALE
  5
2E0
102
{ACAD_REACTORS
330
2D1
102
}
330
2D1
100
AcDbScale
 70
     0
300
8:1
140
8.0
141
1.0
290
     0
  0
SCALE
  5
2E1
102
{ACAD_REACTORS
330
2D1
102
}
330
2D1
100
AcDbScale
 70
     0
300
10:1
140
10.0
141
1.0
290
     0
  0
SCALE
  5
2E2
102
{ACAD_REACTORS
330
2D1
102
}
330
2D1
100
AcDbScale
 70
     0
300
100:1
140
100.0
141
1.0
290
     0
  0
SCALE
  5
2E3
102
{ACAD_REACTORS
330
2D1
102
}
330
2D1
100
AcDbScale
 70
     0
300
1/128" = 1'-0"
140
0.0078125
141
12.0
290
     0
  0
SCALE
  5
2E4
102
{ACAD_REACTORS
330
2D1
102
}
330
2D1
100
AcDbScale
 70
     0
300
1/64" = 1'-0"
140
0.015625
141
12.0
290
     0
  0
SCALE
  5
2E5
102
{ACAD_REACTORS
330
2D1
102
}
330
2D1
100
AcDbScale
 70
     0
300
1/32" = 1'-0"
140
0.03125
141
12.0
290
     0
  0
SCALE
  5
2E6
102
{ACAD_REACTORS
330
2D1
102
}
330
2D1
100
AcDbScale
 70
     0
300
1/16" = 1'-0"
140
0.0625
141
12.0
290
     0
  0
SCALE
  5
2E7
102
{ACAD_REACTORS
330
2D1
102
}
330
2D1
100
AcDbScale
 70
     0
300
3/32" = 1'-0"
140
0.09375
141
12.0
290
     0
  0
SCALE
  5
2E8
102
{ACAD_REACTORS
330
2D1
102
}
330
2D1
100
AcDbScale
 70
     0
300
1/8" = 1'-0"
140
0.125
141
12.0
290
     0
  0
SCALE
  5
2E9
102
{ACAD_REACTORS
330
2D1
102
}
330
2D1
100
AcDbScale
 70
     0
300
3/16" = 1'-0"
140
0.1875
141
12.0
290
     0
  0
SCALE
  5
2EA
102
{ACAD_REACTORS
330
2D1
102
}
330
2D1
100
AcDbScale
 70
     0
300
1/4" = 1'-0"
140
0.25
141
12.0
290
     0
  0
SCALE
  5
2EB
102
{ACAD_REACTORS
330
2D1
102
}
330
2D1
100
AcDbScale
 70
     0
300
3/8" = 1'-0"
140
0.375
141
12.0
290
     0
  0
SCALE
  5
2EC
102
{ACAD_REACTORS
330
2D1
102
}
330
2D1
100
AcDbScale
 70
     0
300
1/2" = 1'-0"
140
0.5
141
12.0
290
     0
  0
SCALE
  5
2ED
102
{ACAD_REACTORS
330
2D1
102
}
330
2D1
100
AcDbScale
 70
     0
300
3/4" = 1'-0"
140
0.75
141
12.0
290
     0
  0
SCALE
  5
2EE
102
{ACAD_REACTORS
330
2D1
102
}
330
2D1
100
AcDbScale
 70
     0
300
1" = 1'-0"
140
1.0
141
12.0
290
     0
  0
SCALE
  5
2EF
102
{ACAD_REACTORS
330
2D1
102
}
330
2D1
100
AcDbScale
 70
     0
300
1-1/2" = 1'-0"
140
1.5
141
12.0
290
     0
  0
SCALE
  5
2F0
102
{ACAD_REACTORS
330
2D1
102
}
330
2D1
100
AcDbScale
 70
     0
300
3" = 1'-0"
140
3.0
141
12.0
290
     0
  0
SCALE
  5
2F1
102
{ACAD_REACTORS
330
2D1
102
}
330
2D1
100
AcDbScale
 70
     0
300
6" = 1'-0"
140
6.0
141
12.0
290
     0
  0
SCALE
  5
2F2
102
{ACAD_REACTORS
330
2D1
102
}
330
2D1
100
AcDbScale
 70
     0
300
1'-0" = 1'-0"
140
12.0
141
12.0
290
     0
  0
TABLESTYLE
  5
39
102
{ACAD_XDICTIONARY
360
300
102
}
102
{ACAD_REACTORS
330
35
102
}
330
35
100
AcDbTableStyle
  3
Standard
 70
     0
 71
     0
 40
1.5
 41
1.5
280
     0
281
     0
  7
Standard
140
4.5
170
     2
 62
     0
 63
   257
283
     0
274
    -2
284
     1
 64
     0
275
    -2
285
     1
 65
     0
276
    -2
286
     1
 66
     0
277
    -2
287
     1
 67
     0
278
    -2
288
     1
 68
     0
279
    -2
289
     1
 69
     0
  7
Standard
140
6.0
170
     5
 62
     0
 63
   257
283
     0
274
    -2
284
     1
 64
     0
275
    -2
285
     1
 65
     0
276
    -2
286
     1
 66
     0
277
    -2
287
     1
 67
     0
278
    -2
288
     1
 68
     0
279
    -2
289
     1
 69
     0
  7
Standard
140
4.5
170
     5
 62
     0
 63
   257
283
     0
274
    -2
284
     1
 64
     0
275
    -2
285
     1
 65
     0
276
    -2
286
     1
 66
     0
277
    -2
287
     1
 67
     0
278
    -2
288
     1
 68
     0
279
    -2
289
     1
 69
     0
  0
VISUALSTYLE
  5
25
102
{ACAD_XDICTIONARY
360
2FE
102
}
102
{ACAD_REACTORS
330
26
102
}
330
26
100
AcDbVisualStyle
  2
2dWireframe
 70
     4
 71
     0
 72
     2
 73
     1
 90
        0
 40
-0.6
 41
-30.0
 62
     5
 63
     7
421
 16777215
 74
     1
 91
        4
 64
     7
 65
   257
 75
     1
175
     1
 42
1.0
 92
        0
 66
   257
 43
1.0
 76
     1
 77
     6
 78
     2
 67
     7
 79
     5
170
     0
171
     0
290
     0
174
     0
 93
        1
 44
0.0
173
     0
291
     0
 45
0.0
1001
ACAD
1000
AcDbSavedByObjectVersion
1070
     0
  0
VISUALSTYLE
  5
213
102
{ACAD_XDICTIONARY
360
312
102
}
102
{ACAD_REACTORS
330
26
102
}
330
26
100
AcDbVisualStyle
  2
3D Hidden
 70
     6
 71
     1
 72
     2
 73
     2
 90
        0
 40
-0.6
 41
-30.0
 62
     5
 63
     7
421
 16777215
 74
     2
 91
        2
 64
     7
 65
   257
 75
     2
175
     1
 42
40.0
 92
        0
 66
   257
 43
1.0
 76
     1
 77
     6
 78
     2
 67
     7
 79
     3
170
     0
171
     0
290
     0
174
     0
 93
        1
 44
0.0
173
     0
291
     0
 45
0.0
1001
ACAD
1000
AcDbSavedByObjectVersion
1070
     0
  0
VISUALSTYLE
  5
3B
102
{ACAD_XDICTIONARY
360
306
102
}
102
{ACAD_REACTORS
330
26
102
}
330
26
100
AcDbVisualStyle
  2
3dWireframe
 70
     5
 71
     0
 72
     2
 73
     1
 90
        0
 40
-0.6
 41
-30.0
 62
     5
 63
     7
421
 16777215
 74
     1
 91
        4
 64
     7
 65
   257
 75
     1
175
     1
 42
1.0
 92
        0
 66
   257
 43
1.0
 76
     1
 77
     6
 78
     2
 67
     7
 79
     5
170
     0
171
     0
290
     0
174
     0
 93
        1
 44
0.0
173
     0
291
     0
 45
0.0
1001
ACAD
1000
AcDbSavedByObjectVersion
1070
     0
  0
VISUALSTYLE
  5
212
102
{ACAD_XDICTIONARY
360
310
102
}
102
{ACAD_REACTORS
330
26
102
}
330
26
100
AcDbVisualStyle
  2
Basic
 70
     7
 71
     1
 72
     0
 73
     1
 90
        0
 40
-0.6
 41
-30.0
 62
     5
 63
     7
421
 16777215
 74
     0
 91
        4
 64
     7
 65
   257
 75
     1
175
     1
 42
1.0
 92
        8
 66
     7
 43
1.0
 76
     1
 77
     6
 78
     2
 67
     7
 79
     5
170
     0
171
     0
290
     0
174
     0
 93
        1
 44
0.0
173
     0
291
     1
 45
0.0
1001
ACAD
1000
AcDbSavedByObjectVersion
1070
     0
  0
VISUALSTYLE
  5
216
102
{ACAD_XDICTIONARY
360
318
102
}
102
{ACAD_REACTORS
330
26
102
}
330
26
100
AcDbVisualStyle
  2
Brighten
 70
    12
 71
     2
 72
     2
 73
     0
 90
        0
 40
-0.6
 41
-30.0
 62
     5
 63
     7
421
 16777215
 74
     1
 91
        4
 64
     7
 65
   257
 75
     1
175
     1
 42
1.0
 92
        8
 66
     7
 43
1.0
 76
     1
 77
     6
 78
     2
 67
     7
 79
     5
170
     0
171
     0
290
     0
174
     0
 93
        1
 44
50.0
173
     0
291
     1
 45
0.0
1001
ACAD
1000
AcDbSavedByObjectVersion
1070
     0
  0
VISUALSTYLE
  5
21A
102
{ACAD_XDICTIONARY
360
320
102
}
102
{ACAD_REACTORS
330
26
102
}
330
26
100
AcDbVisualStyle
  2
ColorChange
 70
    16
 71
     2
 72
     2
 73
     3
 90
        0
 40
-0.6
 41
-30.0
 62
     5
 63
     8
421
  8421504
 74
     1
 91
        4
 64
     7
 65
   257
 75
     1
175
     1
 42
1.0
 92
        8
 66
     8
424
  8421504
 43
1.0
 76
     1
 77
     6
 78
     2
 67
     7
 79
     5
170
     0
171
     0
290
     0
174
     0
 93
        1
 44
0.0
173
     0
291
     1
 45
0.0
1001
ACAD
1000
AcDbSavedByObjectVersion
1070
     0
  0
VISUALSTYLE
  5
214
102
{ACAD_XDICTIONARY
360
314
102
}
102
{ACAD_REACTORS
330
26
102
}
330
26
100
AcDbVisualStyle
  2
Conceptual
 70
     9
 71
     3
 72
     2
 73
     0
 90
        0
 40
-0.6
 41
-30.0
 62
     5
 63
     7
421
 16777215
 74
     2
 91
        2
 64
     7
 65
   257
 75
     1
175
     1
 42
40.0
 92
        8
 66
     7
 43
1.0
 76
     1
 77
     6
 78
     2
 67
     7
 79
     3
170
     0
171
     0
290
     0
174
     0
 93
        1
 44
0.0
173
     0
291
     0
 45
0.0
1001
ACAD
1000
AcDbSavedByObjectVersion
1070
     0
  0
VISUALSTYLE
  5
215
102
{ACAD_XDICTIONARY
360
316
102
}
102
{ACAD_REACTORS
330
26
102
}
330
26
100
AcDbVisualStyle
  2
Dim
 70
    11
 71
     2
 72
     2
 73
     0
 90
        0
 40
-0.6
 41
-30.0
 62
     5
 63
     7
421
 16777215
 74
     1
 91
        4
 64
     7
 65
   257
 75
     1
175
     1
 42
1.0
 92
        8
 66
     7
 43
1.0
 76
     1
 77
     6
 78
     2
 67
     7
 79
     5
170
     0
171
     0
290
     0
174
     0
 93
        1
 44
-50.0
173
     0
291
     1
 45
0.0
1001
ACAD
1000
AcDbSavedByObjectVersion
1070
     0
  0
VISUALSTYLE
  5
219
102
{ACAD_XDICTIONARY
360
31E
102
}
102
{ACAD_REACTORS
330
26
102
}
330
26
100
AcDbVisualStyle
  2
Facepattern
 70
    15
 71
     2
 72
     2
 73
     0
 90
        0
 40
-0.6
 41
-30.0
 62
     5
 63
     7
421
 16777215
 74
     1
 91
        4
 64
     7
 65
   257
 75
     1
175
     1
 42
1.0
 92
        8
 66
     7
 43
1.0
 76
     1
 77
     6
 78
     2
 67
     7
 79
     5
170
     0
171
     0
290
     0
174
     0
 93
        1
 44
0.0
173
     0
291
     1
 45
0.0
1001
ACAD
1000
AcDbSavedByObjectVersion
1070
     0
  0
VISUALSTYLE
  5
20E
102
{ACAD_XDICTIONARY
360
308
102
}
102
{ACAD_REACTORS
330
26
102
}
330
26
100
AcDbVisualStyle
  2
Flat
 70
     0
 71
     2
 72
     1
 73
     1
 90
        2
 40
-0.6
 41
30.0
 62
     5
 63
     7
421
 16777215
 74
     0
 91
        4
 64
     7
 65
   257
 75
     1
175
     1
 42
1.0
 92
        8
 66
     7
 43
1.0
 76
     1
 77
     6
 78
     2
 67
     7
 79
     5
170
     0
171
     0
290
     0
174
     0
 93
       13
 44
0.0
173
     0
291
     1
 45
0.0
1001
ACAD
1000
AcDbSavedByObjectVersion
1070
     0
  0
VISUALSTYLE
  5
20F
102
{ACAD_XDICTIONARY
360
30A
102
}
102
{ACAD_REACTORS
330
26
102
}
330
26
100
AcDbVisualStyle
  2
FlatWithEdges
 70
     1
 71
     2
 72
     1
 73
     1
 90
        2
 40
-0.6
 41
30.0
 62
     5
 63
     7
421
 16777215
 74
     1
 91
        4
 64
     7
 65
   257
 75
     1
175
     1
 42
1.0
 92
        0
 66
   257
 43
1.0
 76
     1
 77
     6
 78
     2
 67
     7
 79
     5
170
     0
171
     0
290
     0
174
     0
 93
       13
 44
0.0
173
     0
291
     1
 45
0.0
1001
ACAD
1000
AcDbSavedByObjectVersion
1070
     0
  0
VISUALSTYLE
  5
210
102
{ACAD_XDICTIONARY
360
30C
102
}
102
{ACAD_REACTORS
330
26
102
}
330
26
100
AcDbVisualStyle
  2
Gouraud
 70
     2
 71
     2
 72
     2
 73
     1
 90
        2
 40
-0.6
 41
30.0
 62
     5
 63
     7
421
 16777215
 74
     0
 91
        4
 64
     7
 65
   257
 75
     1
175
     1
 42
1.0
 92
        0
 66
     7
 43
1.0
 76
     1
 77
     6
 78
     2
 67
     7
 79
     5
170
     0
171
     0
290
     0
174
     0
 93
       13
 44
0.0
173
     0
291
     1
 45
0.0
1001
ACAD
1000
AcDbSavedByObjectVersion
1070
     0
  0
VISUALSTYLE
  5
211
102
{ACAD_XDICTIONARY
360
30E
102
}
102
{ACAD_REACTORS
330
26
102
}
330
26
100
AcDbVisualStyle
  2
GouraudWithEdges
 70
     3
 71
     2
 72
     2
 73
     1
 90
        2
 40
-0.6
 41
30.0
 62
     5
 63
     7
421
 16777215
 74
     1
 91
        4
 64
     7
 65
   257
 75
     1
175
     1
 42
1.0
 92
        0
 66
   257
 43
1.0
 76
     1
 77
     6
 78
     2
 67
     7
 79
     5
170
     0
171
     0
290
     0
174
     0
 93
       13
 44
0.0
173
     0
291
     1
 45
0.0
1001
ACAD
1000
AcDbSavedByObjectVersion
1070
     0
  0
VISUALSTYLE
  5
218
102
{ACAD_XDICTIONARY
360
31C
102
}
102
{ACAD_REACTORS
330
26
102
}
330
26
100
AcDbVisualStyle
  2
Linepattern
 70
    14
 71
     2
 72
     2
 73
     0
 90
        0
 40
-0.6
 41
-30.0
 62
     5
 63
     7
421
 16777215
 74
     1
 91
        4
 64
     7
 65
   257
 75
     7
175
     7
 42
1.0
 92
        8
 66
     7
 43
1.0
 76
     1
 77
     6
 78
     2
 67
     7
 79
     5
170
     0
171
     0
290
     0
174
     0
 93
        1
 44
0.0
173
     0
291
     1
 45
0.0
1001
ACAD
1000
AcDbSavedByObjectVersion
1070
     0
  0
VISUALSTYLE
  5
3A
102
{ACAD_XDICTIONARY
360
304
102
}
102
{ACAD_REACTORS
330
26
102
}
330
26
100
AcDbVisualStyle
  2
Realistic
 70
     8
 71
     2
 72
     2
 73
     1
 90
        0
 40
-0.6
 41
-30.0
 62
     5
 63
     7
421
 16777215
 74
     1
 91
        0
 64
     7
 65
   257
 75
     1
175
     1
 42
1.0
 92
        8
 66
     8
424
  7895160
 43
1.0
 76
     1
 77
     6
 78
     2
 67
     7
 79
     5
170
     0
171
     0
290
     0
174
     0
 93
       13
 44
0.0
173
     0
291
     0
 45
0.0
1001
ACAD
1000
AcDbSavedByObjectVersion
1070
     0
  0
VISUALSTYLE
  5
217
102
{ACAD_XDICTIONARY
360
31A
102
}
102
{ACAD_REACTORS
330
26
102
}
330
26
100
AcDbVisualStyle
  2
Thicken
 70
    13
 71
     2
 72
     2
 73
     0
 90
        0
 40
-0.6
 41
-30.0
 62
     5
 63
     7
421
 16777215
 74
     1
 91
        4
 64
     7
 65
   257
 75
     1
175
     1
 42
1.0
 92
       12
 66
     7
 43
1.0
 76
     1
 77
     6
 78
     2
 67
     7
 79
     5
170
     0
171
     0
290
     0
174
     0
 93
        1
 44
0.0
173
     0
291
     1
 45
0.0
1001
ACAD
1000
AcDbSavedByObjectVersion
1070
     0
  0
DICTIONARYVAR
  5
2FB
102
{ACAD_REACTORS
330
20B
102
}
330
20B
100
DictionaryVariables
280
     0
  1
STANDARD
  0
DICTIONARYVAR
  5
20C
102
{ACAD_REACTORS
330
20B
102
}
330
20B
100
DictionaryVariables
280
     0
  1
STANDARD
  0
DICTIONARY
  5
300
330
39
100
AcDbDictionary
280
     1
281
     1
  3
ACAD_ROUNDTRIP_2008_TABLESTYLE_CELLSTYLEMAP
360
302
  3
ACAD_XREC_ROUNDTRIP
360
301
  0
DICTIONARY
  5
2FE
330
25
100
AcDbDictionary
280
     1
281
     1
  3
ACAD_XREC_ROUNDTRIP
360
2FF
  0
DICTIONARY
  5
312
330
213
100
AcDbDictionary
280
     1
281
     1
  3
ACAD_XREC_ROUNDTRIP
360
313
  0
DICTIONARY
  5
306
330
3B
100
AcDbDictionary
280
     1
281
     1
  3
ACAD_XREC_ROUNDTRIP
360
307
  0
DICTIONARY
  5
310
330
212
100
AcDbDictionary
280
     1
281
     1
  3
ACAD_XREC_ROUNDTRIP
360
311
  0
DICTIONARY
  5
318
330
216
100
AcDbDictionary
280
     1
281
     1
  3
ACAD_XREC_ROUNDTRIP
360
319
  0
DICTIONARY
  5
320
330
21A
100
AcDbDictionary
280
     1
281
     1
  3
ACAD_XREC_ROUNDTRIP
360
321
  0
DICTIONARY
  5
314
330
214
100
AcDbDictionary
280
     1
281
     1
  3
ACAD_XREC_ROUNDTRIP
360
315
  0
DICTIONARY
  5
316
330
215
100
AcDbDictionary
280
     1
281
     1
  3
ACAD_XREC_ROUNDTRIP
360
317
  0
DICTIONARY
  5
31E
330
219
100
AcDbDictionary
280
     1
281
     1
  3
ACAD_XREC_ROUNDTRIP
360
31F
  0
DICTIONARY
  5
308
330
20E
100
AcDbDictionary
280
     1
281
     1
  3
ACAD_XREC_ROUNDTRIP
360
309
  0
DICTIONARY
  5
30A
330
20F
100
AcDbDictionary
280
     1
281
     1
  3
ACAD_XREC_ROUNDTRIP
360
30B
  0
DICTIONARY
  5
30C
330
210
100
AcDbDictionary
280
     1
281
     1
  3
ACAD_XREC_ROUNDTRIP
360
30D
  0
DICTIONARY
  5
30E
330
211
100
AcDbDictionary
280
     1
281
     1
  3
ACAD_XREC_ROUNDTRIP
360
30F
  0
DICTIONARY
  5
31C
330
218
100
AcDbDictionary
280
     1
281
     1
  3
ACAD_XREC_ROUNDTRIP
360
31D
  0
DICTIONARY
  5
304
330
3A
100
AcDbDictionary
280
     1
281
     1
  3
ACAD_XREC_ROUNDTRIP
360
305
  0
DICTIONARY
  5
31A
330
217
100
AcDbDictionary
280
     1
281
     1
  3
ACAD_XREC_ROUNDTRIP
360
31B
  0
CELLSTYLEMAP
  5
302
102
{ACAD_REACTORS
330
300
102
}
330
300
100
AcDbCellStyleMap
 90
        3
300
CELLSTYLE
  1
TABLEFORMAT_BEGIN
 90
        5
170
     1
 91
        0
 92
        0
 62
   257
 93
        1
300
CONTENTFORMAT
  1
CONTENTFORMAT_BEGIN
 90
        0
 91
        0
 92
      512
 93
        0
300

 40
0.0
140
1.0
 94
        5
 62
     0
340
1C
144
6.0
309
CONTENTFORMAT_END
171
     1
301
MARGIN
  1
CELLMARGIN_BEGIN
 40
1.5
 40
1.5
 40
1.5
 40
1.5
 40
4.5
 40
4.5
309
CELLMARGIN_END
 94
        6
 95
        1
302
GRIDFORMAT
  1
GRIDFORMAT_BEGIN
 90
        0
 91
        1
 62
     0
 92
       -2
340
0
 93
        0
 40
0.045
309
GRIDFORMAT_END
 95
        2
302
GRIDFORMAT
  1
GRIDFORMAT_BEGIN
 90
        0
 91
        1
 62
     0
 92
       -2
340
0
 93
        0
 40
0.045
309
GRIDFORMAT_END
 95
        4
302
GRIDFORMAT
  1
GRIDFORMAT_BEGIN
 90
        0
 91
        1
 62
     0
 92
       -2
340
0
 93
        0
 40
0.045
309
GRIDFORMAT_END
 95
        8
302
GRIDFORMAT
  1
GRIDFORMAT_BEGIN
 90
        0
 91
        1
 62
     0
 92
       -2
340
0
 93
        0
 40
0.045
309
GRIDFORMAT_END
 95
       16
302
GRIDFORMAT
  1
GRIDFORMAT_BEGIN
 90
        0
 91
        1
 62
     0
 92
       -2
340
0
 93
        0
 40
0.045
309
GRIDFORMAT_END
 95
       32
302
GRIDFORMAT
  1
GRIDFORMAT_BEGIN
 90
        0
 91
        1
 62
     0
 92
       -2
340
0
 93
        0
 40
0.045
309
GRIDFORMAT_END
309
TABLEFORMAT_END
  1
CELLSTYLE_BEGIN
 90
        1
 91
        1
300
_TITLE
309
CELLSTYLE_END
300
CELLSTYLE
  1
TABLEFORMAT_BEGIN
 90
        5
170
     1
 91
        0
 92
        0
 62
   257
 93
        1
300
CONTENTFORMAT
  1
CONTENTFORMAT_BEGIN
 90
        0
 91
        0
 92
      512
 93
        0
300

 40
0.0
140
1.0
 94
        5
 62
     0
340
1C
144
4.5
309
CONTENTFORMAT_END
171
     1
301
MARGIN
  1
CELLMARGIN_BEGIN
 40
1.5
 40
1.5
 40
1.5
 40
1.5
 40
4.5
 40
4.5
309
CELLMARGIN_END
 94
        6
 95
        1
302
GRIDFORMAT
  1
GRIDFORMAT_BEGIN
 90
        0
 91
        1
 62
     0
 92
       -2
340
0
 93
        0
 40
0.045
309
GRIDFORMAT_END
 95
        2
302
GRIDFORMAT
  1
GRIDFORMAT_BEGIN
 90
        0
 91
        1
 62
     0
 92
       -2
340
0
 93
        0
 40
0.045
309
GRIDFORMAT_END
 95
        4
302
GRIDFORMAT
  1
GRIDFORMAT_BEGIN
 90
        0
 91
        1
 62
     0
 92
       -2
340
0
 93
        0
 40
0.045
309
GRIDFORMAT_END
 95
        8
302
GRIDFORMAT
  1
GRIDFORMAT_BEGIN
 90
        0
 91
        1
 62
     0
 92
       -2
340
0
 93
        0
 40
0.045
309
GRIDFORMAT_END
 95
       16
302
GRIDFORMAT
  1
GRIDFORMAT_BEGIN
 90
        0
 91
        1
 62
     0
 92
       -2
340
0
 93
        0
 40
0.045
309
GRIDFORMAT_END
 95
       32
302
GRIDFORMAT
  1
GRIDFORMAT_BEGIN
 90
        0
 91
        1
 62
     0
 92
       -2
340
0
 93
        0
 40
0.045
309
GRIDFORMAT_END
309
TABLEFORMAT_END
  1
CELLSTYLE_BEGIN
 90
        2
 91
        1
300
_HEADER
309
CELLSTYLE_END
300
CELLSTYLE
  1
TABLEFORMAT_BEGIN
 90
        5
170
     1
 91
        0
 92
        0
 62
   257
 93
        1
300
CONTENTFORMAT
  1
CONTENTFORMAT_BEGIN
 90
        0
 91
        0
 92
      512
 93
        0
300

 40
0.0
140
1.0
 94
        2
 62
     0
340
1C
144
4.5
309
CONTENTFORMAT_END
171
     1
301
MARGIN
  1
CELLMARGIN_BEGIN
 40
1.5
 40
1.5
 40
1.5
 40
1.5
 40
4.5
 40
4.5
309
CELLMARGIN_END
 94
        6
 95
        1
302
GRIDFORMAT
  1
GRIDFORMAT_BEGIN
 90
        0
 91
        1
 62
     0
 92
       -2
340
0
 93
        0
 40
0.045
309
GRIDFORMAT_END
 95
        2
302
GRIDFORMAT
  1
GRIDFORMAT_BEGIN
 90
        0
 91
        1
 62
     0
 92
       -2
340
0
 93
        0
 40
0.045
309
GRIDFORMAT_END
 95
        4
302
GRIDFORMAT
  1
GRIDFORMAT_BEGIN
 90
        0
 91
        1
 62
     0
 92
       -2
340
0
 93
        0
 40
0.045
309
GRIDFORMAT_END
 95
        8
302
GRIDFORMAT
  1
GRIDFORMAT_BEGIN
 90
        0
 91
        1
 62
     0
 92
       -2
340
0
 93
        0
 40
0.045
309
GRIDFORMAT_END
 95
       16
302
GRIDFORMAT
  1
GRIDFORMAT_BEGIN
 90
        0
 91
        1
 62
     0
 92
       -2
340
0
 93
        0
 40
0.045
309
GRIDFORMAT_END
 95
       32
302
GRIDFORMAT
  1
GRIDFORMAT_BEGIN
 90
        0
 91
        1
 62
     0
 92
       -2
340
0
 93
        0
 40
0.045
309
GRIDFORMAT_END
309
TABLEFORMAT_END
  1
CELLSTYLE_BEGIN
 90
        3
 91
        2
300
_DATA
309
CELLSTYLE_END
  0
XRECORD
  5
301
102
{ACAD_REACTORS
330
300
102
}
330
300
100
AcDbXrecord
280
     1
102
ACAD_ROUNDTRIP_PRE2007_TABLESTYLE
 90
      512
 91
        0
  1

 92
      512
 93
        0
  2

 94
      512
 95
        0
  3

  0
XRECORD
  5
2FF
102
{ACAD_REACTORS
330
2FE
102
}
330
2FE
100
AcDbXrecord
280
     1
102
RTVSPropertyOp0
 70
     1
102
RTVSPropertyOp1
 70
     1
102
RTVSPropertyOp2
 70
     1
102
RTVSPropertyOp3
 70
     1
102
RTVSPropertyOp4
 70
     1
102
RTVSPropertyOp5
 70
     1
102
RTVSPropertyOp6
 70
     1
102
RTVSPropertyOp7
 70
     1
102
RTVSPropertyOp8
 70
     1
102
RTVSPropertyOp9
 70
     1
102
RTVSPropertyOp10
 70
     1
102
RTVSPropertyOp11
 70
     1
102
RTVSPropertyOp12
 70
     1
102
RTVSPropertyOp13
 70
     1
102
RTVSPropertyOp14
 70
     1
102
RTVSPropertyOp15
 70
     1
102
RTVSPropertyOp16
 70
     1
102
RTVSPropertyOp17
 70
     1
102
RTVSPropertyOp18
 70
     1
102
RTVSPropertyOp19
 70
     1
102
RTVSPropertyOp20
 70
     1
102
RTVSPropertyOp21
 70
     1
102
RTVSPropertyOp22
 70
     1
102
RTVSPropertyOp23
 70
     1
102
RTVSPropertyOp24
 70
     1
102
RTVSPropertyOp25
 70
     1
102
RTVSPropertyOp26
 70
     1
102
RTVSPropertyOp27
 70
     1
  0
XRECORD
  5
313
102
{ACAD_REACTORS
330
312
102
}
330
312
100
AcDbXrecord
280
     1
102
RTVSPropertyOp0
 70
     1
102
RTVSPropertyOp1
 70
     1
102
RTVSPropertyOp2
 70
     1
102
RTVSPropertyOp3
 70
     1
102
RTVSPropertyOp4
 70
     1
102
RTVSPropertyOp5
 70
     1
102
RTVSPropertyOp6
 70
     1
102
RTVSPropertyOp7
 70
     1
102
RTVSPropertyOp8
 70
     1
102
RTVSPropertyOp9
 70
     1
102
RTVSPropertyOp10
 70
     1
102
RTVSPropertyOp11
 70
     1
102
RTVSPropertyOp12
 70
     1
102
RTVSPropertyOp13
 70
     1
102
RTVSPropertyOp14
 70
     1
102
RTVSPropertyOp15
 70
     1
102
RTVSPropertyOp16
 70
     1
102
RTVSPropertyOp17
 70
     1
102
RTVSPropertyOp18
 70
     1
102
RTVSPropertyOp19
 70
     1
102
RTVSPropertyOp20
 70
     1
102
RTVSPropertyOp21
 70
     1
102
RTVSPropertyOp22
 70
     1
102
RTVSPropertyOp23
 70
     1
102
RTVSPropertyOp24
 70
     1
102
RTVSPropertyOp25
 70
     1
102
RTVSPropertyOp26
 70
     1
102
RTVSPropertyOp27
 70
     1
  0
XRECORD
  5
307
102
{ACAD_REACTORS
330
306
102
}
330
306
100
AcDbXrecord
280
     1
102
RTVSPropertyOp0
 70
     1
102
RTVSPropertyOp1
 70
     1
102
RTVSPropertyOp2
 70
     1
102
RTVSPropertyOp3
 70
     1
102
RTVSPropertyOp4
 70
     1
102
RTVSPropertyOp5
 70
     1
102
RTVSPropertyOp6
 70
     1
102
RTVSPropertyOp7
 70
     1
102
RTVSPropertyOp8
 70
     1
102
RTVSPropertyOp9
 70
     1
102
RTVSPropertyOp10
 70
     1
102
RTVSPropertyOp11
 70
     1
102
RTVSPropertyOp12
 70
     1
102
RTVSPropertyOp13
 70
     1
102
RTVSPropertyOp14
 70
     1
102
RTVSPropertyOp15
 70
     1
102
RTVSPropertyOp16
 70
     1
102
RTVSPropertyOp17
 70
     1
102
RTVSPropertyOp18
 70
     1
102
RTVSPropertyOp19
 70
     1
102
RTVSPropertyOp20
 70
     1
102
RTVSPropertyOp21
 70
     1
102
RTVSPropertyOp22
 70
     1
102
RTVSPropertyOp23
 70
     1
102
RTVSPropertyOp24
 70
     1
102
RTVSPropertyOp25
 70
     1
102
RTVSPropertyOp26
 70
     1
102
RTVSPropertyOp27
 70
     1
  0
XRECORD
  5
311
102
{ACAD_REACTORS
330
310
102
}
330
310
100
AcDbXrecord
280
     1
102
RTVSPropertyOp0
 70
     1
102
RTVSPropertyOp1
 70
     1
102
RTVSPropertyOp2
 70
     1
102
RTVSPropertyOp3
 70
     1
102
RTVSPropertyOp4
 70
     1
102
RTVSPropertyOp5
 70
     1
102
RTVSPropertyOp6
 70
     1
102
RTVSPropertyOp7
 70
     1
102
RTVSPropertyOp8
 70
     1
102
RTVSPropertyOp9
 70
     1
102
RTVSPropertyOp10
 70
     1
102
RTVSPropertyOp11
 70
     1
102
RTVSPropertyOp12
 70
     1
102
RTVSPropertyOp13
 70
     1
102
RTVSPropertyOp14
 70
     1
102
RTVSPropertyOp15
 70
     1
102
RTVSPropertyOp16
 70
     1
102
RTVSPropertyOp17
 70
     1
102
RTVSPropertyOp18
 70
     1
102
RTVSPropertyOp19
 70
     1
102
RTVSPropertyOp20
 70
     1
102
RTVSPropertyOp21
 70
     1
102
RTVSPropertyOp22
 70
     1
102
RTVSPropertyOp23
 70
     1
102
RTVSPropertyOp24
 70
     1
102
RTVSPropertyOp25
 70
     1
102
RTVSPropertyOp26
 70
     1
102
RTVSPropertyOp27
 70
     1
  0
XRECORD
  5
319
102
{ACAD_REACTORS
330
318
102
}
330
318
100
AcDbXrecord
280
     1
102
RTVSPropertyOp0
 70
     1
102
RTVSPropertyOp1
 70
     1
102
RTVSPropertyOp2
 70
     1
102
RTVSPropertyOp3
 70
     1
102
RTVSPropertyOp4
 70
     1
102
RTVSPropertyOp5
 70
     1
102
RTVSPropertyOp6
 70
     1
102
RTVSPropertyOp7
 70
     1
102
RTVSPropertyOp8
 70
     1
102
RTVSPropertyOp9
 70
     1
102
RTVSPropertyOp10
 70
     1
102
RTVSPropertyOp11
 70
     1
102
RTVSPropertyOp12
 70
     1
102
RTVSPropertyOp13
 70
     1
102
RTVSPropertyOp14
 70
     1
102
RTVSPropertyOp15
 70
     1
102
RTVSPropertyOp16
 70
     1
102
RTVSPropertyOp17
 70
     1
102
RTVSPropertyOp18
 70
     1
102
RTVSPropertyOp19
 70
     1
102
RTVSPropertyOp20
 70
     1
102
RTVSPropertyOp21
 70
     1
102
RTVSPropertyOp22
 70
     1
102
RTVSPropertyOp23
 70
     1
102
RTVSPropertyOp24
 70
     1
102
RTVSPropertyOp25
 70
     1
102
RTVSPropertyOp26
 70
     1
102
RTVSPropertyOp27
 70
     1
  0
XRECORD
  5
321
102
{ACAD_REACTORS
330
320
102
}
330
320
100
AcDbXrecord
280
     1
102
RTVSPropertyOp0
 70
     1
102
RTVSPropertyOp1
 70
     1
102
RTVSPropertyOp2
 70
     1
102
RTVSPropertyOp3
 70
     1
102
RTVSPropertyOp4
 70
     1
102
RTVSPropertyOp5
 70
     1
102
RTVSPropertyOp6
 70
     1
102
RTVSPropertyOp7
 70
     1
102
RTVSPropertyOp8
 70
     1
102
RTVSPropertyOp9
 70
     1
102
RTVSPropertyOp10
 70
     1
102
RTVSPropertyOp11
 70
     1
102
RTVSPropertyOp12
 70
     1
102
RTVSPropertyOp13
 70
     1
102
RTVSPropertyOp14
 70
     1
102
RTVSPropertyOp15
 70
     1
102
RTVSPropertyOp16
 70
     1
102
RTVSPropertyOp17
 70
     1
102
RTVSPropertyOp18
 70
     1
102
RTVSPropertyOp19
 70
     1
102
RTVSPropertyOp20
 70
     1
102
RTVSPropertyOp21
 70
     1
102
RTVSPropertyOp22
 70
     1
102
RTVSPropertyOp23
 70
     1
102
RTVSPropertyOp24
 70
     1
102
RTVSPropertyOp25
 70
     1
102
RTVSPropertyOp26
 70
     1
102
RTVSPropertyOp27
 70
     1
  0
XRECORD
  5
315
102
{ACAD_REACTORS
330
314
102
}
330
314
100
AcDbXrecord
280
     1
102
RTVSPropertyOp0
 70
     1
102
RTVSPropertyOp1
 70
     1
102
RTVSPropertyOp2
 70
     1
102
RTVSPropertyOp3
 70
     1
102
RTVSPropertyOp4
 70
     1
102
RTVSPropertyOp5
 70
     1
102
RTVSPropertyOp6
 70
     1
102
RTVSPropertyOp7
 70
     1
102
RTVSPropertyOp8
 70
     1
102
RTVSPropertyOp9
 70
     1
102
RTVSPropertyOp10
 70
     1
102
RTVSPropertyOp11
 70
     1
102
RTVSPropertyOp12
 70
     1
102
RTVSPropertyOp13
 70
     1
102
RTVSPropertyOp14
 70
     1
102
RTVSPropertyOp15
 70
     1
102
RTVSPropertyOp16
 70
     1
102
RTVSPropertyOp17
 70
     1
102
RTVSPropertyOp18
 70
     1
102
RTVSPropertyOp19
 70
     1
102
RTVSPropertyOp20
 70
     1
102
RTVSPropertyOp21
 70
     1
102
RTVSPropertyOp22
 70
     1
102
RTVSPropertyOp23
 70
     1
102
RTVSPropertyOp24
 70
     1
102
RTVSPropertyOp25
 70
     1
102
RTVSPropertyOp26
 70
     1
102
RTVSPropertyOp27
 70
     1
  0
XRECORD
  5
317
102
{ACAD_REACTORS
330
316
102
}
330
316
100
AcDbXrecord
280
     1
102
RTVSPropertyOp0
 70
     1
102
RTVSPropertyOp1
 70
     1
102
RTVSPropertyOp2
 70
     1
102
RTVSPropertyOp3
 70
     1
102
RTVSPropertyOp4
 70
     1
102
RTVSPropertyOp5
 70
     1
102
RTVSPropertyOp6
 70
     1
102
RTVSPropertyOp7
 70
     1
102
RTVSPropertyOp8
 70
     1
102
RTVSPropertyOp9
 70
     1
102
RTVSPropertyOp10
 70
     1
102
RTVSPropertyOp11
 70
     1
102
RTVSPropertyOp12
 70
     1
102
RTVSPropertyOp13
 70
     1
102
RTVSPropertyOp14
 70
     1
102
RTVSPropertyOp15
 70
     1
102
RTVSPropertyOp16
 70
     1
102
RTVSPropertyOp17
 70
     1
102
RTVSPropertyOp18
 70
     1
102
RTVSPropertyOp19
 70
     1
102
RTVSPropertyOp20
 70
     1
102
RTVSPropertyOp21
 70
     1
102
RTVSPropertyOp22
 70
     1
102
RTVSPropertyOp23
 70
     1
102
RTVSPropertyOp24
 70
     1
102
RTVSPropertyOp25
 70
     1
102
RTVSPropertyOp26
 70
     1
102
RTVSPropertyOp27
 70
     1
  0
XRECORD
  5
31F
102
{ACAD_REACTORS
330
31E
102
}
330
31E
100
AcDbXrecord
280
     1
102
RTVSPropertyOp0
 70
     1
102
RTVSPropertyOp1
 70
     1
102
RTVSPropertyOp2
 70
     1
102
RTVSPropertyOp3
 70
     1
102
RTVSPropertyOp4
 70
     1
102
RTVSPropertyOp5
 70
     1
102
RTVSPropertyOp6
 70
     1
102
RTVSPropertyOp7
 70
     1
102
RTVSPropertyOp8
 70
     1
102
RTVSPropertyOp9
 70
     1
102
RTVSPropertyOp10
 70
     1
102
RTVSPropertyOp11
 70
     1
102
RTVSPropertyOp12
 70
     1
102
RTVSPropertyOp13
 70
     1
102
RTVSPropertyOp14
 70
     1
102
RTVSPropertyOp15
 70
     1
102
RTVSPropertyOp16
 70
     1
102
RTVSPropertyOp17
 70
     1
102
RTVSPropertyOp18
 70
     1
102
RTVSPropertyOp19
 70
     1
102
RTVSPropertyOp20
 70
     1
102
RTVSPropertyOp21
 70
     1
102
RTVSPropertyOp22
 70
     1
102
RTVSPropertyOp23
 70
     1
102
RTVSPropertyOp24
 70
     1
102
RTVSPropertyOp25
 70
     1
102
RTVSPropertyOp26
 70
     1
102
RTVSPropertyOp27
 70
     1
  0
XRECORD
  5
309
102
{ACAD_REACTORS
330
308
102
}
330
308
100
AcDbXrecord
280
     1
102
RTVSPropertyOp0
 70
     1
102
RTVSPropertyOp1
 70
     1
102
RTVSPropertyOp2
 70
     1
102
RTVSPropertyOp3
 70
     1
102
RTVSPropertyOp4
 70
     1
102
RTVSPropertyOp5
 70
     1
102
RTVSPropertyOp6
 70
     1
102
RTVSPropertyOp7
 70
     1
102
RTVSPropertyOp8
 70
     1
102
RTVSPropertyOp9
 70
     1
102
RTVSPropertyOp10
 70
     1
102
RTVSPropertyOp11
 70
     1
102
RTVSPropertyOp12
 70
     1
102
RTVSPropertyOp13
 70
     1
102
RTVSPropertyOp14
 70
     1
102
RTVSPropertyOp15
 70
     1
102
RTVSPropertyOp16
 70
     1
102
RTVSPropertyOp17
 70
     1
102
RTVSPropertyOp18
 70
     1
102
RTVSPropertyOp19
 70
     1
102
RTVSPropertyOp20
 70
     1
102
RTVSPropertyOp21
 70
     1
102
RTVSPropertyOp22
 70
     1
102
RTVSPropertyOp23
 70
     1
102
RTVSPropertyOp24
 70
     1
102
RTVSPropertyOp25
 70
     1
102
RTVSPropertyOp26
 70
     1
102
RTVSPropertyOp27
 70
     1
  0
XRECORD
  5
30B
102
{ACAD_REACTORS
330
30A
102
}
330
30A
100
AcDbXrecord
280
     1
102
RTVSPropertyOp0
 70
     1
102
RTVSPropertyOp1
 70
     1
102
RTVSPropertyOp2
 70
     1
102
RTVSPropertyOp3
 70
     1
102
RTVSPropertyOp4
 70
     1
102
RTVSPropertyOp5
 70
     1
102
RTVSPropertyOp6
 70
     1
102
RTVSPropertyOp7
 70
     1
102
RTVSPropertyOp8
 70
     1
102
RTVSPropertyOp9
 70
     1
102
RTVSPropertyOp10
 70
     1
102
RTVSPropertyOp11
 70
     1
102
RTVSPropertyOp12
 70
     1
102
RTVSPropertyOp13
 70
     1
102
RTVSPropertyOp14
 70
     1
102
RTVSPropertyOp15
 70
     1
102
RTVSPropertyOp16
 70
     1
102
RTVSPropertyOp17
 70
     1
102
RTVSPropertyOp18
 70
     1
102
RTVSPropertyOp19
 70
     1
102
RTVSPropertyOp20
 70
     1
102
RTVSPropertyOp21
 70
     1
102
RTVSPropertyOp22
 70
     1
102
RTVSPropertyOp23
 70
     1
102
RTVSPropertyOp24
 70
     1
102
RTVSPropertyOp25
 70
     1
102
RTVSPropertyOp26
 70
     1
102
RTVSPropertyOp27
 70
     1
  0
XRECORD
  5
30D
102
{ACAD_REACTORS
330
30C
102
}
330
30C
100
AcDbXrecord
280
     1
102
RTVSPropertyOp0
 70
     1
102
RTVSPropertyOp1
 70
     1
102
RTVSPropertyOp2
 70
     1
102
RTVSPropertyOp3
 70
     1
102
RTVSPropertyOp4
 70
     1
102
RTVSPropertyOp5
 70
     1
102
RTVSPropertyOp6
 70
     1
102
RTVSPropertyOp7
 70
     1
102
RTVSPropertyOp8
 70
     1
102
RTVSPropertyOp9
 70
     1
102
RTVSPropertyOp10
 70
     1
102
RTVSPropertyOp11
 70
     1
102
RTVSPropertyOp12
 70
     1
102
RTVSPropertyOp13
 70
     1
102
RTVSPropertyOp14
 70
     1
102
RTVSPropertyOp15
 70
     1
102
RTVSPropertyOp16
 70
     1
102
RTVSPropertyOp17
 70
     1
102
RTVSPropertyOp18
 70
     1
102
RTVSPropertyOp19
 70
     1
102
RTVSPropertyOp20
 70
     1
102
RTVSPropertyOp21
 70
     1
102
RTVSPropertyOp22
 70
     1
102
RTVSPropertyOp23
 70
     1
102
RTVSPropertyOp24
 70
     1
102
RTVSPropertyOp25
 70
     1
102
RTVSPropertyOp26
 70
     1
102
RTVSPropertyOp27
 70
     1
  0
XRECORD
  5
30F
102
{ACAD_REACTORS
330
30E
102
}
330
30E
100
AcDbXrecord
280
     1
102
RTVSPropertyOp0
 70
     1
102
RTVSPropertyOp1
 70
     1
102
RTVSPropertyOp2
 70
     1
102
RTVSPropertyOp3
 70
     1
102
RTVSPropertyOp4
 70
     1
102
RTVSPropertyOp5
 70
     1
102
RTVSPropertyOp6
 70
     1
102
RTVSPropertyOp7
 70
     1
102
RTVSPropertyOp8
 70
     1
102
RTVSPropertyOp9
 70
     1
102
RTVSPropertyOp10
 70
     1
102
RTVSPropertyOp11
 70
     1
102
RTVSPropertyOp12
 70
     1
102
RTVSPropertyOp13
 70
     1
102
RTVSPropertyOp14
 70
     1
102
RTVSPropertyOp15
 70
     1
102
RTVSPropertyOp16
 70
     1
102
RTVSPropertyOp17
 70
     1
102
RTVSPropertyOp18
 70
     1
102
RTVSPropertyOp19
 70
     1
102
RTVSPropertyOp20
 70
     1
102
RTVSPropertyOp21
 70
     1
102
RTVSPropertyOp22
 70
     1
102
RTVSPropertyOp23
 70
     1
102
RTVSPropertyOp24
 70
     1
102
RTVSPropertyOp25
 70
     1
102
RTVSPropertyOp26
 70
     1
102
RTVSPropertyOp27
 70
     1
  0
XRECORD
  5
31D
102
{ACAD_REACTORS
330
31C
102
}
330
31C
100
AcDbXrecord
280
     1
102
RTVSPropertyOp0
 70
     1
102
RTVSPropertyOp1
 70
     1
102
RTVSPropertyOp2
 70
     1
102
RTVSPropertyOp3
 70
     1
102
RTVSPropertyOp4
 70
     1
102
RTVSPropertyOp5
 70
     1
102
RTVSPropertyOp6
 70
     1
102
RTVSPropertyOp7
 70
     1
102
RTVSPropertyOp8
 70
     1
102
RTVSPropertyOp9
 70
     1
102
RTVSPropertyOp10
 70
     1
102
RTVSPropertyOp11
 70
     1
102
RTVSPropertyOp12
 70
     1
102
RTVSPropertyOp13
 70
     1
102
RTVSPropertyOp14
 70
     1
102
RTVSPropertyOp15
 70
     1
102
RTVSPropertyOp16
 70
     1
102
RTVSPropertyOp17
 70
     1
102
RTVSPropertyOp18
 70
     1
102
RTVSPropertyOp19
 70
     1
102
RTVSPropertyOp20
 70
     1
102
RTVSPropertyOp21
 70
     1
102
RTVSPropertyOp22
 70
     1
102
RTVSPropertyOp23
 70
     1
102
RTVSPropertyOp24
 70
     1
102
RTVSPropertyOp25
 70
     1
102
RTVSPropertyOp26
 70
     1
102
RTVSPropertyOp27
 70
     1
  0
XRECORD
  5
305
102
{ACAD_REACTORS
330
304
102
}
330
304
100
AcDbXrecord
280
     1
102
RTVSPropertyOp0
 70
     1
102
RTVSPropertyOp1
 70
     1
102
RTVSPropertyOp2
 70
     1
102
RTVSPropertyOp3
 70
     1
102
RTVSPropertyOp4
 70
     1
102
RTVSPropertyOp5
 70
     1
102
RTVSPropertyOp6
 70
     1
102
RTVSPropertyOp7
 70
     1
102
RTVSPropertyOp8
 70
     1
102
RTVSPropertyOp9
 70
     1
102
RTVSPropertyOp10
 70
     1
102
RTVSPropertyOp11
 70
     1
102
RTVSPropertyOp12
 70
     1
102
RTVSPropertyOp13
 70
     1
102
RTVSPropertyOp14
 70
     1
102
RTVSPropertyOp15
 70
     1
102
RTVSPropertyOp16
 70
     1
102
RTVSPropertyOp17
 70
     1
102
RTVSPropertyOp18
 70
     1
102
RTVSPropertyOp19
 70
     1
102
RTVSPropertyOp20
 70
     1
102
RTVSPropertyOp21
 70
     1
102
RTVSPropertyOp22
 70
     1
102
RTVSPropertyOp23
 70
     1
102
RTVSPropertyOp24
 70
     1
102
RTVSPropertyOp25
 70
     1
102
RTVSPropertyOp26
 70
     1
102
RTVSPropertyOp27
 70
     1
  0
XRECORD
  5
31B
102
{ACAD_REACTORS
330
31A
102
}
330
31A
100
AcDbXrecord
280
     1
102
RTVSPropertyOp0
 70
     1
102
RTVSPropertyOp1
 70
     1
102
RTVSPropertyOp2
 70
     1
102
RTVSPropertyOp3
 70
     1
102
RTVSPropertyOp4
 70
     1
102
RTVSPropertyOp5
 70
     1
102
RTVSPropertyOp6
 70
     1
102
RTVSPropertyOp7
 70
     1
102
RTVSPropertyOp8
 70
     1
102
RTVSPropertyOp9
 70
     1
102
RTVSPropertyOp10
 70
     1
102
RTVSPropertyOp11
 70
     1
102
RTVSPropertyOp12
 70
     1
102
RTVSPropertyOp13
 70
     1
102
RTVSPropertyOp14
 70
     1
102
RTVSPropertyOp15
 70
     1
102
RTVSPropertyOp16
 70
     1
102
RTVSPropertyOp17
 70
     1
102
RTVSPropertyOp18
 70
     1
102
RTVSPropertyOp19
 70
     1
102
RTVSPropertyOp20
 70
     1
102
RTVSPropertyOp21
 70
     1
102
RTVSPropertyOp22
 70
     1
102
RTVSPropertyOp23
 70
     1
102
RTVSPropertyOp24
 70
     1
102
RTVSPropertyOp25
 70
     1
102
RTVSPropertyOp26
 70
     1
102
RTVSPropertyOp27
 70
     1
  0
ENDSEC
  0
EOF
