  0
SECTION
  2
HEADER
  9
$ACADVER
  1
AC1018
  9
$ACADMAINTVER
 70
   104
  9
$DWGCODEPAGE
  3
ANSI_936
  9
$LASTSAVEDBY
  1
chaxiu.zhu
  9
$INSBASE
 10
0.0
 20
0.0
 30
0.0
  9
$EXTMIN
 10
82872.8350007454
 20
-5833.044344645641
 30
-0.00000001
  9
$EXTMAX
 10
84700.20282632294
 20
-4313.659632392916
 30
0.00000001
  9
$LIMMIN
 10
0.0
 20
0.0
  9
$LIMMAX
 10
420.0
 20
297.0
  9
$ORTHOMODE
 70
     1
  9
$REGENMODE
 70
     1
  9
$FILLMODE
 70
     1
  9
$QTEXTMODE
 70
     0
  9
$MIRRTEXT
 70
     0
  9
$LTSCALE
 40
1.0
  9
$ATTMODE
 70
     1
  9
$TEXTSIZE
 40
2.5
  9
$TRACEWID
 40
1.0
  9
$TEXTSTYLE
  7
Standard
  9
$CLAYER
  8
尺寸标注
  9
$CELTYPE
  6
ByLayer
  9
$CECOLOR
 62
     0
  9
$CELTSCALE
 40
1.0
  9
$DISPSILH
 70
     0
  9
$DIMSCALE
 40
0.5
  9
$DIMASZ
 40
30.0
  9
$DIMEXO
 40
0.0
  9
$DIMDLI
 40
3.75
  9
$DIMRND
 40
0.0
  9
$DIMDLE
 40
0.0
  9
$DIMEXE
 40
10.0
  9
$DIMTP
 40
0.0
  9
$DIMTM
 40
0.0
  9
$DIMTXT
 40
40.0
  9
$DIMCEN
 40
0.0
  9
$DIMTSZ
 40
0.0
  9
$DIMTOL
 70
     0
  9
$DIMLIM
 70
     0
  9
$DIMTIH
 70
     0
  9
$DIMTOH
 70
     1
  9
$DIMSE1
 70
     0
  9
$DIMSE2
 70
     0
  9
$DIMTAD
 70
     0
  9
$DIMZIN
 70
     8
  9
$DIMBLK
  1

  9
$DIMASO
 70
     1
  9
$DIMSHO
 70
     1
  9
$DIMPOST
  1

  9
$DIMAPOST
  1

  9
$DIMALT
 70
     0
  9
$DIMALTD
 70
     3
  9
$DIMALTF
 40
0.03937007874016
  9
$DIMLFAC
 40
1.0
  9
$DIMTOFL
 70
     1
  9
$DIMTVP
 40
0.0
  9
$DIMTIX
 70
     0
  9
$DIMSOXD
 70
     0
  9
$DIMSAH
 70
     0
  9
$DIMBLK1
  1

  9
$DIMBLK2
  1

  9
$DIMSTYLE
  2
宋体
  9
$DIMCLRD
 70
   256
  9
$DIMCLRE
 70
   256
  9
$DIMCLRT
 70
   256
  9
$DIMTFAC
 40
1.0
  9
$DIMGAP
 40
20.0
  9
$DIMJUST
 70
     0
  9
$DIMSD1
 70
     0
  9
$DIMSD2
 70
     0
  9
$DIMTOLJ
 70
     1
  9
$DIMTZIN
 70
     8
  9
$DIMALTZ
 70
     0
  9
$DIMALTTZ
 70
     0
  9
$DIMUPT
 70
     0
  9
$DIMDEC
 70
     0
  9
$DIMTDEC
 70
     0
  9
$DIMALTU
 70
     2
  9
$DIMALTTD
 70
     3
  9
$DIMTXSTY
  7
Standard
  9
$DIMAUNIT
 70
     0
  9
$DIMADEC
 70
     0
  9
$DIMALTRND
 40
0.0
  9
$DIMAZIN
 70
     0
  9
$DIMDSEP
 70
    46
  9
$DIMATFIT
 70
     3
  9
$DIMFRAC
 70
     0
  9
$DIMLDRBLK
  1

  9
$DIMLUNIT
 70
     2
  9
$DIMLWD
 70
    -2
  9
$DIMLWE
 70
    -2
  9
$DIMTMOVE
 70
     1
  9
$LUNITS
 70
     2
  9
$LUPREC
 70
     4
  9
$SKETCHINC
 40
1.0
  9
$FILLETRAD
 40
50.0
  9
$AUNITS
 70
     0
  9
$AUPREC
 70
     0
  9
$MENU
  1
.
  9
$ELEVATION
 40
0.0
  9
$PELEVATION
 40
0.0
  9
$THICKNESS
 40
0.0
  9
$LIMCHECK
 70
     0
  9
$CHAMFERA
 40
0.0
  9
$CHAMFERB
 40
0.0
  9
$CHAMFERC
 40
0.0
  9
$CHAMFERD
 40
0.0
  9
$SKPOLY
 70
     0
  9
$TDCREATE
 40
2455843.370532037
  9
$TDUCREATE
 40
2455843.037198704
  9
$TDUPDATE
 40
2458858.408606366
  9
$TDUUPDATE
 40
2458858.075273032
  9
$TDINDWG
 40
2.8474891204
  9
$TDUSRTIMER
 40
2.8474889468
  9
$USRTIMER
 70
     1
  9
$ANGBASE
 50
0.0
  9
$ANGDIR
 70
     0
  9
$PDMODE
 70
     0
  9
$PDSIZE
 40
0.0
  9
$PLINEWID
 40
0.0
  9
$SPLFRAME
 70
     0
  9
$SPLINETYPE
 70
     6
  9
$SPLINESEGS
 70
     8
  9
$HANDSEED
  5
42A
  9
$SURFTAB1
 70
     6
  9
$SURFTAB2
 70
     6
  9
$SURFTYPE
 70
     6
  9
$SURFU
 70
     6
  9
$SURFV
 70
     6
  9
$UCSBASE
  2

  9
$UCSNAME
  2

  9
$UCSORG
 10
0.0
 20
0.0
 30
0.0
  9
$UCSXDIR
 10
1.0
 20
0.0
 30
0.0
  9
$UCSYDIR
 10
0.0
 20
1.0
 30
0.0
  9
$UCSORTHOREF
  2

  9
$UCSORTHOVIEW
 70
     0
  9
$UCSORGTOP
 10
0.0
 20
0.0
 30
0.0
  9
$UCSORGBOTTOM
 10
0.0
 20
0.0
 30
0.0
  9
$UCSORGLEFT
 10
0.0
 20
0.0
 30
0.0
  9
$UCSORGRIGHT
 10
0.0
 20
0.0
 30
0.0
  9
$UCSORGFRONT
 10
0.0
 20
0.0
 30
0.0
  9
$UCSORGBACK
 10
0.0
 20
0.0
 30
0.0
  9
$PUCSBASE
  2

  9
$PUCSNAME
  2

  9
$PUCSORG
 10
0.0
 20
0.0
 30
0.0
  9
$PUCSXDIR
 10
1.0
 20
0.0
 30
0.0
  9
$PUCSYDIR
 10
0.0
 20
1.0
 30
0.0
  9
$PUCSORTHOREF
  2

  9
$PUCSORTHOVIEW
 70
     0
  9
$PUCSORGTOP
 10
0.0
 20
0.0
 30
0.0
  9
$PUCSORGBOTTOM
 10
0.0
 20
0.0
 30
0.0
  9
$PUCSORGLEFT
 10
0.0
 20
0.0
 30
0.0
  9
$PUCSORGRIGHT
 10
0.0
 20
0.0
 30
0.0
  9
$PUCSORGFRONT
 10
0.0
 20
0.0
 30
0.0
  9
$PUCSORGBACK
 10
0.0
 20
0.0
 30
0.0
  9
$USERI1
 70
     0
  9
$USERI2
 70
     0
  9
$USERI3
 70
     0
  9
$USERI4
 70
     0
  9
$USERI5
 70
     0
  9
$USERR1
 40
0.0
  9
$USERR2
 40
0.0
  9
$USERR3
 40
0.0
  9
$USERR4
 40
0.0
  9
$USERR5
 40
2.5
  9
$WORLDVIEW
 70
     1
  9
$SHADEDGE
 70
     3
  9
$SHADEDIF
 70
    70
  9
$TILEMODE
 70
     1
  9
$MAXACTVP
 70
    64
  9
$PINSBASE
 10
0.0
 20
0.0
 30
0.0
  9
$PLIMCHECK
 70
     0
  9
$PEXTMIN
 10
0.0
 20
0.0
 30
0.0
  9
$PEXTMAX
 10
0.0
 20
0.0
 30
0.0
  9
$PLIMMIN
 10
0.0
 20
0.0
  9
$PLIMMAX
 10
12.0
 20
9.0
  9
$UNITMODE
 70
     0
  9
$VISRETAIN
 70
     1
  9
$PLINEGEN
 70
     0
  9
$PSLTSCALE
 70
     1
  9
$TREEDEPTH
 70
  3020
  9
$CMLSTYLE
  2
Standard
  9
$CMLJUST
 70
     0
  9
$CMLSCALE
 40
20.0
  9
$PROXYGRAPHICS
 70
     1
  9
$MEASUREMENT
 70
     1
  9
$CELWEIGHT
370
    -1
  9
$ENDCAPS
280
     0
  9
$JOINSTYLE
280
     0
  9
$LWDISPLAY
290
     0
  9
$INSUNITS
 70
     4
  9
$HYPERLINKBASE
  1

  9
$STYLESHEET
  1

  9
$XEDIT
290
     1
  9
$CEPSNTYPE
380
     0
  9
$PSTYLEMODE
290
     1
  9
$FINGERPRINTGUID
  2
{82A868F5-9A2D-4A7D-A6FB-0EFFA2B7A910}
  9
$VERSIONGUID
  2
{30DDDF1F-4DBD-47EA-BC92-013E4D767DB1}
  9
$EXTNAMES
290
     1
  9
$PSVPSCALE
 40
0.0
  9
$OLESTARTUP
290
     0
  9
$SORTENTS
280
   127
  9
$INDEXCTL
280
     0
  9
$HIDETEXT
280
     1
  9
$XCLIPFRAME
290
     0
  9
$HALOGAP
280
     0
  9
$OBSCOLOR
 70
   257
  9
$OBSLTYPE
280
     0
  9
$INTERSECTIONDISPLAY
280
     0
  9
$INTERSECTIONCOLOR
 70
   257
  9
$DIMASSOC
280
     2
  9
$PROJECTNAME
  1

  0
ENDSEC
  0
SECTION
  2
CLASSES
  0
CLASS
  1
ACDBDICTIONARYWDFLT
  2
AcDbDictionaryWithDefault
  3
ObjectDBX Classes
 90
        0
 91
        1
280
     0
281
     0
  0
CLASS
  1
DICTIONARYVAR
  2
AcDbDictionaryVar
  3
ObjectDBX Classes
 90
        0
 91
        2
280
     0
281
     0
  0
CLASS
  1
TABLESTYLE
  2
AcDbTableStyle
  3
ObjectDBX Classes
 90
     4095
 91
        1
280
     0
281
     0
  0
CLASS
  1
MATERIAL
  2
AcDbMaterial
  3
ObjectDBX Classes
 90
        0
 91
        3
280
     0
281
     0
  0
CLASS
  1
VISUALSTYLE
  2
AcDbVisualStyle
  3
ObjectDBX Classes
 90
     4095
 91
       16
280
     0
281
     0
  0
CLASS
  1
VLO-VL
  2
vlo_VL
  3
VL|AutoLISP based application
 90
        0
 91
        0
280
     0
281
     0
  0
CLASS
  1
SORTENTSTABLE
  2
AcDbSortentsTable
  3
ObjectDBX Classes
 90
        0
 91
        2
280
     0
281
     0
  0
CLASS
  1
DIMASSOC
  2
AcDbDimAssoc
  3
"ZcDbDimAssoc|Product Desc:     ZwDim ZRX App For Dimension|Company:          ZwSoft.|WEB Address:      www.zwsoft.com"
 90
        0
 91
        0
280
     0
281
     0
  0
CLASS
  1
EXACXREFPANELOBJECT
  2
ExAcXREFPanelObject
  3
EXAC_ESW
 90
     1025
 91
        0
280
     1
281
     0
  0
CLASS
  1
NPOCOLLECTION
  2
AcDbImpNonPersistentObjectsCollection
  3
ObjectDBX Classes
 90
     1153
 91
        0
280
     0
281
     0
  0
CLASS
  1
SCALE
  2
AcDbScale
  3
ObjectDBX Classes
 90
     1153
 91
       33
280
     0
281
     0
  0
CLASS
  1
MLEADERSTYLE
  2
AcDbMLeaderStyle
  3
ACDB_MLEADERSTYLE_CLASS
 90
     4095
 91
        1
280
     0
281
     0
  0
CLASS
  1
CELLSTYLEMAP
  2
AcDbCellStyleMap
  3
ObjectDBX Classes
 90
     1152
 91
        1
280
     0
281
     0
  0
ENDSEC
  0
SECTION
  2
TABLES
  0
TABLE
  2
VPORT
  5
23
330
0
100
AcDbSymbolTable
 70
     2
  0
VPORT
  5
403
330
23
100
AcDbSymbolTableRecord
100
AcDbViewportTableRecord
  2
*Active
 70
     0
 10
0.0
 20
0.0
 11
1.0
 21
1.0
 12
85200.01058677644
 22
-4732.856413149533
 13
0.0
 23
0.0
 14
10.0
 24
10.0
 15
10.0
 25
10.0
 16
0.0
 26
0.0
 36
1.0
 17
0.0
 27
0.0
 37
0.0
 40
3694.164499736445
 41
1.857503152585119
 42
50.0
 43
0.0
 44
0.0
 50
0.0
 51
0.0
 71
     0
 72
  1000
 73
     1
 74
     1
 75
     0
 76
     1
 77
     0
 78
     0
281
     0
 65
     1
110
0.0
120
0.0
130
0.0
111
1.0
121
0.0
131
0.0
112
0.0
122
1.0
132
0.0
 79
     0
146
0.0
  0
ENDTAB
  0
TABLE
  2
LTYPE
  5
1E
330
0
100
AcDbSymbolTable
 70
     1
  0
LTYPE
  5
1F
330
1E
100
AcDbSymbolTableRecord
100
AcDbLinetypeTableRecord
  2
ByBlock
 70
     0
  3

 72
    65
 73
     0
 40
0.0
  0
LTYPE
  5
20
330
1E
100
AcDbSymbolTableRecord
100
AcDbLinetypeTableRecord
  2
ByLayer
 70
     0
  3

 72
    65
 73
     0
 40
0.0
  0
LTYPE
  5
C
330
1E
100
AcDbSymbolTableRecord
100
AcDbLinetypeTableRecord
  2
Continuous
 70
     0
  3
Solid line
 72
    65
 73
     0
 40
0.0
  0
ENDTAB
  0
TABLE
  2
LAYER
  5
15
102
{ACAD_XDICTIONARY
360
16
102
}
330
0
100
AcDbSymbolTable
 70
     7
  0
LAYER
  5
6
330
15
100
AcDbSymbolTableRecord
100
AcDbLayerTableRecord
  2
0
 70
     0
 62
     7
  6
Continuous
370
    -3
390
7
  0
LAYER
  5
36
330
15
100
AcDbSymbolTableRecord
100
AcDbLayerTableRecord
  2
尺寸标注
 70
     0
 62
    80
  6
Continuous
370
    18
390
7
1001
AcAecLayerStandard
1000

1000

  0
LAYER
  5
54
330
15
100
AcDbSymbolTableRecord
100
AcDbLayerTableRecord
  2
06___PRT_ALL_SURFS
 70
     0
 62
     7
  6
Continuous
370
    -3
390
7
  0
LAYER
  5
3F
330
15
100
AcDbSymbolTableRecord
100
AcDbLayerTableRecord
  2
0000000000001
 70
     0
 62
     7
  6
Continuous
370
    -3
390
7
  0
LAYER
  5
C2
330
15
100
AcDbSymbolTableRecord
100
AcDbLayerTableRecord
  2
TIAOMIAM
 70
     0
 62
     7
  6
Continuous
370
    -3
390
7
  0
LAYER
  5
1D0
330
15
100
AcDbSymbolTableRecord
100
AcDbLayerTableRecord
  2
02___PRT_ALL_AXES
 70
     0
 62
     7
  6
Continuous
370
    -3
390
7
  0
LAYER
  5
1D9
330
15
100
AcDbSymbolTableRecord
100
AcDbLayerTableRecord
  2
轮廓线.
 70
     0
 62
   255
  6
Continuous
370
    30
390
7
1001
AcAecLayerStandard
1000

1000

  0
ENDTAB
  0
TABLE
  2
STYLE
  5
1B
330
0
100
AcDbSymbolTable
 70
     3
  0
STYLE
  5
1C
330
1B
100
AcDbSymbolTableRecord
100
AcDbTextStyleTableRecord
  2
Standard
 70
     0
 40
0.0
 41
1.0
 50
0.0
 71
     0
 42
2.5
  3
SimSun.ttf
  4

1001
ACAD
1000
SimSun
1071
    34306
  0
STYLE
  5
2D
330
1B
100
AcDbSymbolTableRecord
100
AcDbTextStyleTableRecord
  2
Arial
 70
     0
 40
0.0
 41
1.0
 50
0.0
 71
     0
 42
2.5
  3
arial.ttf
  4

1001
ACAD
1000
Arial
1071
       34
  0
STYLE
  5
2B
330
1B
100
AcDbSymbolTableRecord
100
AcDbTextStyleTableRecord
  2
TXT
 70
     0
 40
0.0
 41
1.0
 50
0.0
 71
     0
 42
2.5
  3
txt.shx
  4

  0
ENDTAB
  0
TABLE
  2
VIEW
  5
21
330
0
100
AcDbSymbolTable
 70
     0
  0
ENDTAB
  0
TABLE
  2
UCS
  5
22
330
0
100
AcDbSymbolTable
 70
     0
  0
ENDTAB
  0
TABLE
  2
APPID
  5
27
330
0
100
AcDbSymbolTable
 70
     4
  0
APPID
  5
1A
330
27
100
AcDbSymbolTableRecord
100
AcDbRegAppTableRecord
  2
ACAD
 70
     0
  0
APPID
  5
10
330
27
100
AcDbSymbolTableRecord
100
AcDbRegAppTableRecord
  2
ACAD_PSEXT
 70
     0
  0
APPID
  5
37
330
27
100
AcDbSymbolTableRecord
100
AcDbRegAppTableRecord
  2
AcAecLayerStandard
 70
     0
  0
APPID
  5
429
330
27
100
AcDbSymbolTableRecord
100
AcDbRegAppTableRecord
  2
ACAD_MLEADERVER
 70
     0
  0
ENDTAB
  0
TABLE
  2
DIMSTYLE
  5
28
330
0
100
AcDbSymbolTable
 70
     5
100
AcDbDimStyleTable
 71
     3
340
29
340
2A
340
2C
  0
DIMSTYLE
105
29
330
28
100
AcDbSymbolTableRecord
100
AcDbDimStyleTableRecord
  2
宋体
 70
     0
 40
0.5
 41
30.0
 42
0.0
 43
3.75
 44
10.0
 73
     0
 78
     8
140
40.0
141
0.0
143
0.03937007874016
147
20.0
171
     3
172
     1
176
   256
177
   256
178
   256
271
     0
272
     0
274
     3
279
     1
284
     8
340
1C
  0
DIMSTYLE
105
2C
330
28
100
AcDbSymbolTableRecord
100
AcDbDimStyleTableRecord
  2
Arial
 70
     0
 40
0.7
 41
20.0
 42
0.0
 43
3.75
 44
10.0
 73
     0
 78
     8
140
30.0
141
0.0
143
0.03937007874016
147
20.0
171
     3
172
     1
271
     0
272
     0
274
     3
279
     1
284
     8
340
2D
  0
DIMSTYLE
105
2A
330
28
100
AcDbSymbolTableRecord
100
AcDbDimStyleTableRecord
  2
TXT
 70
     0
 40
0.7
 41
20.0
 42
0.0
 43
3.75
 44
10.0
 73
     0
 78
     8
140
30.0
141
0.0
143
0.03937007874016
147
20.0
171
     3
172
     1
271
     0
272
     0
274
     3
279
     1
284
     8
340
2B
  0
DIMSTYLE
105
1DA
330
28
100
AcDbSymbolTableRecord
100
AcDbDimStyleTableRecord
  2
ISO-25
 70
     0
 40
9.0
 41
1.5
 42
0.625
 43
3.75
 44
0.5
 73
     0
 74
     0
 77
     1
 78
     8
140
2.5
141
2.5
143
0.03937007874016
147
0.3
171
     3
172
     1
271
     0
272
     0
274
     3
283
     0
284
     8
340
1C
  0
DIMSTYLE
105
1DB
330
28
100
AcDbSymbolTableRecord
100
AcDbDimStyleTableRecord
  2
副本 ISO-25
 70
     0
 40
7.0
 41
1.5
 42
0.625
 43
3.75
 44
0.5
 73
     0
 77
     1
 78
     8
140
2.5
141
2.5
143
0.03937007874016
147
0.3
171
     3
172
     1
271
     0
272
     0
274
     3
283
     0
284
     8
340
1C
  0
ENDTAB
  0
TABLE
  2
BLOCK_RECORD
  5
1
330
0
100
AcDbSymbolTable
 70
     1
  0
BLOCK_RECORD
  5
2
102
{ACAD_XDICTIONARY
360
3
102
}
330
1
100
AcDbSymbolTableRecord
100
AcDbBlockTableRecord
  2
*Model_Space
340
E
  0
BLOCK_RECORD
  5
11
330
1
100
AcDbSymbolTableRecord
100
AcDbBlockTableRecord
  2
*Paper_Space
340
14
  0
BLOCK_RECORD
  5
1D1
102
{ACAD_XDICTIONARY
360
1D5
102
}
330
1
100
AcDbSymbolTableRecord
100
AcDbBlockTableRecord
  2
A$C18BE6784
340
0
1001
ACAD
1000
DesignCenter Data
1002
{
1070
     1
1070
     4
1002
}
  0
ENDTAB
  0
ENDSEC
  0
SECTION
  2
BLOCKS
  0
BLOCK
  5
5
330
2
100
AcDbEntity
  8
0
100
AcDbBlockBegin
  2
*Model_Space
 70
     0
 10
0.0
 20
0.0
 30
0.0
  3
*Model_Space
  1

  0
ENDBLK
  5
D
330
2
100
AcDbEntity
  8
0
100
AcDbBlockEnd
  0
BLOCK
  5
12
330
11
100
AcDbEntity
 67
     1
  8
0
100
AcDbBlockBegin
  2
*Paper_Space
 70
     0
 10
0.0
 20
0.0
 30
0.0
  3
*Paper_Space
  1

  0
ENDBLK
  5
13
330
11
100
AcDbEntity
 67
     1
  8
0
100
AcDbBlockEnd
  0
BLOCK
  5
1D7
330
1D1
100
AcDbEntity
  8
0
 62
     0
100
AcDbBlockBegin
  2
A$C18BE6784
 70
     0
 10
0.0
 20
0.0
 30
0.0
  3
A$C18BE6784
  1

  0
CIRCLE
  5
1D2
330
1D1
100
AcDbEntity
  8
02___PRT_ALL_AXES
  6
Continuous
 62
     7
100
AcDbCircle
 10
119.2287074010965
 20
18.02499999724205
 30
0.0
 40
18.025000001236
  0
CIRCLE
  5
1D3
330
1D1
100
AcDbEntity
  8
02___PRT_ALL_AXES
  6
Continuous
 62
     7
100
AcDbCircle
 10
17.50000086563523
 20
18.02499999726023
 30
0.0
 40
17.5000000012
  0
CIRCLE
  5
1D4
330
1D1
100
AcDbEntity
  8
02___PRT_ALL_AXES
  6
Continuous
 62
     7
100
AcDbCircle
 10
220.5000008643547
 20
18.02499999726023
 30
0.0
 40
17.5000000012
  0
ENDBLK
  5
1D8
330
1D1
100
AcDbEntity
  8
0
 62
     0
100
AcDbBlockEnd
  0
ENDSEC
  0
SECTION
  2
ENTITIES
  0
MTEXT
  5
2D7
330
2
100
AcDbEntity
  8
尺寸标注
100
AcDbMText
 10
83372.98868645948
 20
-4330.326299059583
 30
0.0
 40
75.0
 41
801.6353349369019
 71
     2
 72
     5
  1
SCALE\P1:1
 73
     1
 44
1.0
  0
LINE
  5
2D8
330
2
100
AcDbEntity
  8
0
  6
Continuous
 62
     7
100
AcDbLine
 10
82872.93197409818
 20
-5793.122295025452
 30
0.0
 11
82872.93197409818
 21
-5356.547801988497
 31
0.0
  0
LINE
  5
2D9
330
2
100
AcDbEntity
  8
0
  6
Continuous
 62
     7
100
AcDbLine
 10
82912.85402352231
 20
-5833.044344645641
 30
0.0
 11
82912.85402385771
 21
-5833.024857049524
 31
0.0
  0
LINE
  5
2DA
330
2
100
AcDbEntity
  8
0000000000001
  6
Continuous
 62
     7
100
AcDbLine
 10
82992.95302441889
 20
-5561.547801993619
 30
0.0
 11
82992.95302628827
 21
-5651.547801983608
 31
0.0
  0
LWPOLYLINE
  5
2DB
330
2
100
AcDbEntity
  8
0
  6
Continuous
 62
     7
100
AcDbPolyline
 90
        8
 70
     0
 43
0.0
 10
83833.05202497691
 20
-5833.043594792901
 10
83839.57090089269
 20
-5832.510241596793
 10
83849.09952661054
 20
-5829.685572135095
 10
83857.64637581605
 20
-5824.584870913597
 10
83864.66761004374
 20
-5817.519579639025
 10
83869.71864924566
 20
-5808.931535225776
 10
83872.48476247393
 20
-5799.364367155307
 10
83872.97313945762
 20
-5793.122295380286
  0
LINE
  5
2DC
330
2
100
AcDbEntity
  8
0
  6
Continuous
 62
     7
100
AcDbLine
 10
83833.05202512929
 20
-5833.044344645641
 30
0.0
 11
82912.85402359088
 21
-5833.044344645641
 31
0.0
  0
LINE
  5
2DD
330
2
100
AcDbEntity
  8
0000000000001
  6
Continuous
 62
     7
100
AcDbLine
 10
83132.95302441829
 20
-5811.547815705132
 30
0.0
 11
83612.95302441876
 21
-5811.547815705132
 31
0.0
  0
LINE
  5
2DE
330
2
100
AcDbEntity
  8
0
  6
Continuous
 62
     7
100
AcDbLine
 10
82872.93197409818
 20
-5793.122295019514
 30
0.0
 11
82872.95146169697
 21
-5793.122295043147
 31
0.0
  0
LINE
  5
2DF
330
2
100
AcDbEntity
  8
0
  6
Continuous
 62
     7
100
AcDbLine
 10
83872.97407473644
 20
-5793.122295386107
 30
0.0
 11
83872.95458714008
 21
-5793.122294989945
 31
0.0
  0
LINE
  5
2E0
330
2
100
AcDbEntity
  8
0000000000001
  6
Continuous
 62
     7
100
AcDbLine
 10
83592.95302441887
 20
-5447.54854989361
 30
0.0
 11
83152.95302441818
 21
-5447.54854989361
 31
0.0
  0
LINE
  5
2E1
330
2
100
AcDbEntity
  8
0
  6
Continuous
 62
     7
100
AcDbLine
 10
83867.96859727471
 20
-5351.547801983492
 30
0.0
 11
82877.93928194741
 21
-5351.547801983492
 31
0.0
  0
LINE
  5
2E2
330
2
100
AcDbEntity
  8
0000000000001
  6
Continuous
 62
     7
100
AcDbLine
 10
83752.95302441829
 20
-5561.547801993619
 30
0.0
 11
83752.95302254635
 21
-5651.547801983608
 31
0.0
  0
LINE
  5
2E3
330
2
100
AcDbEntity
  8
0
  6
Continuous
 62
     7
100
AcDbLine
 10
83833.05202512929
 20
-5833.044344645641
 30
0.0
 11
83833.05202512929
 21
-5833.024857049524
 31
0.0
  0
LINE
  5
2E4
330
2
100
AcDbEntity
  8
0
  6
Continuous
 62
     7
100
AcDbLine
 10
83872.95458714008
 20
-5356.547801988497
 30
0.0
 11
83872.95458714008
 21
-5793.122295043147
 31
0.0
  0
ARC
  5
2E5
330
2
100
AcDbEntity
  8
0
  6
Continuous
 62
     7
100
AcDbCircle
 10
82912.90525319634
 20
-5792.875815439918
 30
0.0
 40
40.14907428639999
100
AcDbArc
 50
259.0060554211904
 51
269.9268916054686
  0
ARC
  5
2E6
330
2
100
AcDbEntity
  8
0
  6
Continuous
 62
     7
100
AcDbCircle
 10
82913.07871769831
 20
-5793.073306497369
 30
0.0
 40
40.12728590732
100
AcDbArc
 50
180.0699483446433
 51
191.2581060226016
  0
ARC
  5
2E7
330
2
100
AcDbEntity
  8
0
  6
Continuous
 62
     7
100
AcDbCircle
 10
82912.85003094966
 20
-5793.165146748485
 30
0.0
 40
39.85452181226
100
AcDbArc
 50
191.2599727328544
 51
259.0046634740021
  0
ARC
  5
2E8
330
2
100
AcDbEntity
  8
0
  6
Continuous
 62
     7
100
AcDbCircle
 10
82877.94580161673
 20
-5356.541296020216
 30
0.0
 40
4.993921269439999
100
AcDbArc
 50
90.07480720456582
 51
180.0746373801725
  0
ARC
  5
2E9
330
2
100
AcDbEntity
  8
0
  6
Continuous
 62
     7
100
AcDbCircle
 10
83833.00078148776
 20
-5792.87618039846
 30
0.0
 40
40.14870934935999
100
AcDbArc
 50
270.0731292536393
 51
281.2321183079257
  0
ARC
  5
2EA
330
2
100
AcDbEntity
  8
0
  6
Continuous
 62
     7
100
AcDbCircle
 10
83832.82750982008
 20
-5793.073356499379
 30
0.0
 40
40.12710715989999
100
AcDbArc
 50
348.9798341831997
 51
359.9301227316487
  0
ARC
  5
2EB
330
2
100
AcDbEntity
  8
0
  6
Continuous
 62
     7
100
AcDbCircle
 10
83833.0557147079
 20
-5793.163208917664
 30
0.0
 40
39.8564784657
100
AcDbArc
 50
281.2350330759082
 51
348.9794125548814
  0
ARC
  5
2ED
330
2
100
AcDbEntity
  8
0
  6
Continuous
 62
     7
100
AcDbCircle
 10
83867.96024721764
 20
-5356.541296020216
 30
0.0
 40
4.993921269439999
100
AcDbArc
 50
359.9253626198275
 51
89.92519279209913
  0
LINE
  5
2EE
330
2
100
AcDbEntity
  8
0000000000001
  6
Continuous
 62
     7
100
AcDbLine
 10
83132.95302441829
 20
-5447.547803583272
 30
0.0
 11
83136.24887476066
 21
-5447.547882309133
 31
0.0
  0
LINE
  5
2EF
330
2
100
AcDbEntity
  8
0000000000001
  6
Continuous
 62
     7
100
AcDbLine
 10
83136.24887476066
 20
-5447.547882309133
 30
0.0
 11
83149.64854690208
 21
-5447.549220594759
 31
0.0
  0
LINE
  5
2F0
330
2
100
AcDbEntity
  8
0000000000001
  6
Continuous
 62
     7
100
AcDbLine
 10
83149.64854690208
 20
-5447.549220594759
 30
0.0
 11
83151.95301918683
 21
-5447.549296464138
 31
0.0
  0
LINE
  5
2F1
330
2
100
AcDbEntity
  8
0000000000001
  6
Continuous
 62
     7
100
AcDbLine
 10
83151.95301918683
 20
-5447.549296464138
 30
0.0
 11
83152.95302441818
 21
-5447.549299817365
 31
0.0
  0
SPLINE
  5
2F2
330
2
100
AcDbEntity
  8
0000000000001
  6
Continuous
 62
     7
100
AcDbSpline
210
0.0
220
0.0
230
1.0
 70
     8
 71
     3
 72
    29
 73
    25
 74
    23
 42
0.0000000001
 43
0.0000000001
 44
0.0000000001
 12
-0.0000001785101045
 22
-0.999999999999984
 32
0.0
 13
0.9999999999964044
 23
-0.0000026816456182
 33
0.0
 40
0.0
 40
0.0
 40
0.0
 40
0.0
 40
3.381151086302059
 40
16.73033689975324
 40
30.14828124968387
 40
43.5012022398883
 40
56.88861435686755
 40
70.25314390368345
 40
83.60797109128958
 40
96.98891245713509
 40
110.3418723939081
 40
123.686707919906
 40
137.0354477810418
 40
150.3921770367935
 40
163.7306157018456
 40
177.1173967926118
 40
190.427344762994
 40
203.8051232074387
 40
217.1642776523251
 40
230.5356878437334
 40
243.9267755368957
 40
257.2828370620729
 40
270.694574051001
 40
274.0583737447579
 40
274.0583737447579
 40
274.0583737447579
 40
274.0583737447579
 10
82992.95302628827
 20
-5651.547801983608
 30
0.0
 10
82992.95302608708
 20
-5652.674852345709
 30
0.0
 10
82992.95302335886
 20
-5658.251631669148
 30
0.0
 10
82992.9529934937
 20
-5668.301053031552
 30
0.0
 10
82992.95313970556
 20
-5681.674428049525
 30
0.0
 10
82992.9525962356
 20
-5695.06042989082
 30
0.0
 10
82992.95462605897
 20
-5708.429055746215
 30
0.0
 10
82992.9470606784
 20
-5721.79671786527
 30
0.0
 10
82992.97528293735
 20
-5735.168187347049
 30
0.0
 10
82992.86984491354
 20
-5748.513524821425
 30
0.0
 10
82993.26263284742
 20
-5761.938564761894
 30
0.0
 10
82997.15154795805
 20
-5774.864170067569
 30
0.0
 10
83003.65765773545
 20
-5786.629683593728
 30
0.0
 10
83012.64187168065
 20
-5796.660185994007
 30
0.0
 10
83023.62245313666
 20
-5804.458256566602
 30
0.0
 10
83036.04017699674
 20
-5809.651017795362
 30
0.0
 10
83049.33088452168
 20
-5811.881082329282
 30
0.0
 10
83062.69724449887
 20
-5811.458449663629
 30
0.0
 10
83076.06202749362
 20
-5811.571753216773
 30
0.0
 10
83089.43716251862
 20
-5811.541370589271
 30
0.0
 10
83102.80967981338
 20
-5811.549521791679
 30
0.0
 10
83116.19606613028
 20
-5811.547336936719
 30
0.0
 10
83126.23991097648
 20
-5811.547786616737
 30
0.0
 10
83131.8317578537
 20
-5811.547826418538
 30
0.0
 10
83132.95302441829
 20
-5811.547829425377
 30
0.0
 11
82992.95302628827
 21
-5651.547801983608
 31
0.0
 11
82992.95302441889
 21
-5654.92895306991
 31
0.0
 11
82992.95302441889
 21
-5668.278138883361
 31
0.0
 11
82992.95302441889
 21
-5681.696083233291
 31
0.0
 11
82992.95302441889
 21
-5695.049004223496
 31
0.0
 11
82992.95302441889
 21
-5708.436416340475
 31
0.0
 11
82992.95302441889
 21
-5721.800945887292
 31
0.0
 11
82992.95302441889
 21
-5735.155773074897
 31
0.0
 11
82992.95302441889
 21
-5748.536714440742
 31
0.0
 11
82993.84580995104
 21
-5761.859794905358
 31
0.0
 11
82997.58707110953
 21
-5774.669463135251
 31
0.0
 11
83004.06945065942
 21
-5786.338550985274
 31
0.0
 11
83012.97741049385
 21
-5796.290961145605
 31
0.0
 11
83023.85031254283
 21
-5804.017146948092
 31
0.0
 11
83036.20819301876
 21
-5809.163864165377
 31
0.0
 11
83049.32244721948
 21
-5811.437858829689
 31
0.0
 11
83062.69977388108
 21
-5811.547801984889
 31
0.0
 11
83076.05892832597
 21
-5811.547801984889
 31
0.0
 11
83089.43033851738
 21
-5811.547801990709
 31
0.0
 11
83102.82142621055
 21
-5811.547801990709
 31
0.0
 11
83116.17748773572
 21
-5811.547801984889
 31
0.0
 11
83129.58922472466
 21
-5811.547801990709
 31
0.0
 11
83132.95302441829
 21
-5811.547829425377
 31
0.0
  0
LINE
  5
2F3
330
2
100
AcDbEntity
  8
0000000000001
  6
Continuous
 62
     7
100
AcDbLine
 10
82992.95302441889
 20
-5551.547801983492
 30
0.0
 11
82992.95302441889
 21
-5561.547801993619
 31
0.0
  0
LINE
  5
2F4
330
2
100
AcDbEntity
  8
0000000000001
  6
Continuous
 62
     7
100
AcDbLine
 10
82992.95309616111
 20
-5541.547801985355
 30
0.0
 11
82992.95302441889
 21
-5551.547801983492
 31
0.0
  0
LINE
  5
2F5
330
2
100
AcDbEntity
  8
0000000000001
  6
Continuous
 62
     7
100
AcDbLine
 10
83132.95302441829
 20
-5447.54780178547
 30
0.0
 11
83126.59302472274
 21
-5447.547800998967
 31
0.0
  0
SPLINE
  5
2F6
330
2
100
AcDbEntity
  8
0000000000001
  6
Continuous
 62
     7
100
AcDbSpline
210
0.0
220
0.0
230
1.0
 70
     8
 71
     3
 72
    30
 73
    26
 74
    24
 42
0.0000000001
 43
0.0000000001
 44
0.0000000001
 12
-0.9999999999999582
 22
-0.0000002889616558
 32
0.0
 13
-0.0001862231278803
 23
-0.9999999826604732
 33
0.0
 40
0.0
 40
0.0
 40
0.0
 40
0.0
 40
1.902239192743113
 40
11.02263026102472
 40
20.1671263662868
 40
29.27368948143002
 40
38.40347079257507
 40
47.53244951204422
 40
56.66684762621324
 40
65.80373849638298
 40
74.93538463763731
 40
84.05833780109478
 40
93.1631628154593
 40
102.3042632022016
 40
111.4263224617123
 40
120.5380864371461
 40
129.6455860740158
 40
138.7674480953563
 40
147.8967230128344
 40
157.0126788161954
 40
166.1450506509729
 40
175.2989563477092
 40
184.4028767197958
 40
193.5266863718496
 40
201.7994561165542
 40
201.7994561165542
 40
201.7994561165542
 40
201.7994561165542
 10
83126.59302472274
 20
-5447.547800998967
 30
0.0
 10
83125.95894499184
 20
-5447.547801182192
 30
0.0
 10
83122.28473490154
 20
-5447.547803016479
 30
0.0
 10
83115.56235950828
 20
-5447.547817255662
 30
0.0
 10
83106.43854247622
 20
-5447.547744949108
 30
0.0
 10
83097.31159662199
 20
-5447.548014111331
 30
0.0
 10
83088.18981854431
 20
-5447.547008030188
 30
0.0
 10
83079.05877963065
 20
-5447.55076533034
 30
0.0
 10
83069.92530552365
 20
-5447.536734036104
 30
0.0
 10
83060.79118619914
 20
-5447.589109887023
 30
0.0
 10
83051.6599720765
 20
-5447.393800940797
 30
0.0
 10
83042.5429009086
 20
-5448.205221803495
 30
0.0
 10
83033.67043747744
 20
-5450.490410300978
 30
0.0
 10
83025.24172800275
 20
-5454.067161860582
 30
0.0
 10
83017.45304490632
 20
-5458.889989629788
 30
0.0
 10
83010.49308669519
 20
-5464.827895564099
 30
0.0
 10
83004.51288318914
 20
-5471.751486795458
 30
0.0
 10
82999.6455993834
 20
-5479.505856681316
 30
0.0
 10
82996.01544096635
 20
-5487.911731586575
 30
0.0
 10
82993.6783719193
 20
-5496.772722933148
 30
0.0
 10
82992.79465816377
 20
-5505.898945877024
 30
0.0
 10
82992.9952404675
 20
-5515.031074844288
 30
0.0
 10
82992.9417080544
 20
-5524.157735037175
 30
0.0
 10
82992.95562500253
 20
-5532.991382481833
 30
0.0
 10
82992.9536814329
 20
-5538.790212135963
 30
0.0
 10
82992.95316790589
 20
-5541.54780200305
 30
0.0
 11
83126.59302472274
 21
-5447.547800998967
 31
0.0
 11
83124.69078553
 21
-5447.547801992456
 31
0.0
 11
83115.57039446171
 21
-5447.547801992456
 31
0.0
 11
83106.42589835644
 21
-5447.547801992456
 31
0.0
 11
83097.31933524131
 21
-5447.547801992456
 31
0.0
 11
83088.18955393016
 21
-5447.547801992456
 31
0.0
 11
83079.06057521069
 21
-5447.547801980697
 31
0.0
 11
83069.92617709653
 21
-5447.547801992456
 31
0.0
 11
83060.78928622635
 21
-5447.547801992456
 31
0.0
 11
83051.65765079387
 21
-5447.561786889513
 31
0.0
 11
83042.57819407862
 21
-5448.451584719536
 31
0.0
 11
83033.75581678302
 21
-5450.701806352306
 31
0.0
 11
83025.34319193449
 21
-5454.277762090038
 31
0.0
 11
83017.58684444495
 21
-5459.078911822704
 31
0.0
 11
83010.6552886256
 21
-5464.993113093143
 31
0.0
 11
83004.70175727641
 21
-5471.885283586519
 31
0.0
 11
82999.85326127869
 21
-5479.611890428881
 31
0.0
 11
82996.22965958258
 21
-5487.991220429954
 31
0.0
 11
82993.92165051816
 21
-5496.810162791
 31
0.0
 11
82992.97583678105
 21
-5505.893424963993
 31
0.0
 11
82992.95302441889
 21
-5515.047302235449
 31
0.0
 11
82992.95302441889
 21
-5524.151222607535
 31
0.0
 11
82992.95302441889
 21
-5533.275032259589
 31
0.0
 11
82992.95316790589
 21
-5541.54780200305
 31
0.0
  0
LINE
  5
2F7
330
2
100
AcDbEntity
  8
0000000000001
  6
Continuous
 62
     7
100
AcDbLine
 10
83612.95302441876
 20
-5447.54780178547
 30
0.0
 11
83619.31302411443
 21
-5447.547801004905
 31
0.0
  0
SPLINE
  5
2F8
330
2
100
AcDbEntity
  8
0000000000001
  6
Continuous
 62
     7
100
AcDbSpline
210
0.0
220
0.0
230
1.0
 70
     8
 71
     3
 72
    30
 73
    26
 74
    24
 42
0.0000000001
 43
0.0000000001
 44
0.0000000001
 12
0.9999999999999582
 22
-0.0000002889616558
 32
0.0
 13
0.0001862231278803
 23
-0.9999999826604732
 33
0.0
 40
0.0
 40
0.0
 40
0.0
 40
0.0
 40
1.902239192626695
 40
11.02263025846358
 40
20.16712636617038
 40
29.27368947886888
 40
38.40347079001393
 40
47.53244951192781
 40
56.66684762365211
 40
65.80373849626656
 40
74.9353846375209
 40
84.0583377985453
 40
93.16316281279702
 40
102.3042632018164
 40
111.4263224604411
 40
120.5380864359635
 40
129.6455860683402
 40
138.7674480946479
 40
147.8967230219015
 40
157.012678813917
 40
166.1450506486825
 40
175.2989563454255
 40
184.4028767175121
 40
193.5266863695659
 40
201.7994561142705
 40
201.7994561142705
 40
201.7994561142705
 40
201.7994561142705
 10
83619.31302411443
 20
-5447.547801004905
 30
0.0
 10
83619.94710384532
 20
-5447.54780118813
 30
0.0
 10
83623.62131393471
 20
-5447.547803002559
 30
0.0
 10
83630.34368932796
 20
-5447.547817261796
 30
0.0
 10
83639.46750635925
 20
-5447.547744945747
 30
0.0
 10
83648.59445221341
 20
-5447.548014118631
 30
0.0
 10
83657.71623029115
 20
-5447.547008004256
 30
0.0
 10
83666.84726920476
 20
-5447.550765356199
 30
0.0
 10
83675.98074331263
 20
-5447.536734029154
 30
0.0
 10
83685.11486263708
 20
-5447.589109888967
 30
0.0
 10
83694.24607675984
 20
-5447.393800940036
 30
0.0
 10
83703.36314792645
 20
-5448.205221804482
 30
0.0
 10
83712.23561135892
 20
-5450.49041029884
 30
0.0
 10
83720.66432082874
 20
-5454.067161869746
 30
0.0
 10
83728.45300393272
 20
-5458.889989627299
 30
0.0
 10
83735.41296213936
 20
-5464.827895564706
 30
0.0
 10
83741.39316565143
 20
-5471.751486790588
 30
0.0
 10
83746.26044945584
 20
-5479.505856682528
 30
0.0
 10
83749.89060786269
 20
-5487.911731592731
 30
0.0
 10
83752.22767691784
 20
-5496.772722936373
 30
0.0
 10
83753.11139066921
 20
-5505.898945877183
 30
0.0
 10
83752.91080837088
 20
-5515.031074844243
 30
0.0
 10
83752.96434078212
 20
-5524.157735037186
 30
0.0
 10
83752.95042383609
 20
-5532.991382481831
 30
0.0
 10
83752.95236740159
 20
-5538.790212135963
 30
0.0
 10
83752.95288092861
 20
-5541.54780200305
 30
0.0
 11
83619.31302411443
 21
-5447.547801004905
 31
0.0
 11
83621.21526330707
 21
-5447.547801992456
 31
0.0
 11
83630.33565437291
 21
-5447.547801992456
 31
0.0
 11
83639.48015048061
 21
-5447.547801992456
 31
0.0
 11
83648.5867135933
 21
-5447.547801992456
 31
0.0
 11
83657.71649490445
 21
-5447.547801980697
 31
0.0
 11
83666.84547362636
 21
-5447.547801992456
 31
0.0
 11
83675.97987173809
 21
-5447.547801992456
 31
0.0
 11
83685.1167626107
 21
-5447.547801992456
 31
0.0
 11
83694.24839804318
 21
-5447.561786889513
 31
0.0
 11
83703.327854756
 21
-5448.451584719536
 31
0.0
 11
83712.15023205147
 21
-5450.701806352306
 31
0.0
 11
83720.56285690002
 21
-5454.277762095859
 31
0.0
 11
83728.31920439212
 21
-5459.078911822704
 31
0.0
 11
83735.25076021158
 21
-5464.993113093143
 31
0.0
 11
83741.20429156077
 21
-5471.885283580581
 31
0.0
 11
83746.05278755838
 21
-5479.611890428881
 31
0.0
 11
83749.67638925193
 21
-5487.991220441712
 31
0.0
 11
83751.98439831645
 21
-5496.810162791
 31
0.0
 11
83752.93021205344
 21
-5505.893424963993
 31
0.0
 11
83752.95302441829
 21
-5515.047302235449
 31
0.0
 11
83752.95302441829
 21
-5524.151222607535
 31
0.0
 11
83752.95302441829
 21
-5533.275032259589
 31
0.0
 11
83752.95288092861
 21
-5541.54780200305
 31
0.0
  0
LINE
  5
2F9
330
2
100
AcDbEntity
  8
0000000000001
  6
Continuous
 62
     7
100
AcDbLine
 10
83752.9529526734
 20
-5541.547801985355
 30
0.0
 11
83752.95302441829
 21
-5551.547801983492
 31
0.0
  0
LINE
  5
2FA
330
2
100
AcDbEntity
  8
0000000000001
  6
Continuous
 62
     7
100
AcDbLine
 10
83752.95302441829
 20
-5551.547801983492
 30
0.0
 11
83752.95302441829
 21
-5561.547801993619
 31
0.0
  0
SPLINE
  5
2FB
330
2
100
AcDbEntity
  8
0000000000001
  6
Continuous
 62
     7
100
AcDbSpline
210
0.0
220
0.0
230
1.0
 70
     8
 71
     3
 72
    29
 73
    25
 74
    23
 42
0.0000000001
 43
0.0000000001
 44
0.0000000001
 12
0.0000001785101045
 22
-0.999999999999984
 32
0.0
 13
-0.9999999999964044
 23
-0.0000026816456182
 33
0.0
 40
0.0
 40
0.0
 40
0.0
 40
0.0
 40
3.381151086302061
 40
16.73033689975325
 40
30.14828125562105
 40
43.50120222219318
 40
56.88861435686756
 40
70.25314390368345
 40
83.60797110304753
 40
96.98891246900945
 40
110.3418723941059
 40
123.6867079194184
 40
137.0354477908779
 40
150.3921770352303
 40
163.7306157104373
 40
177.117396796664
 40
190.4273447685554
 40
203.805123210439
 40
217.1642776578865
 40
230.5356878492949
 40
243.926775539896
 40
257.282837067518
 40
270.6945740565625
 40
274.0583737477583
 40
274.0583737477583
 40
274.0583737477583
 40
274.0583737477583
 10
83752.95302254635
 20
-5651.547801983608
 30
0.0
 10
83752.95302274754
 20
-5652.674852345709
 30
0.0
 10
83752.95302548321
 20
-5658.251631669148
 30
0.0
 10
83752.95305534155
 20
-5668.301053033533
 30
0.0
 10
83752.95290913211
 20
-5681.674428045607
 30
0.0
 10
83752.95345260141
 20
-5695.0604298869
 30
0.0
 10
83752.95142277822
 20
-5708.429055740317
 30
0.0
 10
83752.95898815885
 20
-5721.796717869187
 30
0.0
 10
83752.93076589942
 20
-5735.168187354938
 30
0.0
 10
83753.03620392491
 20
-5748.513524829347
 30
0.0
 10
83752.64341598521
 20
-5761.938564765802
 30
0.0
 10
83748.75450087561
 20
-5774.864170068924
 30
0.0
 10
83742.24839111217
 20
-5786.629683605327
 30
0.0
 10
83733.26417714112
 20
-5796.660185984756
 30
0.0
 10
83722.28359570693
 20
-5804.458256582382
 30
0.0
 10
83709.86587183706
 20
-5809.65101780111
 30
0.0
 10
83696.5751643142
 20
-5811.881082328015
 30
0.0
 10
83683.2088043365
 20
-5811.458449662563
 30
0.0
 10
83669.84402134171
 20
-5811.571753222185
 30
0.0
 10
83656.46888631673
 20
-5811.541370568654
 30
0.0
 10
83643.096369022
 20
-5811.54952179817
 30
0.0
 10
83629.7099827051
 20
-5811.547336931326
 30
0.0
 10
83619.66613785893
 20
-5811.547786599895
 30
0.0
 10
83614.0742909825
 20
-5811.547826418538
 30
0.0
 10
83612.95302441876
 20
-5811.547829425377
 30
0.0
 11
83752.95302254635
 21
-5651.547801983608
 31
0.0
 11
83752.95302441829
 21
-5654.92895306991
 31
0.0
 11
83752.95302441829
 21
-5668.278138883361
 31
0.0
 11
83752.95302441829
 21
-5681.696083239229
 31
0.0
 11
83752.95302441829
 21
-5695.049004205801
 31
0.0
 11
83752.95302441829
 21
-5708.436416340475
 31
0.0
 11
83752.95302441829
 21
-5721.800945887292
 31
0.0
 11
83752.95302441829
 21
-5735.155773086655
 31
0.0
 11
83752.95302441829
 21
-5748.536714452617
 31
0.0
 11
83752.06023888356
 21
-5761.859794905358
 31
0.0
 11
83748.31897772752
 21
-5774.669463135251
 31
0.0
 11
83741.83659817775
 21
-5786.338550997148
 31
0.0
 11
83732.92863834064
 21
-5796.290961139785
 31
0.0
 11
83722.05573629177
 21
-5804.017146959966
 31
0.0
 11
83709.69785581829
 21
-5809.163864171314
 31
0.0
 11
83696.58360161501
 21
-5811.437858829689
 31
0.0
 11
83683.20627495597
 21
-5811.547801984889
 31
0.0
 11
83669.84712050852
 21
-5811.547801984889
 31
0.0
 11
83656.47571031711
 21
-5811.547801978952
 31
0.0
 11
83643.08462262652
 21
-5811.547801990709
 31
0.0
 11
83629.72856109889
 21
-5811.547801978952
 31
0.0
 11
83616.31682410985
 21
-5811.547801984889
 31
0.0
 11
83612.95302441876
 21
-5811.547829425377
 31
0.0
  0
LINE
  5
2FC
330
2
100
AcDbEntity
  8
TIAOMIAM
  6
Continuous
 62
     7
100
AcDbLine
 10
83592.95303435027
 20
-5447.98823867314
 30
0.0
 11
83592.95302441887
 21
-5447.549298161473
 31
0.0
  0
LINE
  5
2FD
330
2
100
AcDbEntity
  8
0000000000001
  6
Continuous
 62
     7
100
AcDbLine
 10
83612.95302441876
 20
-5447.547803583272
 30
0.0
 11
83609.65717407383
 21
-5447.547882309133
 31
0.0
  0
LINE
  5
2FE
330
2
100
AcDbEntity
  8
0000000000001
  6
Continuous
 62
     7
100
AcDbLine
 10
83609.65717407383
 20
-5447.547882309133
 30
0.0
 11
83596.25750193497
 21
-5447.549220594759
 31
0.0
  0
LINE
  5
2FF
330
2
100
AcDbEntity
  8
0000000000001
  6
Continuous
 62
     7
100
AcDbLine
 10
83596.25750193497
 20
-5447.549220594759
 30
0.0
 11
83593.95303041486
 21
-5447.549296464138
 31
0.0
  0
LINE
  5
300
330
2
100
AcDbEntity
  8
0000000000001
  6
Continuous
 62
     7
100
AcDbLine
 10
83593.95303041486
 20
-5447.549296464138
 30
0.0
 11
83592.95302441887
 21
-5447.549299817365
 31
0.0
  0
LINE
  5
301
330
2
100
AcDbEntity
  8
0000000000001
  6
Continuous
 62
     7
100
AcDbLine
 10
83612.95303780465
 20
-5447.54780178547
 30
0.0
 11
83612.95303789104
 21
-5447.988291218127
 31
0.0
  0
LINE
  5
302
330
2
100
AcDbEntity
  8
06___PRT_ALL_SURFS
  6
Continuous
 62
     7
100
AcDbLine
 10
83154.18472955375
 20
-5497.185586363441
 30
0.0
 11
83151.34126261185
 21
-5497.185646950078
 31
0.0
  0
LINE
  5
303
330
2
100
AcDbEntity
  8
06___PRT_ALL_SURFS
  6
Continuous
 62
     7
100
AcDbLine
 10
83154.17892413243
 20
-5497.185415583998
 30
0.0
 11
83168.72709484043
 21
-5497.185488172123
 31
0.0
  0
SPLINE
  5
304
330
2
100
AcDbEntity
  8
06___PRT_ALL_SURFS
  6
Continuous
 62
     7
100
AcDbSpline
210
0.0
220
0.0
230
1.0
 70
     8
 71
     3
 72
    10
 73
     6
 74
     4
 42
0.0000000001
 43
0.0000000001
 44
0.0000000001
 12
0.9999999775440391
 22
-0.0002119243289618
 32
0.0
 13
0.999999793249141
 23
-0.0006430409592902
 33
0.0
 40
0.0
 40
0.0
 40
0.0
 40
0.0
 40
60.62015081947738
 40
119.0990671490606
 40
175.4518301054911
 40
175.4518301054911
 40
175.4518301054911
 40
175.4518301054911
 10
83168.72709484043
 20
-5497.185488172123
 30
0.0
 10
83188.93381132649
 20
-5497.189770467051
 30
0.0
 10
83228.63350160167
 20
-5497.181453606913
 30
0.0
 10
83287.11744226128
 20
-5497.192322936017
 30
0.0
 10
83325.39467450922
 20
-5497.17336533508
 30
0.0
 10
83344.17892494437
 20
-5497.185444379997
 30
0.0
 11
83168.72709484043
 21
-5497.185488172123
 31
0.0
 11
83229.3472456598
 21
-5497.185370214531
 31
0.0
 11
83287.82616198848
 21
-5497.185693185704
 31
0.0
 11
83344.17892494437
 21
-5497.185444379997
 31
0.0
  0
LINE
  5
305
330
2
100
AcDbEntity
  8
06___PRT_ALL_SURFS
  6
Continuous
 62
     7
100
AcDbLine
 10
83134.178873081
 20
-5497.18561914975
 30
0.0
 11
83151.3412691066
 21
-5497.185244309265
 31
0.0
  0
SPLINE
  5
306
330
2
100
AcDbEntity
  8
06___PRT_ALL_SURFS
  6
Continuous
 62
     7
100
AcDbSpline
210
0.0
220
0.0
230
1.0
 70
     8
 71
     3
 72
    13
 73
     9
 74
     0
 42
0.0000000001
 43
0.0000000001
 40
2.233762542779173
 40
2.233762542779173
 40
2.233762542779173
 40
2.233762542779173
 40
3.746704796302974
 40
7.935131500846654
 40
12.49200059818712
 40
17.32864961051674
 40
22.37349288227065
 40
27.55885368679467
 40
27.55885368679467
 40
27.55885368679467
 40
27.55885368679467
 10
83103.0749834835
 20
-5511.348688835686
 30
0.0
 10
83103.21444363571
 20
-5510.863685351592
 30
0.0
 10
83103.79090838846
 20
-5509.052667407836
 30
0.0
 10
83105.41427637497
 20
-5506.004033688638
 30
0.0
 10
83108.32292381075
 20
-5502.490631358451
 30
0.0
 10
83112.23113396231
 20
-5499.599981852306
 30
0.0
 10
83116.91805797073
 20
-5497.641226081876
 30
0.0
 10
83120.34394771254
 20
-5497.230058860449
 30
0.0
 10
83122.07183030498
 20
-5497.185633650617
 30
0.0
  0
LINE
  5
307
330
2
100
AcDbEntity
  8
06___PRT_ALL_SURFS
  6
Continuous
 62
     7
100
AcDbLine
 10
83122.07183237006
 20
-5497.186308950258
 30
0.0
 11
83134.178882766
 21
-5497.185016961491
 31
0.0
  0
LINE
  5
308
330
2
100
AcDbEntity
  8
06___PRT_ALL_SURFS
  6
Continuous
 62
     7
100
AcDbLine
 10
83626.28601357137
 20
-5497.186308950258
 30
0.0
 11
83614.1789631754
 21
-5497.185016961491
 31
0.0
  0
SPLINE
  5
309
330
2
100
AcDbEntity
  8
06___PRT_ALL_SURFS
  6
Continuous
 62
     7
100
AcDbSpline
210
0.0
220
0.0
230
1.0
 70
     8
 71
     3
 72
    13
 73
     9
 74
     0
 42
0.0000000001
 43
0.0000000001
 40
2.542247707783699
 40
2.542247707783699
 40
2.542247707783699
 40
2.542247707783699
 40
3.746704796989734
 40
7.935131500383197
 40
12.49200059936473
 40
17.32864960963849
 40
22.3734928813924
 40
27.55885368603178
 40
27.55885368603178
 40
27.55885368603178
 40
27.55885368603178
 10
83645.19579039614
 20
-5511.052599620998
 30
0.0
 10
83645.08006676123
 20
-5510.66804855605
 30
0.0
 10
83644.51811971791
 20
-5508.96098906477
 30
0.0
 10
83642.94356956769
 20
-5506.004033686811
 30
0.0
 10
83640.03492212775
 20
-5502.490631360386
 30
0.0
 10
83636.12671197916
 20
-5499.599981851322
 30
0.0
 10
83631.43978797047
 20
-5497.641226082072
 30
0.0
 10
83628.01389822884
 20
-5497.230058860449
 30
0.0
 10
83626.28601563635
 20
-5497.185633650617
 30
0.0
  0
LINE
  5
30A
330
2
100
AcDbEntity
  8
06___PRT_ALL_SURFS
  6
Continuous
 62
     7
100
AcDbLine
 10
83614.17897286045
 20
-5497.18561914975
 30
0.0
 11
83597.01657683222
 21
-5497.185244309265
 31
0.0
  0
LINE
  5
30B
330
2
100
AcDbEntity
  8
06___PRT_ALL_SURFS
  6
Continuous
 62
     7
100
AcDbLine
 10
83594.17892180902
 20
-5497.185415583998
 30
0.0
 11
83579.63075110101
 21
-5497.185488172123
 31
0.0
  0
SPLINE
  5
30C
330
2
100
AcDbEntity
  8
06___PRT_ALL_SURFS
  6
Continuous
 62
     7
100
AcDbSpline
210
0.0
220
0.0
230
1.0
 70
     8
 71
     3
 72
    10
 73
     6
 74
     4
 42
0.0000000001
 43
0.0000000001
 44
0.0000000001
 12
-0.9999999775440391
 22
-0.0002119243289618
 32
0.0
 13
-0.999999793249141
 23
-0.0006430409592902
 33
0.0
 40
0.0
 40
0.0
 40
0.0
 40
0.0
 40
60.62015081947738
 40
119.0990671491188
 40
175.4518301054911
 40
175.4518301054911
 40
175.4518301054911
 40
175.4518301054911
 10
83579.63075110101
 20
-5497.185488172123
 30
0.0
 10
83559.42403461494
 20
-5497.189770467051
 30
0.0
 10
83519.72434433974
 20
-5497.181453606913
 30
0.0
 10
83461.24040368016
 20
-5497.192322936017
 30
0.0
 10
83422.96317143221
 20
-5497.17336533508
 30
0.0
 10
83404.17892099708
 20
-5497.185444379997
 30
0.0
 11
83579.63075110101
 21
-5497.185488172123
 31
0.0
 11
83519.01060028165
 21
-5497.185370214531
 31
0.0
 11
83460.5316839529
 21
-5497.185693185704
 31
0.0
 11
83404.17892099708
 21
-5497.185444379997
 31
0.0
  0
LINE
  5
30D
330
2
100
AcDbEntity
  8
06___PRT_ALL_SURFS
  6
Continuous
 62
     7
100
AcDbLine
 10
83594.17311638756
 20
-5497.185586363441
 30
0.0
 11
83597.01658332959
 21
-5497.185646950078
 31
0.0
  0
LINE
  5
30E
330
2
100
AcDbEntity
  8
尺寸标注
 62
     0
100
AcDbLine
 10
83103.0749834835
 20
-5511.348688835686
 30
0.0
 11
83645.19579039614
 21
-5511.052599620998
 31
0.0
  0
LINE
  5
30F
330
2
100
AcDbEntity
  8
尺寸标注
 62
     0
100
AcDbLine
 10
83344.17892494437
 20
-5497.185444379997
 30
0.0
 11
83404.17892099708
 21
-5497.185444379997
 31
0.0
  0
LINE
  5
310
330
2
100
AcDbEntity
  8
0
  6
Continuous
 62
     7
100
AcDbLine
 10
83045.18109757601
 20
-4802.562552383708
 30
0.0
 11
83046.30832642139
 21
-4818.68267591235
 31
0.0
  0
LINE
  5
311
330
2
100
AcDbEntity
  8
0
  6
Continuous
 62
     7
100
AcDbLine
 10
83056.28914862635
 20
-4827.983447458086
 30
0.0
 11
83054.23646091318
 21
-4798.587687791282
 31
0.0
  0
LINE
  5
312
330
2
100
AcDbEntity
  8
0
  6
Continuous
 62
     7
100
AcDbLine
 10
83056.29302932214
 20
-4827.983447458086
 30
0.0
 11
83056.29302932214
 21
-4828.049078482625
 31
0.0
  0
LWPOLYLINE
  5
313
330
2
100
AcDbEntity
  8
0
  6
Continuous
 62
     7
100
AcDbPolyline
 90
        5
 70
     0
 43
0.0
 10
83046.30819605847
 20
-4818.680135993476
 10
83047.19734475515
 20
-4822.178324204476
 10
83049.39639338977
 20
-4825.274729755081
 10
83052.57243784794
 20
-4827.326737557378
 10
83056.29302914693
 20
-4828.048835445035
  0
LINE
  5
314
330
2
100
AcDbEntity
  8
0
  6
Continuous
 62
     7
100
AcDbLine
 10
83124.57939603339
 20
-4827.983447458086
 30
0.0
 11
83124.57939603339
 21
-4828.049078435361
 31
0.0
  0
LINE
  5
315
330
2
100
AcDbEntity
  8
0
  6
Continuous
 62
     7
100
AcDbLine
 10
83131.92320184104
 20
-4827.492523365959
 30
0.0
 11
83131.92320184104
 21
-4827.558154378741
 31
0.0
  0
LINE
  5
316
330
2
100
AcDbEntity
  8
0
  6
Continuous
 62
     7
100
AcDbLine
 10
83201.39759536854
 20
-4827.492523365959
 30
0.0
 11
83201.39759575456
 21
-4827.558154378741
 31
0.0
  0
LINE
  5
317
330
2
100
AcDbEntity
  8
0
  6
Continuous
 62
     7
100
AcDbLine
 10
83201.40017729878
 20
-4827.492523365959
 30
0.0
 11
83202.04633539434
 21
-4818.235486275356
 31
0.0
  0
LINE
  5
318
330
2
100
AcDbEntity
  8
0
  6
Continuous
 62
     7
100
AcDbLine
 10
83329.57227483015
 20
-4805.474388975373
 30
0.0
 11
83329.5722635983
 21
-4805.474266877121
 31
0.0
  0
LINE
  5
319
330
2
100
AcDbEntity
  8
06___PRT_ALL_SURFS
  6
Continuous
 62
     7
100
AcDbLine
 10
83329.57231351951
 20
-4805.474822168427
 30
0.0
 11
83333.5768416115
 21
-4850.035021141128
 31
0.0
  0
LINE
  5
31A
330
2
100
AcDbEntity
  8
0000000000001
  6
Continuous
 62
     7
100
AcDbLine
 10
83665.8269566756
 20
-4799.182329164425
 30
0.0
 11
83668.35253424824
 21
-4798.587687791282
 31
0.0
  0
LWPOLYLINE
  5
31B
330
2
100
AcDbEntity
  8
0
  6
Continuous
 62
     7
100
AcDbPolyline
 90
        5
 70
     0
 43
0.0
 10
83689.61326817315
 20
-4828.048835403708
 10
83692.99237462305
 20
-4827.457138684767
 10
83696.2445739682
 20
-4825.519552609257
 10
83698.55555575979
 20
-4822.499124525304
 10
83699.58049418228
 20
-4818.899045002603
  0
LWPOLYLINE
  5
31C
330
2
100
AcDbEntity
  8
0000000000001
  6
Continuous
 62
     7
100
AcDbPolyline
 90
        3
 70
     0
 43
0.0
 10
83216.4484766789
 20
-4820.384053205562
 10
83278.19249174799
 20
-4826.691349637535
 10
83331.7306416691
 20
-4829.487775757865
  0
LINE
  5
31D
330
2
100
AcDbEntity
  8
0000000000001
  6
Continuous
 62
     7
100
AcDbLine
 10
83100.27469272524
 20
-4803.243382787172
 30
0.0
 11
83136.00451859841
 21
-4808.388328028915
 31
0.0
  0
LINE
  5
31E
330
2
100
AcDbEntity
  8
0000000000001
  6
Continuous
 62
     7
100
AcDbLine
 10
83136.00451859841
 20
-4808.388328028915
 30
0.0
 11
83216.4484766789
 21
-4820.384053205562
 31
0.0
  0
LINE
  5
31F
330
2
100
AcDbEntity
  8
0000000000001
  6
Continuous
 62
     7
100
AcDbLine
 10
83131.14156463111
 20
-4807.685278884673
 30
0.0
 11
83131.14123478424
 21
-4807.685226369256
 31
0.0
  0
LWPOLYLINE
  5
320
330
2
100
AcDbEntity
  8
0000000000001
  6
Continuous
 62
     7
100
AcDbPolyline
 90
        5
 70
     0
 43
0.0
 10
83080.07933928058
 20
-4799.182329170363
 10
83083.32350687656
 20
-4799.716093145849
 10
83086.13808171728
 20
-4800.215830805449
 10
83088.1042230165
 20
-4800.617852305972
 10
83091.25862044366
 20
-4801.340090955899
  0
LWPOLYLINE
  5
321
330
2
100
AcDbEntity
  8
0000000000001
  6
Continuous
 62
     7
100
AcDbPolyline
 90
        3
 70
     0
 43
0.0
 10
83096.90299895555
 20
-4802.667467418316
 10
83099.02786509189
 20
-4803.048380836335
 10
83100.27471494509
 20
-4803.243386063448
  0
LINE
  5
322
330
2
100
AcDbEntity
  8
0
  6
Continuous
 62
     7
100
AcDbLine
 10
83096.90299895555
 20
-4802.667467418316
 30
0.0
 11
83096.89248157756
 21
-4802.66543332122
 31
0.0
  0
LINE
  5
323
330
2
100
AcDbEntity
  8
0000000000001
  6
Continuous
 62
     7
100
AcDbLine
 10
83095.76426242173
 20
-4802.438987882531
 30
0.0
 11
83096.89248155462
 21
-4802.665433315284
 31
0.0
  0
LINE
  5
324
330
2
100
AcDbEntity
  8
0000000000001
  6
Continuous
 62
     7
100
AcDbLine
 10
83093.10564049994
 20
-4801.843373495692
 30
0.0
 11
83095.76426242173
 21
-4802.438987882531
 31
0.0
  0
LINE
  5
325
330
2
100
AcDbEntity
  8
0
  6
Continuous
 62
     7
100
AcDbLine
 10
83093.93560520277
 20
-4802.031366761497
 30
0.0
 11
83093.11035807242
 21
-4801.844503440618
 31
0.0
  0
LINE
  5
326
330
2
100
AcDbEntity
  8
0000000000001
  6
Continuous
 62
     7
100
AcDbLine
 10
83077.55376168511
 20
-4798.587687791282
 30
0.0
 11
83080.07933928058
 21
-4799.182329170363
 31
0.0
  0
LINE
  5
327
330
2
100
AcDbEntity
  8
0
  6
Continuous
 62
     7
100
AcDbLine
 10
83326.94017180635
 20
-4801.536388709749
 30
0.0
 11
83328.14667727749
 21
-4802.419239034017
 31
0.0
  0
LINE
  5
328
330
2
100
AcDbEntity
  8
0
  6
Continuous
 62
     7
100
AcDbLine
 10
83328.14667727749
 20
-4802.419239034017
 30
0.0
 11
83329.2254336696
 21
-4804.046304391886
 31
0.0
  0
LINE
  5
329
330
2
100
AcDbEntity
  8
0
  6
Continuous
 62
     7
100
AcDbLine
 10
83329.2254336696
 20
-4804.046304391886
 30
0.0
 11
83329.57237077362
 21
-4805.474975166915
 31
0.0
  0
LINE
  5
32A
330
2
100
AcDbEntity
  8
0000000000001
  6
Continuous
 62
     7
100
AcDbLine
 10
83646.87843084146
 20
-4803.048380836335
 30
0.0
 11
83648.77937892682
 21
-4802.714850753233
 31
0.0
  0
LWPOLYLINE
  5
32B
330
2
100
AcDbEntity
  8
0
  6
Continuous
 62
     7
100
AcDbPolyline
 90
        5
 70
     0
 43
0.0
 10
83201.39759575969
 20
-4827.558111905076
 10
83204.80545907349
 20
-4826.955842868731
 10
83208.04776156784
 20
-4825.011924427425
 10
83210.34842224964
 20
-4821.991261945994
 10
83211.04936871162
 20
-4819.578593473955
  0
LINE
  5
32C
330
2
100
AcDbEntity
  8
0000000000001
  6
Continuous
 62
     7
100
AcDbLine
 10
83662.58278906936
 20
-4799.716093145849
 30
0.0
 11
83665.8269566756
 21
-4799.182329164425
 31
0.0
  0
LINE
  5
32D
330
2
100
AcDbEntity
  8
0000000000001
  6
Continuous
 62
     7
100
AcDbLine
 10
83614.76473130213
 20
-4807.685278884673
 30
0.0
 11
83614.765061149
 21
-4807.685226369256
 31
0.0
  0
LINE
  5
32E
330
2
100
AcDbEntity
  8
0000000000001
  6
Continuous
 62
     7
100
AcDbLine
 10
83645.63158099072
 20
-4803.243386063448
 30
0.0
 11
83646.87843084146
 21
-4803.048380836335
 31
0.0
  0
LINE
  5
32F
330
2
100
AcDbEntity
  8
0
  6
Continuous
 62
     7
100
AcDbLine
 10
83125.3675596489
 20
-4827.986569848566
 30
0.0
 11
83125.65816117832
 21
-4827.942308955899
 31
0.0
  0
LINE
  5
330
330
2
100
AcDbEntity
  8
0000000000001
  6
Continuous
 62
     7
100
AcDbLine
 10
83600.99603328468
 20
-4809.699422816702
 30
0.0
 11
83614.76484912003
 21
-4807.685264176878
 31
0.0
  0
LINE
  5
331
330
2
100
AcDbEntity
  8
0000000000001
  6
Continuous
 62
     7
100
AcDbLine
 10
83632.55181594132
 20
-4805.145623916949
 30
0.0
 11
83645.63160321067
 21
-4803.243382787172
 31
0.0
  0
LINE
  5
332
330
2
100
AcDbEntity
  8
0000000000001
  6
Continuous
 62
     7
100
AcDbLine
 10
83614.76473130213
 20
-4807.685278884673
 30
0.0
 11
83632.55181594132
 21
-4805.145623916949
 31
0.0
  0
LINE
  5
333
330
2
100
AcDbEntity
  8
0
  6
Continuous
 62
     7
100
AcDbLine
 10
83125.65816117832
 20
-4827.942308955899
 30
0.0
 11
83127.22446944025
 21
-4827.759801422319
 31
0.0
  0
LWPOLYLINE
  5
334
330
2
100
AcDbEntity
  8
0000000000001
  6
Continuous
 62
     7
100
AcDbPolyline
 90
        4
 70
     0
 43
0.0
 10
83656.55879861003
 20
-4800.30697960671
 10
83657.86925424702
 20
-4800.199539148904
 10
83659.76821422353
 20
-4800.036238348534
 10
83662.58278906936
 20
-4799.716093145849
  0
LINE
  5
335
330
2
100
AcDbEntity
  8
0
  6
Continuous
 62
     7
100
AcDbLine
 10
83127.22446944025
 20
-4827.759801422319
 30
0.0
 11
83129.19290022014
 21
-4827.623259935601
 31
0.0
  0
LWPOLYLINE
  5
336
330
2
100
AcDbEntity
  8
0000000000001
  6
Continuous
 62
     7
100
AcDbPolyline
 90
        4
 70
     0
 43
0.0
 10
83414.1756542972
 20
-4829.487775403031
 10
83467.71380549339
 20
-4826.691349537068
 10
83529.45781983596
 20
-4820.384053128727
 10
83600.99603328468
 20
-4809.699422816702
  0
LINE
  5
337
330
2
100
AcDbEntity
  8
0
  6
Continuous
 62
     7
100
AcDbLine
 10
83129.19290022014
 20
-4827.623259935601
 30
0.0
 11
83131.45218403274
 21
-4827.560060286153
 31
0.0
  0
LINE
  5
338
330
2
100
AcDbEntity
  8
0
  6
Continuous
 62
     7
100
AcDbLine
 10
83620.52509480806
 20
-4827.98436810421
 30
0.0
 11
83689.61326780993
 21
-4828.049078482625
 31
0.0
  0
LINE
  5
339
330
2
100
AcDbEntity
  8
0
  6
Continuous
 62
     7
100
AcDbLine
 10
83131.45218403274
 20
-4827.560060286153
 30
0.0
 11
83201.39759568855
 21
-4827.558154378741
 31
0.0
  0
LINE
  5
33A
330
2
100
AcDbEntity
  8
0
  6
Continuous
 62
     7
100
AcDbLine
 10
83544.50870056481
 20
-4827.558154378741
 30
0.0
 11
83613.98309581945
 21
-4827.558154378741
 31
0.0
  0
LINE
  5
33B
330
2
100
AcDbEntity
  8
0
  6
Continuous
 62
     7
100
AcDbLine
 10
83864.97419828627
 20
-4798.587687791282
 30
0.0
 11
82880.93209764696
 21
-4798.587687791282
 31
0.0
  0
LINE
  5
33C
330
2
100
AcDbEntity
  8
0
  6
Continuous
 62
     7
100
AcDbLine
 10
83056.29302932214
 20
-4828.049078482625
 30
0.0
 11
83125.38322781408
 21
-4827.984040119408
 31
0.0
  0
LWPOLYLINE
  5
33D
330
2
100
AcDbEntity
  8
0
  6
Continuous
 62
     7
100
AcDbPolyline
 90
        3
 70
     0
 43
0.0
 10
83613.98309613191
 20
-4827.558067468068
 10
83614.67573800029
 20
-4827.562279198624
 10
83617.20966022739
 20
-4827.649656136011
  0
LWPOLYLINE
  5
33E
330
2
100
AcDbEntity
  8
0
  6
Continuous
 62
     7
100
AcDbPolyline
 90
        3
 70
     0
 43
0.0
 10
83617.20966022739
 20
-4827.649656136011
 10
83619.32796105797
 20
-4827.825275107592
 10
83620.54076697628
 20
-4827.986882498677
  0
LINE
  5
33F
330
2
100
AcDbEntity
  8
0
  6
Continuous
 62
     7
100
AcDbLine
 10
83620.52509480806
 20
-4827.98436810421
 30
0.0
 11
83620.51797072016
 21
-4827.983207300611
 31
0.0
  0
LINE
  5
340
330
2
100
AcDbEntity
  8
0
  6
Continuous
 62
     7
100
AcDbLine
 10
83326.18385922451
 20
-4801.231674630152
 30
0.0
 11
83326.94017180635
 21
-4801.536388709749
 31
0.0
  0
LINE
  5
341
330
2
100
AcDbEntity
  8
06___PRT_ALL_SURFS
  6
Continuous
 62
     7
100
AcDbLine
 10
83412.32945473082
 20
-4850.035016587426
 30
0.0
 11
83416.33398237577
 21
-4805.474822606149
 31
0.0
  0
LINE
  5
342
330
2
100
AcDbEntity
  8
0
  6
Continuous
 62
     7
100
AcDbLine
 10
83416.3340323198
 20
-4805.474267024969
 30
0.0
 11
83416.33402020656
 21
-4805.474398538194
 31
0.0
  0
LWPOLYLINE
  5
343
330
2
100
AcDbEntity
  8
0
  6
Continuous
 62
     7
100
AcDbPolyline
 90
        6
 70
     0
 43
0.0
 10
83416.33392140813
 20
-4805.474983783511
 10
83416.75030494164
 20
-4803.884174697174
 10
83417.95281785794
 20
-4802.2359979108
 10
83419.15360169458
 20
-4801.445308838228
 10
83419.76888271698
 20
-4801.258707350068
 10
83419.84208523259
 20
-4801.255018277283
  0
LINE
  5
344
330
2
100
AcDbEntity
  8
0
  6
Continuous
 62
     7
100
AcDbLine
 10
83125.38322781408
 20
-4827.984040119408
 30
0.0
 11
83125.3883251268
 21
-4827.983207312369
 31
0.0
  0
LWPOLYLINE
  5
345
330
2
100
AcDbEntity
  8
0
  6
Continuous
 62
     7
100
AcDbPolyline
 90
        5
 70
     0
 43
0.0
 10
83534.83752033904
 20
-4819.58148868203
 10
83535.40189513864
 20
-4821.662982075547
 10
83537.59503958896
 20
-4824.767455632406
 10
83540.76938688519
 20
-4826.828222219789
 10
83544.50870054701
 20
-4827.558111887381
  0
LINE
  5
346
330
2
100
AcDbEntity
  8
0
  6
Continuous
 62
     7
100
AcDbLine
 10
83543.85995979976
 20
-4818.235486393635
 30
0.0
 11
83544.50611868522
 21
-4827.492523365959
 31
0.0
  0
LINE
  5
347
330
2
100
AcDbEntity
  8
0
  6
Continuous
 62
     7
100
AcDbLine
 10
83544.50870056481
 20
-4827.492523365959
 30
0.0
 11
83544.50870056481
 21
-4827.558154378741
 31
0.0
  0
LINE
  5
348
330
2
100
AcDbEntity
  8
0
  6
Continuous
 62
     7
100
AcDbLine
 10
83613.98309409477
 20
-4827.492523365959
 30
0.0
 11
83613.98309616742
 21
-4827.558154378741
 31
0.0
  0
LINE
  5
349
330
2
100
AcDbEntity
  8
0
  6
Continuous
 62
     7
100
AcDbLine
 10
83621.32689990239
 20
-4827.983447458086
 30
0.0
 11
83621.32689990239
 21
-4828.049078435361
 31
0.0
  0
LINE
  5
34A
330
2
100
AcDbEntity
  8
0000000000001
  6
Continuous
 62
     7
100
AcDbLine
 10
83645.63160321067
 20
-4803.243382787172
 30
0.0
 11
83645.64960604985
 21
-4803.232935986205
 31
0.0
  0
LINE
  5
34B
330
2
100
AcDbEntity
  8
0
  6
Continuous
 62
     7
100
AcDbLine
 10
83689.61326661109
 20
-4827.983447458086
 30
0.0
 11
83689.61326807408
 21
-4828.049078482625
 31
0.0
  0
LINE
  5
34C
330
2
100
AcDbEntity
  8
0
  6
Continuous
 62
     7
100
AcDbLine
 10
83691.66983516244
 20
-4798.587687791282
 30
0.0
 11
83689.61714784285
 21
-4827.983447458086
 31
0.0
  0
LINE
  5
34D
330
2
100
AcDbEntity
  8
0
  6
Continuous
 62
     7
100
AcDbLine
 10
83699.59796951185
 20
-4818.682675924108
 30
0.0
 11
83700.72519835723
 21
-4802.562552383708
 31
0.0
  0
LINE
  5
34E
330
2
100
AcDbEntity
  8
0
  6
Continuous
 62
     7
100
AcDbLine
 10
83699.58049418228
 20
-4818.899045002603
 30
0.0
 11
83699.59809987989
 21
-4818.680135993476
 31
0.0
  0
LINE
  5
34F
330
2
100
AcDbEntity
  8
0
  6
Continuous
 62
     7
100
AcDbLine
 10
83699.58054901587
 20
-4818.89768550983
 30
0.0
 11
83699.59797155656
 21
-4818.682642161686
 31
0.0
  0
ARC
  5
350
330
2
100
AcDbEntity
  8
0
  6
Continuous
 62
     7
100
AcDbCircle
 10
83208.34996098627
 20
-26335.97819451273
 30
0.0
 40
21534.80505797964
100
AcDbArc
 50
89.93806035408125
 51
90.13940777697182
  0
ARC
  5
351
330
2
100
AcDbEntity
  8
0
  6
Continuous
 62
     7
100
AcDbCircle
 10
83131.91064857688
 20
-4889.351802964651
 30
0.0
 40
61.85928087351999
100
AcDbArc
 50
89.98837281848517
 51
92.54645774427151
  0
ARC
  5
352
330
2
100
AcDbEntity
  8
0
  6
Continuous
 62
     7
100
AcDbCircle
 10
83100.30036919153
 20
-4771.753128340657
 30
0.0
 40
30.9384517374
100
AcDbArc
 50
254.8204412298527
 51
256.5617460165512
  0
ARC
  5
353
330
2
100
AcDbEntity
  8
0
  6
Continuous
 62
     7
100
AcDbCircle
 10
83099.87036987624
 20
-4773.324918294514
 30
0.0
 40
29.30890867188
100
AcDbArc
 50
252.9127860322181
 51
254.8271494130591
  0
ARC
  5
354
330
2
100
AcDbEntity
  8
0
  6
Continuous
 62
     7
100
AcDbCircle
 10
83056.28431493774
 20
-4817.983010298529
 30
0.0
 40
10.00045225204
100
AcDbArc
 50
184.0116743882899
 51
270.0276921634682
  0
ARC
  5
355
330
2
100
AcDbEntity
  8
0
  6
Continuous
 62
     7
100
AcDbCircle
 10
83040.19327330994
 20
-4802.911338022517
 30
0.0
 40
5.00000140968
100
AcDbArc
 50
4.000034161942039
 51
29.81783084537442
  0
ARC
  5
356
330
2
100
AcDbEntity
  8
0
  6
Continuous
 62
     7
100
AcDbCircle
 10
83124.57941224121
 20
-4823.059202580669
 30
0.0
 40
4.989914259419999
100
AcDbArc
 50
269.9998138781789
 51
279.3291913631284
  0
ARC
  5
357
330
2
100
AcDbEntity
  8
0
  6
Continuous
 62
     7
100
AcDbCircle
 10
83201.40666112639
 20
-4817.49274283841
 30
0.0
 40
9.999758992059998
100
AcDbArc
 50
269.9628506518623
 51
347.8123830814919
  0
ARC
  5
358
330
2
100
AcDbEntity
  8
0
  6
Continuous
 62
     7
100
AcDbCircle
 10
83338.5568476255
 20
-4849.587687784645
 30
0.0
 40
4.999999999979999
100
AcDbArc
 50
185.1329592469981
 51
269.9999999958312
  0
ARC
  5
359
330
2
100
AcDbEntity
  8
0
  6
Continuous
 62
     7
100
AcDbCircle
 10
83537.55379864791
 20
-26339.9363713732
 30
0.0
 40
21538.76323138662
100
AcDbArc
 50
89.86061109531704
 51
90.06192151322334
  0
ARC
  5
35A
330
2
100
AcDbEntity
  8
0
  6
Continuous
 62
     7
100
AcDbCircle
 10
83544.49963231266
 20
-4817.492792674879
 30
0.0
 40
9.999713739419998
100
AcDbArc
 50
192.1873307100449
 51
270.0371641074192
  0
ARC
  5
35B
330
2
100
AcDbEntity
  8
0
  6
Continuous
 62
     7
100
AcDbCircle
 10
83407.34950194738
 20
-4849.587687784645
 30
0.0
 40
4.999999999979999
100
AcDbArc
 50
270.0000000041689
 51
354.867128603981
  0
ARC
  5
35C
330
2
100
AcDbEntity
  8
0000000000001
  6
Continuous
 62
     7
100
AcDbCircle
 10
83436.84667521106
 20
-3325.013343111801
 30
0.0
 40
1492.89417162504
100
AcDbArc
 50
277.6434589855175
 51
278.0117148950237
  0
ARC
  5
35D
330
2
100
AcDbEntity
  8
0000000000001
  6
Continuous
 62
     7
100
AcDbCircle
 10
83600.94287704592
 20
-4490.020371183476
 30
0.0
 40
316.3871084208599
100
AcDbArc
 50
277.9897961227949
 51
278.123303733145
  0
ARC
  5
35E
330
2
100
AcDbEntity
  8
0000000000001
  6
Continuous
 62
     7
100
AcDbCircle
 10
83644.91331627275
 20
-4595.9694837336
 30
0.0
 40
205.34429048916
100
AcDbArc
 50
270.0130340287612
 51
270.2209553013544
  0
ARC
  5
35F
330
2
100
AcDbEntity
  8
0
  6
Continuous
 62
     7
100
AcDbCircle
 10
83616.72201746358
 20
-4429.29461334402
 30
0.0
 40
373.1449383978693
100
AcDbArc
 50
274.4548066409759
 51
276.1285505481335
  0
ARC
  5
360
330
2
100
AcDbEntity
  8
0
  6
Continuous
 62
     7
100
AcDbCircle
 10
83639.94205634748
 20
-4726.365425710406
 30
0.0
 40
76.85917625594
100
AcDbArc
 50
276.6025123748765
 51
276.7802513671547
  0
ARC
  5
361
330
2
100
AcDbEntity
  8
0
  6
Continuous
 62
     7
100
AcDbCircle
 10
83640.18214201912
 20
-4728.38129110141
 30
0.0
 40
74.82906438018
100
AcDbArc
 50
276.7799373830357
 51
277.0336348388485
  0
ARC
  5
362
330
2
100
AcDbEntity
  8
0
  6
Continuous
 62
     7
100
AcDbCircle
 10
83641.76590882111
 20
-4740.734196843419
 30
0.0
 40
62.37521390566
100
AcDbArc
 50
276.9792462956843
 51
279.1273078128014
  0
ARC
  5
363
330
2
100
AcDbEntity
  8
0
  6
Continuous
 62
     7
100
AcDbCircle
 10
83613.99771021991
 20
-4889.216836532418
 30
0.0
 40
61.72431490011999
100
AcDbArc
 50
87.51775515012772
 51
90.01356746304795
  0
ARC
  5
364
330
2
100
AcDbEntity
  8
0
  6
Continuous
 62
     7
100
AcDbCircle
 10
83643.34922385108
 20
-4750.865276996933
 30
0.0
 40
52.12126957234
100
AcDbArc
 50
279.1754695037235
 51
279.5656213715621
  0
ARC
  5
365
330
2
100
AcDbEntity
  8
0
  6
Continuous
 62
     7
100
AcDbCircle
 10
83644.12638508316
 20
-4755.438935512633
 30
0.0
 40
47.48205757061999
100
AcDbArc
 50
279.557997285133
 51
280.4999803013783
  0
ARC
  5
366
330
2
100
AcDbEntity
  8
0
  6
Continuous
 62
     7
100
AcDbCircle
 10
83645.47194667693
 20
-4762.638533796024
 30
0.0
 40
40.15780961309999
100
AcDbArc
 50
280.4842716381638
 51
281.9667309138143
  0
ARC
  5
367
330
2
100
AcDbEntity
  8
0
  6
Continuous
 62
     7
100
AcDbCircle
 10
83646.96057464716
 20
-4769.602556131736
 30
0.0
 40
33.03647297696
100
AcDbArc
 50
281.9453445745237
 51
284.1999048982614
  0
ARC
  5
368
330
2
100
AcDbEntity
  8
0
  6
Continuous
 62
     7
100
AcDbCircle
 10
83647.96713121675
 20
-4773.655727113437
 30
0.0
 40
28.86023533504
100
AcDbArc
 50
284.2365617107699
 51
285.0737474526376
  0
ARC
  5
369
330
2
100
AcDbEntity
  8
0
  6
Continuous
 62
     7
100
AcDbCircle
 10
83616.88177884344
 20
-4855.91161830358
 30
0.0
 40
28.27970699902
100
AcDbArc
 50
80.95650950194769
 51
82.58334492004751
  0
ARC
  5
36A
330
2
100
AcDbEntity
  8
0
  6
Continuous
 62
     7
100
AcDbCircle
 10
83648.90074299447
 20
-4777.043139788045
 30
0.0
 40
25.34658840756
100
AcDbArc
 50
285.0272936874907
 51
288.24336940858
  0
ARC
  5
36B
330
2
100
AcDbEntity
  8
0
  6
Continuous
 62
     7
100
AcDbCircle
 10
83650.49842337795
 20
-4781.805564462746
 30
0.0
 40
20.32340246208
100
AcDbArc
 50
288.1687227267324
 51
288.8369760574792
  0
ARC
  5
36C
330
2
100
AcDbEntity
  8
0
  6
Continuous
 62
     7
100
AcDbCircle
 10
83689.62183228866
 20
-4817.982827133339
 30
0.0
 40
10.00066602606
100
AcDbArc
 50
269.9731633861908
 51
354.7512502817186
  0
ARC
  5
36D
330
2
100
AcDbEntity
  8
0
  6
Continuous
 62
     7
100
AcDbCircle
 10
83705.71301861023
 20
-4802.911334752177
 30
0.0
 40
4.999999999979999
100
AcDbArc
 50
150.1821827486638
 51
176.0000000057637
  0
ARC
  5
36E
330
2
100
AcDbEntity
  8
0
  6
Continuous
 62
     7
100
AcDbCircle
 10
83621.32688361345
 20
-4823.059203379045
 30
0.0
 40
4.989913444079999
100
AcDbArc
 50
260.6708069926286
 51
270.000187034792
  0
LINE
  5
36F
330
2
100
AcDbEntity
  8
0
  6
Continuous
 62
     7
100
AcDbLine
 10
83155.95314811947
 20
-4801.237670353221
 30
0.0
 11
83151.12945048973
 21
-4801.251903698968
 31
0.0
  0
LINE
  5
370
330
2
100
AcDbEntity
  8
0
  6
Continuous
 62
     7
100
AcDbLine
 10
83151.12945048973
 20
-4801.251903698968
 30
0.0
 11
83148.54112416258
 21
-4801.260292333157
 31
0.0
  0
LINE
  5
371
330
2
100
AcDbEntity
  8
0
  6
Continuous
 62
     7
100
AcDbLine
 10
83148.54112416258
 20
-4801.260292333157
 30
0.0
 11
83138.32586473294
 21
-4801.299102557198
 31
0.0
  0
LINE
  5
372
330
2
100
AcDbEntity
  8
0
  6
Continuous
 62
     7
100
AcDbLine
 10
83138.32586473294
 20
-4801.299102557198
 30
0.0
 11
83135.35285910671
 21
-4801.312316388314
 31
0.0
  0
SPLINE
  5
373
330
2
100
AcDbEntity
  8
0
  6
Continuous
 62
     7
100
AcDbSpline
210
0.0
220
0.0
230
1.0
 70
     8
 71
     3
 72
    12
 73
     8
 74
     6
 42
0.0000000001
 43
0.0000000001
 44
0.0000000001
 12
-0.9999876129508709
 22
0.0049773431486201
 32
0.0
 13
-0.9999953487561501
 23
0.0030499944369885
 33
0.0
 40
0.0
 40
0.0
 40
0.0
 40
0.0
 40
3.547388653772959
 40
7.423304401951709
 40
11.64039919561872
 40
15.97061255407434
 40
20.00002636488461
 40
20.00002636488461
 40
20.00002636488461
 40
20.00002636488461
 10
83613.66856773882
 20
-4801.327233179778
 30
0.0
 10
83612.48611950145
 20
-4801.321347656241
 30
0.0
 10
83610.01171258049
 20
-4801.309583512815
 30
0.0
 10
83606.13161603112
 20
-4801.292726809034
 30
0.0
 10
83601.99057343956
 20
-4801.27640756564
 30
0.0
 10
83597.79835916956
 20
-4801.261507386236
 30
0.0
 10
83595.01183104882
 20
-4801.252572418874
 30
0.0
 10
83593.66869935914
 20
-4801.248475855638
 30
0.0
 11
83613.66856773882
 21
-4801.327233179778
 31
0.0
 11
83610.12121932928
 21
-4801.310335776491
 31
0.0
 11
83606.24534027392
 21
-4801.293470568445
 31
0.0
 11
83602.02827833461
 21
-4801.276824281158
 31
0.0
 11
83597.69809240775
 21
-4801.261411023981
 31
0.0
 11
83593.66869935914
 21
-4801.248475855638
 31
0.0
  0
LINE
  5
374
330
2
100
AcDbEntity
  8
0
  6
Continuous
 62
     7
100
AcDbLine
 10
83593.66869935914
 20
-4801.248475855638
 30
0.0
 11
83589.95314781388
 21
-4801.237670353221
 31
0.0
  0
LINE
  5
375
330
2
100
AcDbEntity
  8
0000000000001
  6
Continuous
 62
     7
100
AcDbLine
 10
83614.82396138177
 20
-4801.326774403176
 30
0.0
 11
83644.96002939759
 21
-4801.313795472102
 31
0.0
  0
LINE
  5
376
330
2
100
AcDbEntity
  8
0
  6
Continuous
 62
     7
100
AcDbLine
 10
83613.66856773882
 20
-4801.327233179778
 30
0.0
 11
83614.82396138177
 21
-4801.326774403176
 31
0.0
  0
LINE
  5
377
330
2
100
AcDbEntity
  8
0
  6
Continuous
 62
     7
100
AcDbLine
 10
83514.27612234836
 20
-4801.184698583981
 30
0.0
 11
83419.84208523259
 21
-4801.255018277283
 31
0.0
  0
LINE
  5
378
330
2
100
AcDbEntity
  8
0000000000001
  6
Continuous
 62
     7
100
AcDbLine
 10
83634.98124346996
 20
-4804.701176128772
 30
0.0
 11
83635.41382908435
 21
-4804.64305796109
 31
0.0
  0
SPLINE
  5
379
330
2
100
AcDbEntity
  8
0
  6
Continuous
 62
     7
100
AcDbSpline
210
0.0
220
0.0
230
1.0
 70
     8
 71
     3
 72
    48
 73
    44
 74
    42
 42
0.0000000001
 43
0.0000000001
 44
0.0000000001
 12
0.1137758274467657
 22
0.9935064474319247
 32
0.0
 13
-0.165467100159477
 23
-0.9862153105508014
 33
0.0
 40
0.0
 40
0.0
 40
0.0
 40
0.0
 40
0.2018791207866604
 40
0.7110396881400734
 40
1.598881578738906
 40
2.992774091606312
 40
4.833334666813515
 40
6.931844344313518
 40
9.136186997524307
 40
11.31862913081235
 40
13.38526796361992
 40
15.29647158167443
 40
17.14497423972888
 40
19.07755663827851
 40
21.14697772527076
 40
23.34420112440314
 40
25.60407083010377
 40
27.90120177298553
 40
30.37185000325972
 40
33.17534949297994
 40
36.3202307744911
 40
39.67502377248923
 40
43.06617973206162
 40
46.27626938896361
 40
49.09730247636174
 40
51.55297686681787
 40
53.85688729142004
 40
56.12430010106681
 40
58.30273141555925
 40
60.34518662765623
 40
62.24094349387097
 40
64.07658327825683
 40
65.98187368025939
 40
68.01615735187596
 40
70.16158237861872
 40
72.32809582733938
 40
74.37829736907386
 40
76.1400791482605
 40
77.39771639721165
 40
78.14939360137926
 40
78.54580454724708
 40
78.70726244386091
 40
78.7079148719813
 40
78.7079148719813
 40
78.7079148719813
 40
78.7079148719813
 10
83333.60539141201
 20
-4850.038233966989
 30
0.0
 10
83333.61304773335
 20
-4849.971377897621
 30
0.0
 10
83333.97989629004
 20
-4850.086120841776
 30
0.0
 10
83334.39626698432
 20
-4849.973706485292
 30
0.0
 10
83335.39667033708
 20
-4850.041716647534
 30
0.0
 10
83336.73604431625
 20
-4850.02106457382
 30
0.0
 10
83338.52757306074
 20
-4850.051404010445
 30
0.0
 10
83340.5706739461
 20
-4850.062937021608
 30
0.0
 10
83342.73377243244
 20
-4850.074929638813
 30
0.0
 10
83344.88454812717
 20
-4850.079467983011
 30
0.0
 10
83346.93806828086
 20
-4850.079375509864
 30
0.0
 10
83348.88015841316
 20
-4850.075397719089
 30
0.0
 10
83350.77758157881
 20
-4850.068484849608
 30
0.0
 10
83352.72772513322
 20
-4850.058796449852
 30
0.0
 10
83354.7940975049
 20
-4850.046385827102
 30
0.0
 10
83356.96955534436
 20
-4850.03211996458
 30
0.0
 10
83359.22093369246
 20
-4850.020303171546
 30
0.0
 10
83361.56347516622
 20
-4850.013290386889
 30
0.0
 10
83364.08723711178
 20
-4850.012124257254
 30
0.0
 10
83366.89357705488
 20
-4850.017639481143
 30
0.0
 10
83369.99461486932
 20
-4850.028476394258
 30
0.0
 10
83373.29156024313
 20
-4850.034655975523
 30
0.0
 10
83376.6102343929
 20
-4850.025955819422
 30
0.0
 10
83379.75097564543
 20
-4850.015558214205
 30
0.0
 10
83382.57990867772
 20
-4850.011685309235
 30
0.0
 10
83385.10678186104
 20
-4850.014955913371
 30
0.0
 10
83387.44910039777
 20
-4850.023704299122
 30
0.0
 10
83389.69897937975
 20
-4850.037119151929
 30
0.0
 10
83391.86170061587
 20
-4850.051088098883
 30
0.0
 10
83393.90054919428
 20
-4850.062655915293
 30
0.0
 10
83395.82514783494
 20
-4850.071339915249
 30
0.0
 10
83397.7040337586
 20
-4850.077144750892
 30
0.0
 10
83399.62911019533
 20
-4850.079855472378
 30
0.0
 10
83401.65742007002
 20
-4850.078586025751
 30
0.0
 10
83403.77291777288
 20
-4850.072354482508
 30
0.0
 10
83405.89323474974
 20
-4850.059740784975
 30
0.0
 10
83407.88723250696
 20
-4850.04486086586
 30
0.0
 10
83409.57343607909
 20
-4850.022096282346
 30
0.0
 10
83410.83876561651
 20
-4850.027833930543
 30
0.0
 10
83411.62519960461
 20
-4849.99906355926
 30
0.0
 10
83412.08542824363
 20
-4850.047137195943
 30
0.0
 10
83412.24559572864
 20
-4850.005567353477
 30
0.0
 10
83412.31161587995
 20
-4850.03178513992
 30
0.0
 10
83412.31157989483
 20
-4850.031999618121
 30
0.0
 11
83333.60539141201
 21
-4850.038233966989
 31
0.0
 11
83333.80671401167
 21
-4850.023254304964
 31
0.0
 11
83334.31584642754
 21
-4850.017900198421
 31
0.0
 11
83335.20368731379
 21
-4850.019235639557
 31
0.0
 11
83336.59754032755
 21
-4850.029729136571
 31
0.0
 11
83338.43802304469
 21
-4850.046658368388
 31
0.0
 11
83340.53647133449
 21
-4850.062709587466
 31
0.0
 11
83342.74078658557
 21
-4850.073700792229
 31
0.0
 11
83344.92322289126
 21
-4850.078744283019
 31
0.0
 11
83346.98986172218
 21
-4850.078656254641
 31
0.0
 11
83348.90106152682
 21
-4850.07483834245
 31
0.0
 11
83350.74955222159
 21
-4850.068187915327
 31
0.0
 11
83352.68211133065
 21
-4850.058700177309
 31
0.0
 11
83354.75149620135
 21
-4850.046457130302
 31
0.0
 11
83356.94867671675
 21
-4850.032729475948
 31
0.0
 11
83359.20851706628
 21
-4850.021210739578
 31
0.0
 11
83361.50563790518
 21
-4850.014397497012
 31
0.0
 11
83363.97628580101
 21
-4850.013111957422
 31
0.0
 11
83366.77978087214
 21
-4850.018089407779
 31
0.0
 11
83369.92464834157
 21
-4850.027410054536
 31
0.0
 11
83373.27943801504
 21
-4850.032133000161
 31
0.0
 11
83376.67058728563
 21
-4850.025397513483
 31
0.0
 11
83379.88066386522
 21
-4850.016234625902
 31
0.0
 11
83382.70169493123
 21
-4850.012857523819
 31
0.0
 11
83385.15736724374
 21
-4850.016052117062
 31
0.0
 11
83387.46126176717
 21
-4850.024611881657
 31
0.0
 11
83389.72863801984
 21
-4850.037487366892
 31
0.0
 11
83391.90702688632
 21
-4850.051086571257
 31
0.0
 11
83393.94945007862
 21
-4850.062523222717
 31
0.0
 11
83395.84518811081
 21
-4850.070973615817
 31
0.0
 11
83397.6808193697
 21
-4850.076568199045
 31
0.0
 11
83399.58610799499
 21
-4850.07917019022
 31
0.0
 11
83401.62039123402
 21
-4850.077843560793
 31
0.0
 11
83403.7658063031
 21
-4850.071306988088
 31
0.0
 11
83405.93228449238
 21
-4850.058946615274
 31
0.0
 11
83407.98241546444
 21
-4850.041936055481
 31
0.0
 11
83409.74412528108
 21
-4850.02601250571
 31
0.0
 11
83411.00173695686
 21
-4850.017992348832
 31
0.0
 11
83411.75341376194
 21
-4850.018766921668
 31
0.0
 11
83412.14978387343
 21
-4850.02445662413
 31
0.0
 11
83412.3110847878
 21
-4850.031574728157
 31
0.0
 11
83412.31157989483
 21
-4850.031999618121
 31
0.0
  0
SPLINE
  5
37A
330
2
100
AcDbEntity
  8
0
  6
Continuous
 62
     7
100
AcDbSpline
210
0.0
220
0.0
230
1.0
 70
     8
 71
     3
 72
    13
 73
     9
 74
     7
 42
0.0000000001
 43
0.0000000001
 44
0.0000000001
 12
-0.0697048219028303
 22
0.9975676607646695
 32
0.0
 13
0.5301972742496791
 23
0.847874312842541
 33
0.0
 40
0.0
 40
0.0
 40
0.0
 40
0.0
 40
0.5744720485568196
 40
1.196343082707256
 40
1.875091654604388
 40
2.675046142730619
 40
3.665980336503906
 40
4.353659637722726
 40
4.353659637722726
 40
4.353659637722726
 40
4.353659637722726
 10
83045.18109757601
 20
-4802.562552383708
 30
0.0
 10
83045.16774975207
 20
-4802.371527471157
 30
0.0
 10
83045.1871593857
 20
-4801.969767876561
 30
0.0
 10
83045.33161900629
 20
-4801.359229728682
 30
0.0
 10
83045.58442595787
 20
-4800.704596424191
 30
0.0
 10
83045.95525018626
 20
-4799.968677298193
 30
0.0
 10
83046.37440411141
 20
-4799.256351325243
 30
0.0
 10
83046.66935763769
 20
-4798.780884102932
 30
0.0
 10
83046.79089286803
 20
-4798.58652889794
 30
0.0
 11
83045.18109757601
 21
-4802.562552383708
 31
0.0
 11
83045.20316716105
 21
-4801.988504417081
 31
0.0
 11
83045.34011478917
 21
-4801.381899990563
 31
0.0
 11
83045.57912365577
 21
-4800.746624943407
 31
0.0
 11
83045.93334809851
 21
-4800.029371691591
 31
0.0
 11
83046.42954953687
 21
-4799.17162189768
 31
0.0
 11
83046.79089286803
 21
-4798.58652889794
 31
0.0
  0
SPLINE
  5
37B
330
2
100
AcDbEntity
  8
0
  6
Continuous
 62
     7
100
AcDbSpline
210
0.0
220
0.0
230
1.0
 70
     8
 71
     3
 72
     8
 73
     4
 74
     2
 42
0.0000000001
 43
0.0000000001
 44
0.0000000001
 12
0.9875000594317572
 22
0.1576186303146801
 32
0.0
 13
0.994100633719101
 23
0.10846165239052
 33
0.0
 40
0.0
 40
0.0
 40
0.0
 40
0.0
 40
1.525512118397679
 40
1.525512118397679
 40
1.525512118397679
 40
1.525512118397679
 10
83124.57939603339
 20
-4827.983447458086
 30
0.0
 10
83125.08154380259
 20
-4827.903297747876
 30
0.0
 10
83125.58618688035
 20
-4827.838223624304
 30
0.0
 10
83126.09169106822
 20
-4827.783070435937
 30
0.0
 11
83124.57939603339
 21
-4827.983447458086
 31
0.0
 11
83126.09169106822
 21
-4827.783070435937
 31
0.0
  0
SPLINE
  5
37C
330
2
100
AcDbEntity
  8
0
  6
Continuous
 62
     7
100
AcDbSpline
210
0.0
220
0.0
230
1.0
 70
     8
 71
     3
 72
     9
 73
     5
 74
     3
 42
0.0000000001
 43
0.0000000001
 44
0.0000000001
 12
0.9941006347956157
 22
0.1084616425237683
 32
0.0
 13
0.9989930439248199
 23
0.0448653339430651
 33
0.0
 40
0.0
 40
0.0
 40
0.0
 40
0.0
 40
1.556627475063638
 40
3.079528443201889
 40
3.079528443201889
 40
3.079528443201889
 40
3.079528443201889
 10
83126.09169106822
 20
-4827.783070435937
 30
0.0
 10
83126.60750585527
 20
-4827.726792311689
 30
0.0
 10
83127.63023244446
 20
-4827.635836171232
 30
0.0
 10
83128.655152766
 20
-4827.576381750231
 30
0.0
 10
83129.16227525725
 20
-4827.553606596731
 30
0.0
 11
83126.09169106822
 21
-4827.783070435937
 31
0.0
 11
83127.64199369537
 21
-4827.642888909394
 31
0.0
 11
83129.16227525725
 21
-4827.553606596731
 31
0.0
  0
SPLINE
  5
37D
330
2
100
AcDbEntity
  8
0
  6
Continuous
 62
     7
100
AcDbSpline
210
0.0
220
0.0
230
1.0
 70
     8
 71
     3
 72
    11
 73
     7
 74
     5
 42
0.0000000001
 43
0.0000000001
 44
0.0000000001
 12
-0.9171525398548332
 22
-0.3985363454414523
 32
0.0
 13
-0.946438672421987
 23
-0.3228836312731058
 33
0.0
 40
0.0
 40
0.0
 40
0.0
 40
0.0
 40
0.4670993815729548
 40
1.153122173651713
 40
1.933329864415183
 40
2.614414255689133
 40
2.614414255689133
 40
2.614414255689133
 40
2.614414255689133
 10
83659.48306977735
 20
-4800.060133590902
 30
0.0
 10
83659.34026931595
 20
-4800.122185617731
 30
0.0
 10
83658.98862390476
 20
-4800.277388970581
 30
0.0
 10
83658.3978340959
 20
-4800.534889682499
 30
0.0
 10
83657.73364556627
 20
-4800.802119874265
 30
0.0
 10
83657.27524168974
 20
-4800.967163931162
 30
0.0
 10
83657.06037348738
 20
-4801.040467598316
 30
0.0
 11
83659.48306977735
 21
-4800.060133590902
 31
0.0
 11
83659.05526540064
 21
-4800.247657582819
 31
0.0
 11
83658.42541810296
 21
-4800.519539271903
 31
0.0
 11
83657.70115837813
 21
-4800.809663196633
 31
0.0
 11
83657.06037348738
 21
-4801.040467598316
 31
0.0
  0
SPLINE
  5
37E
330
2
100
AcDbEntity
  8
0
  6
Continuous
 62
     7
100
AcDbSpline
210
0.0
220
0.0
230
1.0
 70
     8
 71
     3
 72
     9
 73
     5
 74
     3
 42
0.0000000001
 43
0.0000000001
 44
0.0000000001
 12
0.9990490026223765
 22
-0.0436014949197264
 32
0.0
 13
0.9915815063158317
 23
-0.1294840389099218
 33
0.0
 40
0.0
 40
0.0
 40
0.0
 40
0.0
 40
2.520158085609518
 40
3.875151843218713
 40
3.875151843218713
 40
3.875151843218713
 40
3.875151843218713
 10
83616.67097760653
 20
-4827.550438136983
 30
0.0
 10
83617.51023141382
 20
-4827.587065690305
 30
0.0
 10
83618.79987339902
 20
-4827.670827480655
 30
0.0
 10
83620.0843702192
 20
-4827.810024987333
 30
0.0
 10
83620.53223246961
 20
-4827.868508342144
 30
0.0
 11
83616.67097760653
 21
-4827.550438136983
 31
0.0
 11
83619.18546142426
 21
-4827.719458570078
 31
0.0
 11
83620.53223246961
 21
-4827.868508342144
 31
0.0
  0
SPLINE
  5
37F
330
2
100
AcDbEntity
  8
0
  6
Continuous
 62
     7
100
AcDbSpline
210
0.0
220
0.0
230
1.0
 70
     8
 71
     3
 72
    10
 73
     6
 74
     4
 42
0.0000000001
 43
0.0000000001
 44
0.0000000001
 12
0.5301973241064422
 22
-0.8478742816658424
 32
0.0
 13
0.4018956952424836
 23
-0.9156854537151723
 33
0.0
 40
0.0
 40
0.0
 40
0.0
 40
0.0
 40
0.6877920394950782
 40
1.678690623926895
 40
2.478591845004969
 40
2.478591845004969
 40
2.478591845004969
 40
2.478591845004969
 10
83699.11540318977
 20
-4798.586528844622
 30
0.0
 10
83699.23695835606
 20
-4798.780915905096
 30
0.0
 10
83699.53193166471
 20
-4799.256419826925
 30
0.0
 10
83699.95104922125
 20
-4799.96867042286
 30
0.0
 10
83700.22002294394
 20
-4800.502494134113
 30
0.0
 10
83700.32718189639
 20
-4800.74664677163
 30
0.0
 11
83699.11540318977
 21
-4798.586528844622
 31
0.0
 11
83699.47680501706
 21
-4799.171718223209
 31
0.0
 11
83699.97298459624
 21
-4800.029439524005
 31
0.0
 11
83700.32718189639
 21
-4800.74664677163
 31
0.0
  0
SPLINE
  5
380
330
2
100
AcDbEntity
  8
0
  6
Continuous
 62
     7
100
AcDbSpline
210
0.0
220
0.0
230
1.0
 70
     8
 71
     3
 72
    10
 73
     6
 74
     4
 42
0.0000000001
 43
0.0000000001
 44
0.0000000001
 12
0.4018956975767196
 22
-0.9156854526906727
 32
0.0
 13
-0.0697052412539784
 23
-0.9975676314625113
 33
0.0
 40
0.0
 40
0.0
 40
0.0
 40
0.0
 40
0.6787394161844992
 40
1.300607937962751
 40
1.875067872605276
 40
1.875067872605276
 40
1.875067872605276
 40
1.875067872605276
 10
83700.32718189639
 20
-4800.74664677163
 30
0.0
 10
83700.41810938012
 20
-4800.953817374819
 30
0.0
 10
83700.57470066926
 20
-4801.359288746942
 30
0.0
 10
83700.71913274635
 20
-4801.969766088365
 30
0.0
 10
83700.73854598
 20
-4802.371531504917
 30
0.0
 10
83700.72519835723
 20
-4802.562552383708
 30
0.0
 11
83700.32718189639
 21
-4800.74664677163
 31
0.0
 11
83700.56618547984
 21
-4801.381914024197
 31
0.0
 11
83700.70313044855
 21
-4801.988516475496
 31
0.0
 11
83700.72519835723
 21
-4802.562552383708
 31
0.0
  0
LINE
  5
381
330
2
100
AcDbEntity
  8
0
  6
Continuous
 62
     7
100
AcDbLine
 10
83131.07337519431
 20
-4801.311788176725
 30
0.0
 11
83135.35285910671
 21
-4801.312316388314
 31
0.0
  0
LINE
  5
382
330
2
100
AcDbEntity
  8
0
  6
Continuous
 62
     7
100
AcDbLine
 10
83326.18385922451
 20
-4801.231674630152
 30
0.0
 11
83231.63017459327
 21
-4801.184698583981
 31
0.0
  0
LINE
  5
383
330
2
100
AcDbEntity
  8
尺寸标注
 62
     0
100
AcDbLine
 10
83131.07337519431
 20
-4801.311788176725
 30
0.0
 11
83091.25862044366
 21
-4801.340090955899
 31
0.0
  0
LINE
  5
384
330
2
100
AcDbEntity
  8
0
  6
Continuous
 62
     7
100
AcDbLine
 10
82872.83714557451
 20
-4793.413190309496
 30
0.0
 11
82876.50991995876
 21
-4688.2386928255
 31
0.0
  0
LINE
  5
385
330
2
100
AcDbEntity
  8
0
  6
Continuous
 62
     7
100
AcDbLine
 10
83859.38906805474
 20
-4678.587687791747
 30
0.0
 11
82886.50382822845
 21
-4678.587687791747
 31
0.0
  0
LINE
  5
388
330
2
100
AcDbEntity
  8
0
  6
Continuous
 62
     7
100
AcDbLine
 10
82877.83409971069
 20
-4798.587687791282
 30
0.0
 11
83868.05879657261
 21
-4798.587687791282
 31
0.0
  0
LINE
  5
389
330
2
100
AcDbEntity
  8
0
  6
Continuous
 62
     7
100
AcDbLine
 10
83869.38297632442
 20
-4688.2386928255
 30
0.0
 11
83873.05575070612
 21
-4793.413190309496
 31
0.0
  0
ARC
  5
38A
330
2
100
AcDbEntity
  8
0
  6
Continuous
 62
     7
100
AcDbCircle
 10
82886.50382822845
 20
-4688.587687791748
 30
0.0
 40
9.999999999959999
100
AcDbArc
 50
90.0
 51
177.9999999998023
  0
ARC
  5
38B
330
2
100
AcDbEntity
  8
0
  6
Continuous
 62
     7
100
AcDbCircle
 10
82877.83500075539
 20
-4793.587687791282
 30
0.0
 40
4.999999999979999
100
AcDbArc
 50
178.0003601918982
 51
269.9896747891354
  0
ARC
  5
38C
330
2
100
AcDbEntity
  8
0
  6
Continuous
 62
     7
100
AcDbCircle
 10
83859.38829624281
 20
-4688.587687791748
 30
0.0
 40
9.999999999959999
100
AcDbArc
 50
1.999845703359869
 51
89.99557784020797
  0
ARC
  5
38D
330
2
100
AcDbEntity
  8
0
  6
Continuous
 62
     7
100
AcDbCircle
 10
83868.05879657261
 20
-4793.587687791282
 30
0.0
 40
4.999999999979999
100
AcDbArc
 50
270.0
 51
2.000000000197718
  0
LINE
  5
392
330
2
100
AcDbEntity
  8
0
  6
Continuous
 62
     7
100
AcDbLine
 10
84221.30498554285
 20
-4798.149642777218
 30
0.0
 11
84221.30498554285
 21
-4822.55815438522
 31
0.0
  0
LINE
  5
394
330
2
100
AcDbEntity
  8
0
  6
Continuous
 62
     7
100
AcDbLine
 10
84370.79331297935
 20
-4854.587687791918
 30
0.0
 11
84449.23197466936
 21
-4854.587687791918
 31
0.0
  0
LINE
  5
395
330
2
100
AcDbEntity
  8
06___PRT_ALL_SURFS
  6
Continuous
 62
     7
100
AcDbLine
 10
84360.03934661234
 20
-4821.288505727618
 30
0.0
 11
84365.88234150745
 21
-4850.56589392852
 31
0.0
  0
LINE
  5
396
330
2
100
AcDbEntity
  8
0
  6
Continuous
 62
     7
100
AcDbLine
 10
84397.23923747786
 20
-4806.163995886818
 30
0.0
 11
84397.19245254066
 21
-4813.377729785719
 31
0.0
  0
LINE
  5
397
330
2
100
AcDbEntity
  8
0
  6
Continuous
 62
     7
100
AcDbLine
 10
84397.26350193955
 20
-4806.177544062721
 30
0.0
 11
84397.26400393205
 21
-4806.147201242719
 31
0.0
  0
LINE
  5
398
330
2
100
AcDbEntity
  8
0
  6
Continuous
 62
     7
100
AcDbLine
 10
84350.10318878944
 20
-4803.828258537676
 30
0.0
 11
84226.30498554285
 21
-4823.850481073019
 31
0.0
  0
LINE
  5
399
330
2
100
AcDbEntity
  8
0000000000001
  6
Continuous
 62
     7
100
AcDbLine
 10
84456.83348179285
 20
-4799.897591384818
 30
0.0
 11
84509.33025012215
 21
-4798.587687791918
 31
0.0
  0
LINE
  5
39A
330
2
100
AcDbEntity
  8
0
  6
Continuous
 62
     7
100
AcDbLine
 10
84695.20282631295
 20
-4798.587687791918
 30
0.0
 11
84223.30498554286
 21
-4798.587687791918
 31
0.0
  0
LINE
  5
39C
330
2
100
AcDbEntity
  8
06___PRT_ALL_SURFS
  6
Continuous
 62
     7
100
AcDbLine
 10
84454.21171236905
 20
-4850.03234733902
 30
0.0
 11
84458.29682635364
 21
-4804.279070711419
 31
0.0
  0
LINE
  5
39E
330
2
100
AcDbEntity
  8
0
  6
Continuous
 62
     7
100
AcDbLine
 10
84223.30498554286
 20
-4678.587687791917
 30
0.0
 11
84686.53309779474
 21
-4678.587687791917
 31
0.0
  0
LINE
  5
39F
330
2
100
AcDbEntity
  8
0000000000001
  6
Continuous
 62
     7
100
AcDbLine
 10
84678.39231224756
 20
-4678.587718341121
 30
0.0
 11
84651.35141770895
 21
-4678.58678588652
 31
0.0
  0
LINE
  5
3A1
330
2
100
AcDbEntity
  8
0
  6
Continuous
 62
     7
100
AcDbLine
 10
84696.52700606495
 20
-4688.238692824918
 30
0.0
 11
84700.19978044804
 21
-4793.413190308419
 31
0.0
  0
ARC
  5
3A4
330
2
100
AcDbEntity
  8
0
  6
Continuous
 62
     7
100
AcDbCircle
 10
84605.04911524406
 20
-11656.55936131211
 30
0.0
 40
6858.2551264149
100
AcDbArc
 50
91.28014650646351
 51
91.40646436546502
  0
ARC
  5
3A5
330
2
100
AcDbEntity
  8
0
  6
Continuous
 62
     7
100
AcDbCircle
 10
84223.30498554286
 20
-4793.587687791919
 30
0.0
 40
5.0
100
AcDbArc
 50
180.0
 51
270.0
  0
ARC
  5
3A6
330
2
100
AcDbEntity
  8
0
  6
Continuous
 62
     7
100
AcDbCircle
 10
84223.30498554286
 20
-4683.587687791918
 30
0.0
 40
5.0
100
AcDbArc
 50
90.0
 51
180.0
  0
ARC
  5
3A7
330
2
100
AcDbEntity
  8
0
  6
Continuous
 62
     7
100
AcDbCircle
 10
84385.35382092485
 20
-4794.357367820019
 30
0.0
 40
35.6404801842
100
AcDbArc
 50
249.2754709418155
 51
257.3651810111357
  0
ARC
  5
3A8
330
2
100
AcDbEntity
  8
0
  6
Continuous
 62
     7
100
AcDbCircle
 10
84375.09123762874
 20
-4803.707468794819
 30
0.0
 40
22.1591318275
100
AcDbArc
 50
233.2226347398659
 51
235.945065921802
  0
ARC
  5
3A9
330
2
100
AcDbEntity
  8
0
  6
Continuous
 62
     7
100
AcDbCircle
 10
84381.05500302405
 20
-4813.499185175318
 30
0.0
 40
16.0215846404
100
AcDbArc
 50
259.0490427797321
 51
272.6191866510049
  0
ARC
  5
3AA
330
2
100
AcDbEntity
  8
0
  6
Continuous
 62
     7
100
AcDbCircle
 10
84380.97653985275
 20
-4813.928226692919
 30
0.0
 40
15.585451
100
AcDbArc
 50
257.3300347584392
 51
259.0326096846946
  0
ARC
  5
3AB
330
2
100
AcDbEntity
  8
0
  6
Continuous
 62
     7
100
AcDbCircle
 10
84370.78408070606
 20
-4849.587687791918
 30
0.0
 40
5.0
100
AcDbArc
 50
191.2858594092597
 51
270.0
  0
ARC
  5
3AC
330
2
100
AcDbEntity
  8
0
  6
Continuous
 62
     7
100
AcDbCircle
 10
84355.13612661855
 20
-4822.267058613419
 30
0.0
 40
4.999990238699999
100
AcDbArc
 50
11.28662918724154
 51
40.74773995827595
  0
ARC
  5
3AD
330
2
100
AcDbEntity
  8
0
  6
Continuous
 62
     7
100
AcDbCircle
 10
84686.53309779474
 20
-4688.587687791918
 30
0.0
 40
10.0
100
AcDbArc
 50
1.999999999989404
 51
90.0
  0
ARC
  5
3AE
330
2
100
AcDbEntity
  8
0
  6
Continuous
 62
     7
100
AcDbCircle
 10
84463.27701490035
 20
-4804.723730403118
 30
0.0
 40
5.0000000043
100
AcDbArc
 50
91.42900361667603
 51
174.8978347581115
  0
ARC
  5
3AF
330
2
100
AcDbEntity
  8
0
  6
Continuous
 62
     7
100
AcDbCircle
 10
84449.23152487355
 20
-4849.587687791918
 30
0.0
 40
5.0
100
AcDbArc
 50
270.0000000258466
 51
354.897835674865
  0
ARC
  5
3B0
330
2
100
AcDbEntity
  8
0
  6
Continuous
 62
     7
100
AcDbCircle
 10
84695.20282631295
 20
-4793.587687791919
 30
0.0
 40
5.0
100
AcDbArc
 50
270.0
 51
1.999999999989404
  0
ARC
  5
3B1
330
2
100
AcDbEntity
  8
0
  6
Continuous
 62
     7
100
AcDbCircle
 10
84402.14077743627
 20
-4806.132229460538
 30
0.0
 40
4.877477962286969
100
AcDbArc
 50
90.59926911642516
 51
180.5324865941175
  0
ARC
  5
3B2
330
2
100
AcDbEntity
  8
0
  6
Continuous
 62
     7
100
AcDbCircle
 10
84410.61507175994
 20
-2948.108846859021
 30
0.0
 40
1852.3654325692
100
AcDbArc
 50
271.3025165259397
 51
271.4297365843094
  0
LINE
  5
3B3
330
2
100
AcDbEntity
  8
0
  6
Continuous
 62
     7
100
AcDbLine
 10
84449.68055082595
 20
-4800.064685809819
 30
0.0
 11
84446.85563006435
 21
-4800.141567530118
 31
0.0
  0
SPLINE
  5
3B4
330
2
100
AcDbEntity
  8
0000000000001
  6
Continuous
 62
     7
100
AcDbSpline
210
0.0
220
0.0
230
1.0
 70
     8
 71
     3
 72
     8
 73
     4
 74
     0
 42
0.0000000001
 43
0.0000000001
 40
0.0
 40
0.0
 40
0.0
 40
0.0
 40
1.0
 40
1.0
 40
1.0
 40
1.0
 10
84349.99036899588
 20
-4803.610435899096
 30
0.0
 10
84352.58333197404
 20
-4808.61255561882
 30
0.0
 10
84353.10092795825
 20
-4809.89290795712
 30
0.0
 10
84353.71451113006
 20
-4811.124222131421
 30
0.0
  0
LINE
  5
3B5
330
2
100
AcDbEntity
  8
0
  6
Continuous
 62
     7
100
AcDbLine
 10
84418.61471887085
 20
-4800.826185409619
 30
0.0
 11
84421.76856757985
 21
-4800.745306616118
 31
0.0
  0
SPLINE
  5
3B6
330
2
100
AcDbEntity
  8
0
  6
Continuous
 62
     7
100
AcDbSpline
210
0.0
220
0.0
230
1.0
 70
     8
 71
     3
 72
     9
 73
     5
 74
     0
 42
0.0000000001
 43
0.0000000001
 40
0.0
 40
0.0
 40
0.0
 40
0.0
 40
0.2524411993
 40
1.0
 40
1.0
 40
1.0
 40
1.0
 10
84421.76856757985
 20
-4800.745306616118
 30
0.0
 10
84422.28784585106
 20
-4800.732031364721
 30
0.0
 10
84424.34487462906
 20
-4800.67952767912
 30
0.0
 10
84426.40191230326
 20
-4800.627372265219
 30
0.0
 10
84427.93967480525
 20
-4800.588616918718
 30
0.0
  0
LINE
  5
3B7
330
2
100
AcDbEntity
  8
0
  6
Continuous
 62
     7
100
AcDbLine
 10
84427.93967480525
 20
-4800.588616918718
 30
0.0
 11
84428.77386956984
 21
-4800.567616574619
 31
0.0
  0
SPLINE
  5
3B8
330
2
100
AcDbEntity
  8
0
  6
Continuous
 62
     7
100
AcDbSpline
210
0.0
220
0.0
230
1.0
 70
     8
 71
     3
 72
     8
 73
     4
 74
     0
 42
0.0000000001
 43
0.0000000001
 40
0.0
 40
0.0
 40
0.0
 40
0.0
 40
1.0
 40
1.0
 40
1.0
 40
1.0
 10
84428.77386956984
 20
-4800.567616574619
 30
0.0
 10
84430.14074798805
 20
-4800.533245039318
 30
0.0
 10
84431.50763124934
 20
-4800.499065313819
 30
0.0
 10
84432.87452029785
 20
-4800.465119153821
 30
0.0
  0
SPLINE
  5
3B9
330
2
100
AcDbEntity
  8
0
  6
Continuous
 62
     7
100
AcDbSpline
210
0.0
220
0.0
230
1.0
 70
     8
 71
     3
 72
     9
 73
     5
 74
     0
 42
0.0000000001
 43
0.0000000001
 40
0.0
 40
0.0
 40
0.0
 40
0.0
 40
0.2537816578
 40
1.0
 40
1.0
 40
1.0
 40
1.0
 10
84432.87452029785
 20
-4800.465119153821
 30
0.0
 10
84433.19926951087
 20
-4800.45705413292
 30
0.0
 10
84434.47891101476
 20
-4800.425327041219
 30
0.0
 10
84435.75855787555
 20
-4800.393815865718
 30
0.0
 10
84436.71345728555
 20
-4800.37044287812
 30
0.0
  0
LINE
  5
3BA
330
2
100
AcDbEntity
  8
0
  6
Continuous
 62
     7
100
AcDbLine
 10
84402.08976375535
 20
-4801.255018282319
 30
0.0
 11
84404.43941565165
 21
-4801.193771877119
 31
0.0
  0
LINE
  5
3BB
330
2
100
AcDbEntity
  8
0
  6
Continuous
 62
     7
100
AcDbLine
 10
84404.43941565165
 20
-4801.193771877119
 30
0.0
 11
84406.81366600305
 21
-4801.131896802821
 31
0.0
  0
LINE
  5
3BC
330
2
100
AcDbEntity
  8
0
  6
Continuous
 62
     7
100
AcDbLine
 10
84406.81366600305
 20
-4801.131896802821
 30
0.0
 11
84408.72828331265
 21
-4801.08203006232
 31
0.0
  0
SPLINE
  5
3BD
330
2
100
AcDbEntity
  8
0
  6
Continuous
 62
     7
100
AcDbSpline
210
0.0
220
0.0
230
1.0
 70
     8
 71
     3
 72
     8
 73
     4
 74
     0
 42
0.0000000001
 43
0.0000000001
 40
0.0
 40
0.0
 40
0.0
 40
0.0
 40
1.0
 40
1.0
 40
1.0
 40
1.0
 10
84408.72828331265
 20
-4801.08203006232
 30
0.0
 10
84412.02374954865
 20
-4800.996275165519
 30
0.0
 10
84415.31922711455
 20
-4800.91095390782
 30
0.0
 10
84418.61471887104
 20
-4800.826185408718
 30
0.0
  0
SPLINE
  5
3BE
330
2
100
AcDbEntity
  8
0
  6
Continuous
 62
     7
100
AcDbSpline
210
0.0
220
0.0
230
1.0
 70
     8
 71
     3
 72
    11
 73
     7
 74
     0
 42
0.0000000001
 43
0.0000000001
 40
0.0
 40
0.0
 40
0.0
 40
0.0
 40
0.2490852017
 40
0.4973053596
 40
0.7471850425
 40
1.0
 40
1.0
 40
1.0
 40
1.0
 10
84381.78714956597
 20
-4829.504032435718
 30
0.0
 10
84383.81281879955
 20
-4829.409987347819
 30
0.0
 10
84387.85805085045
 20
-4828.413249991521
 30
0.0
 10
84392.92791632684
 20
-4824.80920870752
 30
0.0
 10
84396.34514152155
 20
-4819.568046791221
 30
0.0
 10
84397.15962158075
 20
-4815.435916004321
 30
0.0
 10
84397.16857929086
 20
-4813.37771966962
 30
0.0
  0
LINE
  5
3BF
330
2
100
AcDbEntity
  8
0
  6
Continuous
 62
     7
100
AcDbLine
 10
84451.82942549285
 20
-4800.015632771519
 30
0.0
 11
84452.72164221995
 21
-4799.995650230419
 31
0.0
  0
SPLINE
  5
3C0
330
2
100
AcDbEntity
  8
0
  6
Continuous
 62
     7
100
AcDbSpline
210
0.0
220
0.0
230
1.0
 70
     8
 71
     3
 72
     9
 73
     5
 74
     0
 42
0.0000000001
 43
0.0000000001
 40
0.0
 40
0.0
 40
0.0
 40
0.0
 40
0.245105142
 40
1.0
 40
1.0
 40
1.0
 40
1.0
 10
84353.71451113006
 20
-4811.124222131421
 30
0.0
 10
84354.05919022436
 20
-4811.81591035542
 30
0.0
 10
84355.54611803015
 20
-4814.596570486719
 30
0.0
 10
84357.37044463216
 20
-4817.200244399919
 30
0.0
 10
84358.92402913195
 20
-4819.00345333252
 30
0.0
  0
SPLINE
  5
3C1
330
2
100
AcDbEntity
  8
0
  6
Continuous
 62
     7
100
AcDbSpline
210
0.0
220
0.0
230
1.0
 70
     8
 71
     3
 72
     8
 73
     4
 74
     0
 42
0.0000000001
 43
0.0000000001
 40
0.0
 40
0.0
 40
0.0
 40
0.0
 40
1.0
 40
1.0
 40
1.0
 40
1.0
 10
84397.18090126245
 20
-4813.041693057319
 30
0.0
 10
84397.18596539965
 20
-4812.750787404119
 30
0.0
 10
84397.19129732175
 20
-4812.459872683419
 30
0.0
 10
84397.19302628615
 20
-4812.168928092018
 30
0.0
  0
SPLINE
  5
3C2
330
2
100
AcDbEntity
  8
0
  6
Continuous
 62
     7
100
AcDbSpline
210
0.0
220
0.0
230
1.0
 70
     8
 71
     3
 72
    10
 73
     6
 74
     0
 42
0.0000000001
 43
0.0000000001
 40
0.0
 40
0.0
 40
0.0
 40
0.0
 40
0.6691064841
 40
0.8849227288999999
 40
1.0
 40
1.0
 40
1.0
 40
1.0
 10
84226.30498554285
 20
-4823.837180280119
 30
0.0
 10
84225.11481464486
 20
-4823.837318246621
 30
0.0
 10
84223.49326003555
 20
-4823.684197689421
 30
0.0
 10
84221.84257776025
 20
-4823.22051154642
 30
0.0
 10
84221.30523078294
 20
-4822.762847546921
 30
0.0
 10
84221.30498554285
 20
-4822.55815438522
 30
0.0
  0
SPLINE
  5
3C5
330
2
100
AcDbEntity
  8
0
  6
Continuous
 62
     7
100
AcDbSpline
210
0.0
220
0.0
230
1.0
 70
     8
 71
     3
 72
     9
 73
     5
 74
     0
 42
0.0000000001
 43
0.0000000001
 40
0.0
 40
0.0
 40
0.0
 40
0.0
 40
0.4101575560000001
 40
1.0
 40
1.0
 40
1.0
 40
1.0
 10
84363.06492801854
 20
-4822.338972952119
 30
0.0
 10
84364.30328187976
 20
-4823.212326908418
 30
0.0
 10
84367.34509037215
 20
-4825.316719131719
 30
0.0
 10
84370.70430202506
 20
-4826.917966854118
 30
0.0
 10
84372.74153577234
 20
-4827.69164583812
 30
0.0
  0
SPLINE
  5
3C6
330
2
100
AcDbEntity
  8
0
  6
Continuous
 62
     7
100
AcDbSpline
210
0.0
220
0.0
230
1.0
 70
     8
 71
     3
 72
    13
 73
     9
 74
     0
 42
0.0000000001
 43
0.0000000001
 40
0.0
 40
0.0
 40
0.0
 40
0.0
 40
0.0179559816
 40
0.0712137898
 40
0.1583502393
 40
0.2771008531
 40
0.5965091492
 40
1.0
 40
1.0
 40
1.0
 40
1.0
 10
84358.92402913195
 20
-4819.00345333252
 30
0.0
 10
84358.94549954095
 20
-4819.010949826119
 30
0.0
 10
84359.00365219366
 20
-4819.08749809812
 30
0.0
 10
84359.16393807927
 20
-4819.203115370419
 30
0.0
 10
84359.40354943227
 20
-4819.43085849312
 30
0.0
 10
84359.90200426575
 20
-4819.869595897919
 30
0.0
 10
84360.69975748404
 20
-4820.578021819922
 30
0.0
 10
84361.41505616754
 20
-4821.150312133821
 30
0.0
 10
84361.82440536455
 20
-4821.456223258821
 30
0.0
  0
SPLINE
  5
3C7
330
2
100
AcDbEntity
  8
0
  6
Continuous
 62
     7
100
AcDbSpline
210
0.0
220
0.0
230
1.0
 70
     8
 71
     3
 72
     9
 73
     5
 74
     0
 42
0.0000000001
 43
0.0000000001
 40
0.0
 40
0.0
 40
0.0
 40
0.0
 40
0.2147673788
 40
1.0
 40
1.0
 40
1.0
 40
1.0
 10
84362.68240054134
 20
-4822.066332743517
 30
0.0
 10
84362.71077068894
 20
-4822.08557376132
 30
0.0
 10
84362.84239729195
 20
-4822.17585821392
 30
0.0
 10
84362.97261345615
 20
-4822.268173660621
 30
0.0
 10
84363.07486331564
 20
-4822.340652839219
 30
0.0
  0
SPLINE
  5
3CA
330
2
100
AcDbEntity
  8
0
  6
Continuous
 62
     7
100
AcDbSpline
210
0.0
220
0.0
230
1.0
 70
     8
 71
     3
 72
     9
 73
     5
 74
     0
 42
0.0000000001
 43
0.0000000001
 40
0.0
 40
0.0
 40
0.0
 40
0.0
 40
0.5565591232
 40
1.0
 40
1.0
 40
1.0
 40
1.0
 10
84377.63791556426
 20
-4829.224825450521
 30
0.0
 10
84377.62778790165
 20
-4829.204553414518
 30
0.0
 10
84377.60662035556
 20
-4829.169348380921
 30
0.0
 10
84377.57466113536
 20
-4829.142045651718
 30
0.0
 10
84377.55838494775
 20
-4829.13423026132
 30
0.0
  0
LINE
  5
3CB
330
2
100
AcDbEntity
  8
0
  6
Continuous
 62
     7
100
AcDbLine
 10
84218.30498554285
 20
-4683.587687791918
 30
0.0
 11
84218.30498554285
 21
-4793.587687791919
 31
0.0
  0
LINE
  5
3D3
330
2
100
AcDbEntity
  8
0
  6
Continuous
 62
     7
100
AcDbLine
 10
83595.19579039615
 20
-5713.044344645641
 30
0.0
 11
83153.07498348348
 21
-5713.044344645641
 31
0.0
  0
LINE
  5
3D4
330
2
100
AcDbEntity
  8
尺寸标注
 62
     0
100
AcDbLine
 10
83645.19579039614
 20
-5511.052599620998
 30
0.0
 11
83645.19579039614
 21
-5663.044344645641
 31
0.0
  0
LINE
  5
3D5
330
2
100
AcDbEntity
  8
尺寸标注
 62
     0
100
AcDbLine
 10
83103.0749834835
 20
-5511.348688835686
 30
0.0
 11
83103.07498348349
 21
-5663.044344645641
 31
0.0
  0
ARC
  5
3D6
330
2
100
AcDbEntity
  8
尺寸标注
 62
     0
100
AcDbCircle
 10
83153.07498348348
 20
-5663.044344645641
 30
0.0
 40
50.0
100
AcDbArc
 50
180.0
 51
270.0
  0
ARC
  5
3D7
330
2
100
AcDbEntity
  8
尺寸标注
 62
     0
100
AcDbCircle
 10
83595.19579039615
 20
-5663.044344645641
 30
0.0
 40
50.0
100
AcDbArc
 50
270.0
 51
0.0
  0
ENDSEC
  0
SECTION
  2
OBJECTS
  0
DICTIONARY
  5
9
330
0
100
AcDbDictionary
281
     1
  3
ACAD_COLOR
350
34
  3
ACAD_GROUP
350
2F
  3
ACAD_LAYOUT
350
F
  3
ACAD_MATERIAL
350
B
  3
ACAD_MLEADERSTYLE
350
3FB
  3
ACAD_MLINESTYLE
350
30
  3
ACAD_PLOTSETTINGS
350
31
  3
ACAD_PLOTSTYLENAME
350
8
  3
ACAD_SCALELIST
350
3D9
  3
ACAD_TABLESTYLE
350
35
  3
ACAD_VISUALSTYLE
350
26
  3
ACDB_RECOMPOSE_DATA
350
40A
  3
ACDBHEADERROUNDTRIPXREC
350
404
  3
AcDbVariableDictionary
350
151
  0
DICTIONARY
  5
16
330
15
100
AcDbDictionary
280
     1
281
     1
  3
ACAD_LAYERFILTERS
360
17
  3
ACAD_LAYERSTATES
360
18
  3
ACLYDICTIONARY
360
19
  0
DICTIONARY
  5
3
330
2
100
AcDbDictionary
280
     1
281
     1
  3
ACAD_SORTENTS
360
14F
  0
DICTIONARY
  5
1D5
330
1D1
100
AcDbDictionary
280
     1
281
     1
  3
ACAD_SORTENTS
360
1D6
  0
DICTIONARY
  5
34
102
{ACAD_REACTORS
330
9
102
}
330
9
100
AcDbDictionary
281
     1
  0
DICTIONARY
  5
2F
102
{ACAD_REACTORS
330
9
102
}
330
9
100
AcDbDictionary
281
     1
  0
DICTIONARY
  5
F
102
{ACAD_REACTORS
330
9
102
}
330
9
100
AcDbDictionary
281
     1
  3
Model
350
E
  3
布局1
350
14
  0
DICTIONARY
  5
B
102
{ACAD_REACTORS
330
9
102
}
330
9
100
AcDbDictionary
281
     1
  3
ByBlock
350
33
  3
ByLayer
350
32
  3
Global
350
A
  0
DICTIONARY
  5
3FB
102
{ACAD_REACTORS
330
9
102
}
330
9
100
AcDbDictionary
281
     1
  3
Standard
350
3FC
  0
DICTIONARY
  5
30
102
{ACAD_REACTORS
330
9
102
}
330
9
100
AcDbDictionary
281
     1
  3
Standard
350
38
  0
DICTIONARY
  5
31
102
{ACAD_REACTORS
330
9
102
}
330
9
100
AcDbDictionary
281
     1
  0
ACDBDICTIONARYWDFLT
  5
8
102
{ACAD_REACTORS
330
9
102
}
330
9
100
AcDbDictionary
281
     1
  3
Normal
350
7
100
AcDbDictionaryWithDefault
340
7
  0
DICTIONARY
  5
3D9
102
{ACAD_REACTORS
330
9
102
}
330
9
100
AcDbDictionary
281
     1
  3
A0
350
3DA
  3
A1
350
3DB
  3
A2
350
3DC
  3
A3
350
3DD
  3
A4
350
3DE
  3
A5
350
3DF
  3
A6
350
3E0
  3
A7
350
3E1
  3
A8
350
3E2
  3
A9
350
3E3
  3
B0
350
3E4
  3
B1
350
3E5
  3
B2
350
3E6
  3
B3
350
3E7
  3
B4
350
3E8
  3
B5
350
3E9
  3
B6
350
3EA
  3
B7
350
3EB
  3
B8
350
3EC
  3
B9
350
3ED
  3
C0
350
3EE
  3
C1
350
3EF
  3
C2
350
3F0
  3
C3
350
3F1
  3
C4
350
3F2
  3
C5
350
3F3
  3
C6
350
3F4
  3
C7
350
3F5
  3
C8
350
3F6
  3
C9
350
3F7
  3
D0
350
3F8
  3
D1
350
3F9
  3
D2
350
3FA
  0
DICTIONARY
  5
35
102
{ACAD_REACTORS
330
9
102
}
330
9
100
AcDbDictionary
281
     1
  3
Standard
350
39
  0
DICTIONARY
  5
26
102
{ACAD_REACTORS
330
9
102
}
330
9
100
AcDbDictionary
281
     1
  3
2dWireframe
350
25
  3
3D Hidden
350
159
  3
3dWireframe
350
3B
  3
Basic
350
158
  3
Brighten
350
15C
  3
ColorChange
350
160
  3
Conceptual
350
15A
  3
Dim
350
15B
  3
Facepattern
350
15F
  3
Flat
350
154
  3
FlatWithEdges
350
155
  3
Gouraud
350
156
  3
GouraudWithEdges
350
157
  3
Linepattern
350
15E
  3
Realistic
350
3A
  3
Thicken
350
15D
  0
XRECORD
  5
40A
102
{ACAD_REACTORS
330
9
102
}
330
9
100
AcDbXrecord
280
     1
 90
        1
330
39
  0
DICTIONARY
  5
404
102
{ACAD_REACTORS
330
9
102
}
330
9
100
AcDbDictionary
281
     1
  0
DICTIONARY
  5
151
102
{ACAD_REACTORS
330
9
102
}
330
9
100
AcDbDictionary
281
     1
  3
CMLEADERSTYLE
350
402
  3
CTABLESTYLE
350
152
  0
DICTIONARY
  5
17
102
{ACAD_REACTORS
330
16
102
}
330
16
100
AcDbDictionary
281
     1
  0
DICTIONARY
  5
18
102
{ACAD_REACTORS
330
16
102
}
330
16
100
AcDbDictionary
281
     1
  0
DICTIONARY
  5
19
102
{ACAD_REACTORS
330
16
102
}
330
16
100
AcDbDictionary
281
     1
1001
ACAD
1000
<All
  0
SORTENTSTABLE
  5
14F
102
{ACAD_REACTORS
330
3
102
}
330
3
100
AcDbSortentsTable
330
2
331
374
  5
375
331
3B3
  5
3B4
331
2FE
  5
2FF
331
33D
  5
33E
331
37C
  5
37D
331
306
  5
307
331
345
  5
346
331
384
  5
385
331
30E
  5
30F
331
3BB
  5
3BC
331
316
  5
317
331
34D
  5
34E
331
2D7
  5
2D7
331
38C
  5
38D
331
394
  5
395
331
3CB
  5
3D3
331
2DF
  5
2E0
331
31E
  5
31F
331
355
  5
356
331
39C
  5
39D
331
3D3
  5
2DD
331
2E7
  5
2E8
331
326
  5
327
331
35D
  5
35E
331
365
  5
366
331
3A4
  5
3A5
331
2EF
  5
2F0
331
32E
  5
32F
331
336
  5
337
331
36D
  5
36E
331
2F7
  5
2F8
331
3AC
  5
3AD
331
3B4
  5
3B5
331
33E
  5
33F
331
375
  5
376
331
2FF
  5
300
331
307
  5
308
331
37D
  5
37E
331
385
  5
386
331
3BC
  5
3BD
331
30F
  5
310
331
346
  5
347
331
34E
  5
34F
331
38D
  5
38E
331
2D8
  5
2D8
331
317
  5
318
331
356
  5
357
331
395
  5
396
331
2E0
  5
2E1
331
31F
  5
320
331
3D4
  5
3D4
331
327
  5
328
331
35E
  5
35F
331
2E8
  5
2E9
331
3A5
  5
3A6
331
2F0
  5
2F1
331
32F
  5
330
331
366
  5
367
331
3AD
  5
3AE
331
2F8
  5
2F9
331
337
  5
338
331
36E
  5
36F
331
376
  5
377
331
3B5
  5
3B6
331
300
  5
301
331
33F
  5
340
331
37E
  5
37F
331
308
  5
309
331
3BD
  5
3BE
331
347
  5
348
331
310
  5
311
331
3C5
  5
3C6
331
318
  5
319
331
34F
  5
350
331
2D9
  5
2D9
331
396
  5
397
331
2E1
  5
2E2
331
320
  5
321
331
357
  5
358
331
35F
  5
360
331
39E
  5
39F
331
3D5
  5
3D6
331
2E9
  5
2EA
331
328
  5
329
331
367
  5
368
331
3A6
  5
3A7
331
2F1
  5
2F2
331
330
  5
331
331
338
  5
339
331
36F
  5
370
331
2F9
  5
2FA
331
3AE
  5
3AF
331
3B6
  5
3B7
331
301
  5
302
331
377
  5
378
331
37F
  5
380
331
309
  5
30A
331
340
  5
341
331
3BE
  5
3BF
331
311
  5
312
331
348
  5
349
331
350
  5
351
331
2DA
  5
2DA
331
319
  5
31A
331
3C6
  5
3C7
331
358
  5
359
331
397
  5
398
331
2E2
  5
2E3
331
321
  5
322
331
3D6
  5
3D7
331
39F
  5
3A0
331
329
  5
32A
331
360
  5
361
331
2EA
  5
2EB
331
3A7
  5
3A8
331
2F2
  5
2F3
331
331
  5
332
331
368
  5
369
331
370
  5
371
331
3AF
  5
3B0
331
2FA
  5
2FB
331
339
  5
33A
331
378
  5
379
331
302
  5
303
331
3B7
  5
3B8
331
341
  5
342
331
380
  5
381
331
30A
  5
30B
331
3BF
  5
3C0
331
312
  5
313
331
349
  5
34A
331
388
  5
389
331
3C7
  5
3C8
331
31A
  5
31B
331
351
  5
352
331
2DB
  5
2DB
331
398
  5
399
331
2E3
  5
2E4
331
322
  5
323
331
359
  5
35A
331
3D7
  5
3D5
331
361
  5
362
331
2EB
  5
2ED
331
32A
  5
32B
331
369
  5
36A
331
3A8
  5
3A9
331
2F3
  5
2F4
331
332
  5
333
331
33A
  5
33B
331
371
  5
372
331
2FB
  5
2FC
331
3B0
  5
3B1
331
303
  5
304
331
379
  5
37A
331
381
  5
382
331
3B8
  5
3B9
331
30B
  5
30C
331
342
  5
343
331
389
  5
38A
331
3C0
  5
3C1
331
313
  5
314
331
34A
  5
34B
331
352
  5
353
331
2DC
  5
2DC
331
31B
  5
31C
331
323
  5
324
331
35A
  5
35B
331
2E4
  5
2E5
331
399
  5
39A
331
32B
  5
32C
331
362
  5
363
331
3A1
  5
3A2
331
3A9
  5
3AA
331
2F4
  5
2F5
331
333
  5
334
331
36A
  5
36B
331
372
  5
373
331
3B1
  5
3B2
331
2FC
  5
2FD
331
33B
  5
33C
331
37A
  5
37B
331
304
  5
305
331
343
  5
344
331
382
  5
383
331
30C
  5
30D
331
3B9
  5
3BA
331
3C1
  5
3C2
331
314
  5
315
331
34B
  5
34C
331
38A
  5
38B
331
392
  5
393
331
31C
  5
31D
331
353
  5
354
331
2DD
  5
2DE
331
39A
  5
39B
331
2E5
  5
2E6
331
324
  5
325
331
35B
  5
35C
331
363
  5
364
331
2ED
  5
2EE
331
32C
  5
32D
331
334
  5
335
331
36B
  5
36C
331
2F5
  5
2F6
331
3AA
  5
3AB
331
33C
  5
33D
331
373
  5
374
331
2FD
  5
2FE
331
3B2
  5
3B3
331
305
  5
306
331
37B
  5
37C
331
383
  5
384
331
3BA
  5
3BB
331
30D
  5
30E
331
344
  5
345
331
38B
  5
38C
331
3C2
  5
3C3
331
315
  5
316
331
34C
  5
34D
331
354
  5
355
331
2DE
  5
2DF
331
31D
  5
31E
331
3CA
  5
3CB
331
325
  5
326
331
35C
  5
35D
331
2E6
  5
2E7
331
32D
  5
32E
331
364
  5
365
331
2EE
  5
2EF
331
3AB
  5
3AC
331
2F6
  5
2F7
331
335
  5
336
331
36C
  5
36D
  0
SORTENTSTABLE
  5
1D6
102
{ACAD_REACTORS
330
1D5
102
}
330
1D5
100
AcDbSortentsTable
330
1D1
  0
LAYOUT
  5
E
102
{ACAD_REACTORS
330
F
102
}
330
F
100
AcDbPlotSettings
  1

  2
\\10.1.200.73\HP LaserJet M1005
  4
A4
  6

 40
4.519083023071289
 41
4.349743366241455
 42
4.561416625976562
 43
4.349761962890625
 44
210.0156707763672
 45
297.0106506347656
 46
55.24379606390717
 47
0.0
 48
0.0
 49
0.0
140
0.0
141
0.0
142
1.0
143
16.71874049572011
 70
 11956
 72
     1
 73
     1
 74
     1
  7
acad.ctb
 75
     0
147
0.0598131181147284
 76
     0
 77
     2
 78
   300
148
-10684.40043882581
149
2957.131382769171
100
AcDbLayout
  1
Model
 70
     1
 71
     0
 10
0.0
 20
0.0
 11
12.0
 21
9.0
 12
0.0
 22
0.0
 32
0.0
 14
0.0
 24
0.0
 34
0.0
 15
0.0
 25
0.0
 35
0.0
146
0.0
 13
0.0
 23
0.0
 33
0.0
 16
1.0
 26
0.0
 36
0.0
 17
0.0
 27
1.0
 37
0.0
 76
     0
330
2
331
24
1001
ACAD_PSEXT
1000
\\10.1.200.73\HP LaserJet M1005
1000
HP LaserJet M1005
1000
\\10.1.200.73
1000

1070
     0
  0
LAYOUT
  5
14
102
{ACAD_REACTORS
330
F
102
}
330
F
100
AcDbPlotSettings
  1

  2
C:\Documents and Settings\basas\Application Data\Autodesk\AutoCAD 2005\R16.1\enu\plotters\Default Windows System Printer.pc3
  4

  6

 40
0.0
 41
0.0
 42
0.0
 43
0.0
 44
0.0
 45
0.0
 46
0.0
 47
0.0
 48
0.0
 49
0.0
140
0.0
141
0.0
142
1.0
143
1.0
 70
   688
 72
     0
 73
     0
 74
     5
  7
acad.ctb
 75
    16
147
1.0
 76
     0
 77
     2
 78
   300
148
0.0
149
0.0
100
AcDbLayout
  1
布局1
 70
     1
 71
     1
 10
0.0
 20
0.0
 11
12.0
 21
9.0
 12
0.0
 22
0.0
 32
0.0
 14
0.0
 24
0.0
 34
0.0
 15
0.0
 25
0.0
 35
0.0
146
0.0
 13
0.0
 23
0.0
 33
0.0
 16
1.0
 26
0.0
 36
0.0
 17
0.0
 27
1.0
 37
0.0
 76
     0
330
11
  0
MATERIAL
  5
33
102
{ACAD_REACTORS
330
B
102
}
330
B
100
AcDbMaterial
  1
ByBlock
  2

  0
MATERIAL
  5
32
102
{ACAD_REACTORS
330
B
102
}
330
B
100
AcDbMaterial
  1
ByLayer
  2

  0
MATERIAL
  5
A
102
{ACAD_REACTORS
330
B
102
}
330
B
100
AcDbMaterial
  1
Global
  2

  0
MLEADERSTYLE
  5
3FC
102
{ACAD_REACTORS
330
3FB
102
}
330
3FB
100
AcDbMLeaderStyle
170
     2
171
     1
172
     0
 90
        2
 40
0.0
 41
0.0
173
     1
 91
-1056964608
340
1F
 92
       -2
290
     1
 42
0.09
291
     1
 43
8.0
  3
Standard
341
0
 44
0.18
300

342
1C
174
     1
178
     1
175
     1
176
     0
 93
-1056964608
 45
0.18
292
     0
297
     0
 46
0.18
343
0
 94
-1056964608
 47
1.0
 49
1.0
140
1.0
293
     1
141
0.0
294
     1
177
     0
142
1.0
295
     0
296
     0
143
3.75
1001
ACAD_MLEADERVER
1070
     2
  0
MLINESTYLE
  5
38
102
{ACAD_REACTORS
330
30
102
}
330
30
100
AcDbMlineStyle
  2
STANDARD
 70
     0
  3

 62
   256
 51
90.0
 52
90.0
 71
     2
 49
0.5
 62
   256
  6
BYLAYER
 49
-0.5
 62
   256
  6
BYLAYER
  0
ACDBPLACEHOLDER
  5
7
102
{ACAD_REACTORS
330
8
102
}
330
8
  0
SCALE
  5
3DA
102
{ACAD_REACTORS
330
3D9
102
}
330
3D9
100
AcDbScale
 70
     0
300
1:1
140
1.0
141
1.0
290
     1
  0
SCALE
  5
3DB
102
{ACAD_REACTORS
330
3D9
102
}
330
3D9
100
AcDbScale
 70
     0
300
1:2
140
1.0
141
2.0
290
     0
  0
SCALE
  5
3DC
102
{ACAD_REACTORS
330
3D9
102
}
330
3D9
100
AcDbScale
 70
     0
300
1:4
140
1.0
141
4.0
290
     0
  0
SCALE
  5
3DD
102
{ACAD_REACTORS
330
3D9
102
}
330
3D9
100
AcDbScale
 70
     0
300
1:5
140
1.0
141
5.0
290
     0
  0
SCALE
  5
3DE
102
{ACAD_REACTORS
330
3D9
102
}
330
3D9
100
AcDbScale
 70
     0
300
1:8
140
1.0
141
8.0
290
     0
  0
SCALE
  5
3DF
102
{ACAD_REACTORS
330
3D9
102
}
330
3D9
100
AcDbScale
 70
     0
300
1:10
140
1.0
141
10.0
290
     0
  0
SCALE
  5
3E0
102
{ACAD_REACTORS
330
3D9
102
}
330
3D9
100
AcDbScale
 70
     0
300
1:16
140
1.0
141
16.0
290
     0
  0
SCALE
  5
3E1
102
{ACAD_REACTORS
330
3D9
102
}
330
3D9
100
AcDbScale
 70
     0
300
1:20
140
1.0
141
20.0
290
     0
  0
SCALE
  5
3E2
102
{ACAD_REACTORS
330
3D9
102
}
330
3D9
100
AcDbScale
 70
     0
300
1:30
140
1.0
141
30.0
290
     0
  0
SCALE
  5
3E3
102
{ACAD_REACTORS
330
3D9
102
}
330
3D9
100
AcDbScale
 70
     0
300
1:40
140
1.0
141
40.0
290
     0
  0
SCALE
  5
3E4
102
{ACAD_REACTORS
330
3D9
102
}
330
3D9
100
AcDbScale
 70
     0
300
1:50
140
1.0
141
50.0
290
     0
  0
SCALE
  5
3E5
102
{ACAD_REACTORS
330
3D9
102
}
330
3D9
100
AcDbScale
 70
     0
300
1:100
140
1.0
141
100.0
290
     0
  0
SCALE
  5
3E6
102
{ACAD_REACTORS
330
3D9
102
}
330
3D9
100
AcDbScale
 70
     0
300
2:1
140
2.0
141
1.0
290
     0
  0
SCALE
  5
3E7
102
{ACAD_REACTORS
330
3D9
102
}
330
3D9
100
AcDbScale
 70
     0
300
4:1
140
4.0
141
1.0
290
     0
  0
SCALE
  5
3E8
102
{ACAD_REACTORS
330
3D9
102
}
330
3D9
100
AcDbScale
 70
     0
300
8:1
140
8.0
141
1.0
290
     0
  0
SCALE
  5
3E9
102
{ACAD_REACTORS
330
3D9
102
}
330
3D9
100
AcDbScale
 70
     0
300
10:1
140
10.0
141
1.0
290
     0
  0
SCALE
  5
3EA
102
{ACAD_REACTORS
330
3D9
102
}
330
3D9
100
AcDbScale
 70
     0
300
100:1
140
100.0
141
1.0
290
     0
  0
SCALE
  5
3EB
102
{ACAD_REACTORS
330
3D9
102
}
330
3D9
100
AcDbScale
 70
     0
300
1/128" = 1'-0"
140
0.0078125
141
12.0
290
     0
  0
SCALE
  5
3EC
102
{ACAD_REACTORS
330
3D9
102
}
330
3D9
100
AcDbScale
 70
     0
300
1/64" = 1'-0"
140
0.015625
141
12.0
290
     0
  0
SCALE
  5
3ED
102
{ACAD_REACTORS
330
3D9
102
}
330
3D9
100
AcDbScale
 70
     0
300
1/32" = 1'-0"
140
0.03125
141
12.0
290
     0
  0
SCALE
  5
3EE
102
{ACAD_REACTORS
330
3D9
102
}
330
3D9
100
AcDbScale
 70
     0
300
1/16" = 1'-0"
140
0.0625
141
12.0
290
     0
  0
SCALE
  5
3EF
102
{ACAD_REACTORS
330
3D9
102
}
330
3D9
100
AcDbScale
 70
     0
300
3/32" = 1'-0"
140
0.09375
141
12.0
290
     0
  0
SCALE
  5
3F0
102
{ACAD_REACTORS
330
3D9
102
}
330
3D9
100
AcDbScale
 70
     0
300
1/8" = 1'-0"
140
0.125
141
12.0
290
     0
  0
SCALE
  5
3F1
102
{ACAD_REACTORS
330
3D9
102
}
330
3D9
100
AcDbScale
 70
     0
300
3/16" = 1'-0"
140
0.1875
141
12.0
290
     0
  0
SCALE
  5
3F2
102
{ACAD_REACTORS
330
3D9
102
}
330
3D9
100
AcDbScale
 70
     0
300
1/4" = 1'-0"
140
0.25
141
12.0
290
     0
  0
SCALE
  5
3F3
102
{ACAD_REACTORS
330
3D9
102
}
330
3D9
100
AcDbScale
 70
     0
300
3/8" = 1'-0"
140
0.375
141
12.0
290
     0
  0
SCALE
  5
3F4
102
{ACAD_REACTORS
330
3D9
102
}
330
3D9
100
AcDbScale
 70
     0
300
1/2" = 1'-0"
140
0.5
141
12.0
290
     0
  0
SCALE
  5
3F5
102
{ACAD_REACTORS
330
3D9
102
}
330
3D9
100
AcDbScale
 70
     0
300
3/4" = 1'-0"
140
0.75
141
12.0
290
     0
  0
SCALE
  5
3F6
102
{ACAD_REACTORS
330
3D9
102
}
330
3D9
100
AcDbScale
 70
     0
300
1" = 1'-0"
140
1.0
141
12.0
290
     0
  0
SCALE
  5
3F7
102
{ACAD_REACTORS
330
3D9
102
}
330
3D9
100
AcDbScale
 70
     0
300
1-1/2" = 1'-0"
140
1.5
141
12.0
290
     0
  0
SCALE
  5
3F8
102
{ACAD_REACTORS
330
3D9
102
}
330
3D9
100
AcDbScale
 70
     0
300
3" = 1'-0"
140
3.0
141
12.0
290
     0
  0
SCALE
  5
3F9
102
{ACAD_REACTORS
330
3D9
102
}
330
3D9
100
AcDbScale
 70
     0
300
6" = 1'-0"
140
6.0
141
12.0
290
     0
  0
SCALE
  5
3FA
102
{ACAD_REACTORS
330
3D9
102
}
330
3D9
100
AcDbScale
 70
     0
300
1'-0" = 1'-0"
140
12.0
141
12.0
290
     0
  0
TABLESTYLE
  5
39
102
{ACAD_XDICTIONARY
360
407
102
}
102
{ACAD_REACTORS
330
35
102
}
330
35
100
AcDbTableStyle
  3
Standard
 70
     0
 71
     0
 40
1.5
 41
1.5
280
     0
281
     0
  7
Standard
140
4.5
170
     2
 62
     0
 63
   257
283
     0
274
    -2
284
     1
 64
     0
275
    -2
285
     1
 65
     0
276
    -2
286
     1
 66
     0
277
    -2
287
     1
 67
     0
278
    -2
288
     1
 68
     0
279
    -2
289
     1
 69
     0
  7
Standard
140
6.0
170
     5
 62
     0
 63
   257
283
     0
274
    -2
284
     1
 64
     0
275
    -2
285
     1
 65
     0
276
    -2
286
     1
 66
     0
277
    -2
287
     1
 67
     0
278
    -2
288
     1
 68
     0
279
    -2
289
     1
 69
     0
  7
Standard
140
4.5
170
     5
 62
     0
 63
   257
283
     0
274
    -2
284
     1
 64
     0
275
    -2
285
     1
 65
     0
276
    -2
286
     1
 66
     0
277
    -2
287
     1
 67
     0
278
    -2
288
     1
 68
     0
279
    -2
289
     1
 69
     0
  0
VISUALSTYLE
  5
25
102
{ACAD_XDICTIONARY
360
405
102
}
102
{ACAD_REACTORS
330
26
102
}
330
26
100
AcDbVisualStyle
  2
2dWireframe
 70
     4
 71
     0
 72
     2
 73
     1
 90
        0
 40
-0.6
 41
-30.0
 62
     5
 63
     7
421
 16777215
 74
     1
 91
        4
 64
     7
 65
   257
 75
     1
175
     1
 42
1.0
 92
        0
 66
   257
 43
1.0
 76
     1
 77
     6
 78
     2
 67
     7
 79
     5
170
     0
171
     0
290
     0
174
     0
 93
        1
 44
0.0
173
     0
291
     0
 45
0.0
1001
ACAD
1000
AcDbSavedByObjectVersion
1070
     0
  0
VISUALSTYLE
  5
159
102
{ACAD_XDICTIONARY
360
419
102
}
102
{ACAD_REACTORS
330
26
102
}
330
26
100
AcDbVisualStyle
  2
3D Hidden
 70
     6
 71
     1
 72
     2
 73
     2
 90
        0
 40
-0.6
 41
-30.0
 62
     5
 63
     7
421
 16777215
 74
     2
 91
        2
 64
     7
 65
   257
 75
     2
175
     1
 42
40.0
 92
        0
 66
   257
 43
1.0
 76
     1
 77
     6
 78
     2
 67
     7
 79
     3
170
     0
171
     0
290
     0
174
     0
 93
        1
 44
0.0
173
     0
291
     0
 45
0.0
1001
ACAD
1000
AcDbSavedByObjectVersion
1070
     0
  0
VISUALSTYLE
  5
3B
102
{ACAD_XDICTIONARY
360
40D
102
}
102
{ACAD_REACTORS
330
26
102
}
330
26
100
AcDbVisualStyle
  2
3dWireframe
 70
     5
 71
     0
 72
     2
 73
     1
 90
        0
 40
-0.6
 41
-30.0
 62
     5
 63
     7
421
 16777215
 74
     1
 91
        4
 64
     7
 65
   257
 75
     1
175
     1
 42
1.0
 92
        0
 66
   257
 43
1.0
 76
     1
 77
     6
 78
     2
 67
     7
 79
     5
170
     0
171
     0
290
     0
174
     0
 93
        1
 44
0.0
173
     0
291
     0
 45
0.0
1001
ACAD
1000
AcDbSavedByObjectVersion
1070
     0
  0
VISUALSTYLE
  5
158
102
{ACAD_XDICTIONARY
360
417
102
}
102
{ACAD_REACTORS
330
26
102
}
330
26
100
AcDbVisualStyle
  2
Basic
 70
     7
 71
     1
 72
     0
 73
     1
 90
        0
 40
-0.6
 41
-30.0
 62
     5
 63
     7
421
 16777215
 74
     0
 91
        4
 64
     7
 65
   257
 75
     1
175
     1
 42
1.0
 92
        8
 66
     7
 43
1.0
 76
     1
 77
     6
 78
     2
 67
     7
 79
     5
170
     0
171
     0
290
     0
174
     0
 93
        1
 44
0.0
173
     0
291
     1
 45
0.0
1001
ACAD
1000
AcDbSavedByObjectVersion
1070
     0
  0
VISUALSTYLE
  5
15C
102
{ACAD_XDICTIONARY
360
41F
102
}
102
{ACAD_REACTORS
330
26
102
}
330
26
100
AcDbVisualStyle
  2
Brighten
 70
    12
 71
     2
 72
     2
 73
     0
 90
        0
 40
-0.6
 41
-30.0
 62
     5
 63
     7
421
 16777215
 74
     1
 91
        4
 64
     7
 65
   257
 75
     1
175
     1
 42
1.0
 92
        8
 66
     7
 43
1.0
 76
     1
 77
     6
 78
     2
 67
     7
 79
     5
170
     0
171
     0
290
     0
174
     0
 93
        1
 44
50.0
173
     0
291
     1
 45
0.0
1001
ACAD
1000
AcDbSavedByObjectVersion
1070
     0
  0
VISUALSTYLE
  5
160
102
{ACAD_XDICTIONARY
360
427
102
}
102
{ACAD_REACTORS
330
26
102
}
330
26
100
AcDbVisualStyle
  2
ColorChange
 70
    16
 71
     2
 72
     2
 73
     3
 90
        0
 40
-0.6
 41
-30.0
 62
     5
 63
     8
421
  8421504
 74
     1
 91
        4
 64
     7
 65
   257
 75
     1
175
     1
 42
1.0
 92
        8
 66
     8
424
  8421504
 43
1.0
 76
     1
 77
     6
 78
     2
 67
     7
 79
     5
170
     0
171
     0
290
     0
174
     0
 93
        1
 44
0.0
173
     0
291
     1
 45
0.0
1001
ACAD
1000
AcDbSavedByObjectVersion
1070
     0
  0
VISUALSTYLE
  5
15A
102
{ACAD_XDICTIONARY
360
41B
102
}
102
{ACAD_REACTORS
330
26
102
}
330
26
100
AcDbVisualStyle
  2
Conceptual
 70
     9
 71
     3
 72
     2
 73
     0
 90
        0
 40
-0.6
 41
-30.0
 62
     5
 63
     7
421
 16777215
 74
     2
 91
        2
 64
     7
 65
   257
 75
     1
175
     1
 42
40.0
 92
        8
 66
     7
 43
1.0
 76
     1
 77
     6
 78
     2
 67
     7
 79
     3
170
     0
171
     0
290
     0
174
     0
 93
        1
 44
0.0
173
     0
291
     0
 45
0.0
1001
ACAD
1000
AcDbSavedByObjectVersion
1070
     0
  0
VISUALSTYLE
  5
15B
102
{ACAD_XDICTIONARY
360
41D
102
}
102
{ACAD_REACTORS
330
26
102
}
330
26
100
AcDbVisualStyle
  2
Dim
 70
    11
 71
     2
 72
     2
 73
     0
 90
        0
 40
-0.6
 41
-30.0
 62
     5
 63
     7
421
 16777215
 74
     1
 91
        4
 64
     7
 65
   257
 75
     1
175
     1
 42
1.0
 92
        8
 66
     7
 43
1.0
 76
     1
 77
     6
 78
     2
 67
     7
 79
     5
170
     0
171
     0
290
     0
174
     0
 93
        1
 44
-50.0
173
     0
291
     1
 45
0.0
1001
ACAD
1000
AcDbSavedByObjectVersion
1070
     0
  0
VISUALSTYLE
  5
15F
102
{ACAD_XDICTIONARY
360
425
102
}
102
{ACAD_REACTORS
330
26
102
}
330
26
100
AcDbVisualStyle
  2
Facepattern
 70
    15
 71
     2
 72
     2
 73
     0
 90
        0
 40
-0.6
 41
-30.0
 62
     5
 63
     7
421
 16777215
 74
     1
 91
        4
 64
     7
 65
   257
 75
     1
175
     1
 42
1.0
 92
        8
 66
     7
 43
1.0
 76
     1
 77
     6
 78
     2
 67
     7
 79
     5
170
     0
171
     0
290
     0
174
     0
 93
        1
 44
0.0
173
     0
291
     1
 45
0.0
1001
ACAD
1000
AcDbSavedByObjectVersion
1070
     0
  0
VISUALSTYLE
  5
154
102
{ACAD_XDICTIONARY
360
40F
102
}
102
{ACAD_REACTORS
330
26
102
}
330
26
100
AcDbVisualStyle
  2
Flat
 70
     0
 71
     2
 72
     1
 73
     1
 90
        2
 40
-0.6
 41
30.0
 62
     5
 63
     7
421
 16777215
 74
     0
 91
        4
 64
     7
 65
   257
 75
     1
175
     1
 42
1.0
 92
        8
 66
     7
 43
1.0
 76
     1
 77
     6
 78
     2
 67
     7
 79
     5
170
     0
171
     0
290
     0
174
     0
 93
       13
 44
0.0
173
     0
291
     1
 45
0.0
1001
ACAD
1000
AcDbSavedByObjectVersion
1070
     0
  0
VISUALSTYLE
  5
155
102
{ACAD_XDICTIONARY
360
411
102
}
102
{ACAD_REACTORS
330
26
102
}
330
26
100
AcDbVisualStyle
  2
FlatWithEdges
 70
     1
 71
     2
 72
     1
 73
     1
 90
        2
 40
-0.6
 41
30.0
 62
     5
 63
     7
421
 16777215
 74
     1
 91
        4
 64
     7
 65
   257
 75
     1
175
     1
 42
1.0
 92
        0
 66
   257
 43
1.0
 76
     1
 77
     6
 78
     2
 67
     7
 79
     5
170
     0
171
     0
290
     0
174
     0
 93
       13
 44
0.0
173
     0
291
     1
 45
0.0
1001
ACAD
1000
AcDbSavedByObjectVersion
1070
     0
  0
VISUALSTYLE
  5
156
102
{ACAD_XDICTIONARY
360
413
102
}
102
{ACAD_REACTORS
330
26
102
}
330
26
100
AcDbVisualStyle
  2
Gouraud
 70
     2
 71
     2
 72
     2
 73
     1
 90
        2
 40
-0.6
 41
30.0
 62
     5
 63
     7
421
 16777215
 74
     0
 91
        4
 64
     7
 65
   257
 75
     1
175
     1
 42
1.0
 92
        0
 66
     7
 43
1.0
 76
     1
 77
     6
 78
     2
 67
     7
 79
     5
170
     0
171
     0
290
     0
174
     0
 93
       13
 44
0.0
173
     0
291
     1
 45
0.0
1001
ACAD
1000
AcDbSavedByObjectVersion
1070
     0
  0
VISUALSTYLE
  5
157
102
{ACAD_XDICTIONARY
360
415
102
}
102
{ACAD_REACTORS
330
26
102
}
330
26
100
AcDbVisualStyle
  2
GouraudWithEdges
 70
     3
 71
     2
 72
     2
 73
     1
 90
        2
 40
-0.6
 41
30.0
 62
     5
 63
     7
421
 16777215
 74
     1
 91
        4
 64
     7
 65
   257
 75
     1
175
     1
 42
1.0
 92
        0
 66
   257
 43
1.0
 76
     1
 77
     6
 78
     2
 67
     7
 79
     5
170
     0
171
     0
290
     0
174
     0
 93
       13
 44
0.0
173
     0
291
     1
 45
0.0
1001
ACAD
1000
AcDbSavedByObjectVersion
1070
     0
  0
VISUALSTYLE
  5
15E
102
{ACAD_XDICTIONARY
360
423
102
}
102
{ACAD_REACTORS
330
26
102
}
330
26
100
AcDbVisualStyle
  2
Linepattern
 70
    14
 71
     2
 72
     2
 73
     0
 90
        0
 40
-0.6
 41
-30.0
 62
     5
 63
     7
421
 16777215
 74
     1
 91
        4
 64
     7
 65
   257
 75
     7
175
     7
 42
1.0
 92
        8
 66
     7
 43
1.0
 76
     1
 77
     6
 78
     2
 67
     7
 79
     5
170
     0
171
     0
290
     0
174
     0
 93
        1
 44
0.0
173
     0
291
     1
 45
0.0
1001
ACAD
1000
AcDbSavedByObjectVersion
1070
     0
  0
VISUALSTYLE
  5
3A
102
{ACAD_XDICTIONARY
360
40B
102
}
102
{ACAD_REACTORS
330
26
102
}
330
26
100
AcDbVisualStyle
  2
Realistic
 70
     8
 71
     2
 72
     2
 73
     1
 90
        0
 40
-0.6
 41
-30.0
 62
     5
 63
     7
421
 16777215
 74
     1
 91
        0
 64
     7
 65
   257
 75
     1
175
     1
 42
1.0
 92
        8
 66
     8
424
  7895160
 43
1.0
 76
     1
 77
     6
 78
     2
 67
     7
 79
     5
170
     0
171
     0
290
     0
174
     0
 93
       13
 44
0.0
173
     0
291
     0
 45
0.0
1001
ACAD
1000
AcDbSavedByObjectVersion
1070
     0
  0
VISUALSTYLE
  5
15D
102
{ACAD_XDICTIONARY
360
421
102
}
102
{ACAD_REACTORS
330
26
102
}
330
26
100
AcDbVisualStyle
  2
Thicken
 70
    13
 71
     2
 72
     2
 73
     0
 90
        0
 40
-0.6
 41
-30.0
 62
     5
 63
     7
421
 16777215
 74
     1
 91
        4
 64
     7
 65
   257
 75
     1
175
     1
 42
1.0
 92
       12
 66
     7
 43
1.0
 76
     1
 77
     6
 78
     2
 67
     7
 79
     5
170
     0
171
     0
290
     0
174
     0
 93
        1
 44
0.0
173
     0
291
     1
 45
0.0
1001
ACAD
1000
AcDbSavedByObjectVersion
1070
     0
  0
DICTIONARYVAR
  5
402
102
{ACAD_REACTORS
330
151
102
}
330
151
100
DictionaryVariables
280
     0
  1
STANDARD
  0
DICTIONARYVAR
  5
152
102
{ACAD_REACTORS
330
151
102
}
330
151
100
DictionaryVariables
280
     0
  1
STANDARD
  0
DICTIONARY
  5
407
330
39
100
AcDbDictionary
280
     1
281
     1
  3
ACAD_ROUNDTRIP_2008_TABLESTYLE_CELLSTYLEMAP
360
409
  3
ACAD_XREC_ROUNDTRIP
360
408
  0
DICTIONARY
  5
405
330
25
100
AcDbDictionary
280
     1
281
     1
  3
ACAD_XREC_ROUNDTRIP
360
406
  0
DICTIONARY
  5
419
330
159
100
AcDbDictionary
280
     1
281
     1
  3
ACAD_XREC_ROUNDTRIP
360
41A
  0
DICTIONARY
  5
40D
330
3B
100
AcDbDictionary
280
     1
281
     1
  3
ACAD_XREC_ROUNDTRIP
360
40E
  0
DICTIONARY
  5
417
330
158
100
AcDbDictionary
280
     1
281
     1
  3
ACAD_XREC_ROUNDTRIP
360
418
  0
DICTIONARY
  5
41F
330
15C
100
AcDbDictionary
280
     1
281
     1
  3
ACAD_XREC_ROUNDTRIP
360
420
  0
DICTIONARY
  5
427
330
160
100
AcDbDictionary
280
     1
281
     1
  3
ACAD_XREC_ROUNDTRIP
360
428
  0
DICTIONARY
  5
41B
330
15A
100
AcDbDictionary
280
     1
281
     1
  3
ACAD_XREC_ROUNDTRIP
360
41C
  0
DICTIONARY
  5
41D
330
15B
100
AcDbDictionary
280
     1
281
     1
  3
ACAD_XREC_ROUNDTRIP
360
41E
  0
DICTIONARY
  5
425
330
15F
100
AcDbDictionary
280
     1
281
     1
  3
ACAD_XREC_ROUNDTRIP
360
426
  0
DICTIONARY
  5
40F
330
154
100
AcDbDictionary
280
     1
281
     1
  3
ACAD_XREC_ROUNDTRIP
360
410
  0
DICTIONARY
  5
411
330
155
100
AcDbDictionary
280
     1
281
     1
  3
ACAD_XREC_ROUNDTRIP
360
412
  0
DICTIONARY
  5
413
330
156
100
AcDbDictionary
280
     1
281
     1
  3
ACAD_XREC_ROUNDTRIP
360
414
  0
DICTIONARY
  5
415
330
157
100
AcDbDictionary
280
     1
281
     1
  3
ACAD_XREC_ROUNDTRIP
360
416
  0
DICTIONARY
  5
423
330
15E
100
AcDbDictionary
280
     1
281
     1
  3
ACAD_XREC_ROUNDTRIP
360
424
  0
DICTIONARY
  5
40B
330
3A
100
AcDbDictionary
280
     1
281
     1
  3
ACAD_XREC_ROUNDTRIP
360
40C
  0
DICTIONARY
  5
421
330
15D
100
AcDbDictionary
280
     1
281
     1
  3
ACAD_XREC_ROUNDTRIP
360
422
  0
CELLSTYLEMAP
  5
409
102
{ACAD_REACTORS
330
407
102
}
330
407
100
AcDbCellStyleMap
 90
        3
300
CELLSTYLE
  1
TABLEFORMAT_BEGIN
 90
        5
170
     1
 91
        0
 92
        0
 62
   257
 93
        1
300
CONTENTFORMAT
  1
CONTENTFORMAT_BEGIN
 90
        0
 91
        0
 92
      512
 93
        0
300

 40
0.0
140
1.0
 94
        5
 62
     0
340
1C
144
6.0
309
CONTENTFORMAT_END
171
     1
301
MARGIN
  1
CELLMARGIN_BEGIN
 40
1.5
 40
1.5
 40
1.5
 40
1.5
 40
4.5
 40
4.5
309
CELLMARGIN_END
 94
        6
 95
        1
302
GRIDFORMAT
  1
GRIDFORMAT_BEGIN
 90
        0
 91
        1
 62
     0
 92
       -2
340
0
 93
        0
 40
0.045
309
GRIDFORMAT_END
 95
        2
302
GRIDFORMAT
  1
GRIDFORMAT_BEGIN
 90
        0
 91
        1
 62
     0
 92
       -2
340
0
 93
        0
 40
0.045
309
GRIDFORMAT_END
 95
        4
302
GRIDFORMAT
  1
GRIDFORMAT_BEGIN
 90
        0
 91
        1
 62
     0
 92
       -2
340
0
 93
        0
 40
0.045
309
GRIDFORMAT_END
 95
        8
302
GRIDFORMAT
  1
GRIDFORMAT_BEGIN
 90
        0
 91
        1
 62
     0
 92
       -2
340
0
 93
        0
 40
0.045
309
GRIDFORMAT_END
 95
       16
302
GRIDFORMAT
  1
GRIDFORMAT_BEGIN
 90
        0
 91
        1
 62
     0
 92
       -2
340
0
 93
        0
 40
0.045
309
GRIDFORMAT_END
 95
       32
302
GRIDFORMAT
  1
GRIDFORMAT_BEGIN
 90
        0
 91
        1
 62
     0
 92
       -2
340
0
 93
        0
 40
0.045
309
GRIDFORMAT_END
309
TABLEFORMAT_END
  1
CELLSTYLE_BEGIN
 90
        1
 91
        1
300
_TITLE
309
CELLSTYLE_END
300
CELLSTYLE
  1
TABLEFORMAT_BEGIN
 90
        5
170
     1
 91
        0
 92
        0
 62
   257
 93
        1
300
CONTENTFORMAT
  1
CONTENTFORMAT_BEGIN
 90
        0
 91
        0
 92
      512
 93
        0
300

 40
0.0
140
1.0
 94
        5
 62
     0
340
1C
144
4.5
309
CONTENTFORMAT_END
171
     1
301
MARGIN
  1
CELLMARGIN_BEGIN
 40
1.5
 40
1.5
 40
1.5
 40
1.5
 40
4.5
 40
4.5
309
CELLMARGIN_END
 94
        6
 95
        1
302
GRIDFORMAT
  1
GRIDFORMAT_BEGIN
 90
        0
 91
        1
 62
     0
 92
       -2
340
0
 93
        0
 40
0.045
309
GRIDFORMAT_END
 95
        2
302
GRIDFORMAT
  1
GRIDFORMAT_BEGIN
 90
        0
 91
        1
 62
     0
 92
       -2
340
0
 93
        0
 40
0.045
309
GRIDFORMAT_END
 95
        4
302
GRIDFORMAT
  1
GRIDFORMAT_BEGIN
 90
        0
 91
        1
 62
     0
 92
       -2
340
0
 93
        0
 40
0.045
309
GRIDFORMAT_END
 95
        8
302
GRIDFORMAT
  1
GRIDFORMAT_BEGIN
 90
        0
 91
        1
 62
     0
 92
       -2
340
0
 93
        0
 40
0.045
309
GRIDFORMAT_END
 95
       16
302
GRIDFORMAT
  1
GRIDFORMAT_BEGIN
 90
        0
 91
        1
 62
     0
 92
       -2
340
0
 93
        0
 40
0.045
309
GRIDFORMAT_END
 95
       32
302
GRIDFORMAT
  1
GRIDFORMAT_BEGIN
 90
        0
 91
        1
 62
     0
 92
       -2
340
0
 93
        0
 40
0.045
309
GRIDFORMAT_END
309
TABLEFORMAT_END
  1
CELLSTYLE_BEGIN
 90
        2
 91
        1
300
_HEADER
309
CELLSTYLE_END
300
CELLSTYLE
  1
TABLEFORMAT_BEGIN
 90
        5
170
     1
 91
        0
 92
        0
 62
   257
 93
        1
300
CONTENTFORMAT
  1
CONTENTFORMAT_BEGIN
 90
        0
 91
        0
 92
      512
 93
        0
300

 40
0.0
140
1.0
 94
        2
 62
     0
340
1C
144
4.5
309
CONTENTFORMAT_END
171
     1
301
MARGIN
  1
CELLMARGIN_BEGIN
 40
1.5
 40
1.5
 40
1.5
 40
1.5
 40
4.5
 40
4.5
309
CELLMARGIN_END
 94
        6
 95
        1
302
GRIDFORMAT
  1
GRIDFORMAT_BEGIN
 90
        0
 91
        1
 62
     0
 92
       -2
340
0
 93
        0
 40
0.045
309
GRIDFORMAT_END
 95
        2
302
GRIDFORMAT
  1
GRIDFORMAT_BEGIN
 90
        0
 91
        1
 62
     0
 92
       -2
340
0
 93
        0
 40
0.045
309
GRIDFORMAT_END
 95
        4
302
GRIDFORMAT
  1
GRIDFORMAT_BEGIN
 90
        0
 91
        1
 62
     0
 92
       -2
340
0
 93
        0
 40
0.045
309
GRIDFORMAT_END
 95
        8
302
GRIDFORMAT
  1
GRIDFORMAT_BEGIN
 90
        0
 91
        1
 62
     0
 92
       -2
340
0
 93
        0
 40
0.045
309
GRIDFORMAT_END
 95
       16
302
GRIDFORMAT
  1
GRIDFORMAT_BEGIN
 90
        0
 91
        1
 62
     0
 92
       -2
340
0
 93
        0
 40
0.045
309
GRIDFORMAT_END
 95
       32
302
GRIDFORMAT
  1
GRIDFORMAT_BEGIN
 90
        0
 91
        1
 62
     0
 92
       -2
340
0
 93
        0
 40
0.045
309
GRIDFORMAT_END
309
TABLEFORMAT_END
  1
CELLSTYLE_BEGIN
 90
        3
 91
        2
300
_DATA
309
CELLSTYLE_END
  0
XRECORD
  5
408
102
{ACAD_REACTORS
330
407
102
}
330
407
100
AcDbXrecord
280
     1
102
ACAD_ROUNDTRIP_PRE2007_TABLESTYLE
 90
      512
 91
        0
  1

 92
      512
 93
        0
  2

 94
      512
 95
        0
  3

  0
XRECORD
  5
406
102
{ACAD_REACTORS
330
405
102
}
330
405
100
AcDbXrecord
280
     1
102
RTVSPropertyOp0
 70
     1
102
RTVSPropertyOp1
 70
     1
102
RTVSPropertyOp2
 70
     1
102
RTVSPropertyOp3
 70
     1
102
RTVSPropertyOp4
 70
     1
102
RTVSPropertyOp5
 70
     1
102
RTVSPropertyOp6
 70
     1
102
RTVSPropertyOp7
 70
     1
102
RTVSPropertyOp8
 70
     1
102
RTVSPropertyOp9
 70
     1
102
RTVSPropertyOp10
 70
     1
102
RTVSPropertyOp11
 70
     1
102
RTVSPropertyOp12
 70
     1
102
RTVSPropertyOp13
 70
     1
102
RTVSPropertyOp14
 70
     1
102
RTVSPropertyOp15
 70
     1
102
RTVSPropertyOp16
 70
     1
102
RTVSPropertyOp17
 70
     1
102
RTVSPropertyOp18
 70
     1
102
RTVSPropertyOp19
 70
     1
102
RTVSPropertyOp20
 70
     1
102
RTVSPropertyOp21
 70
     1
102
RTVSPropertyOp22
 70
     1
102
RTVSPropertyOp23
 70
     1
102
RTVSPropertyOp24
 70
     1
102
RTVSPropertyOp25
 70
     1
102
RTVSPropertyOp26
 70
     1
102
RTVSPropertyOp27
 70
     1
  0
XRECORD
  5
41A
102
{ACAD_REACTORS
330
419
102
}
330
419
100
AcDbXrecord
280
     1
102
RTVSPropertyOp0
 70
     1
102
RTVSPropertyOp1
 70
     1
102
RTVSPropertyOp2
 70
     1
102
RTVSPropertyOp3
 70
     1
102
RTVSPropertyOp4
 70
     1
102
RTVSPropertyOp5
 70
     1
102
RTVSPropertyOp6
 70
     1
102
RTVSPropertyOp7
 70
     1
102
RTVSPropertyOp8
 70
     1
102
RTVSPropertyOp9
 70
     1
102
RTVSPropertyOp10
 70
     1
102
RTVSPropertyOp11
 70
     1
102
RTVSPropertyOp12
 70
     1
102
RTVSPropertyOp13
 70
     1
102
RTVSPropertyOp14
 70
     1
102
RTVSPropertyOp15
 70
     1
102
RTVSPropertyOp16
 70
     1
102
RTVSPropertyOp17
 70
     1
102
RTVSPropertyOp18
 70
     1
102
RTVSPropertyOp19
 70
     1
102
RTVSPropertyOp20
 70
     1
102
RTVSPropertyOp21
 70
     1
102
RTVSPropertyOp22
 70
     1
102
RTVSPropertyOp23
 70
     1
102
RTVSPropertyOp24
 70
     1
102
RTVSPropertyOp25
 70
     1
102
RTVSPropertyOp26
 70
     1
102
RTVSPropertyOp27
 70
     1
  0
XRECORD
  5
40E
102
{ACAD_REACTORS
330
40D
102
}
330
40D
100
AcDbXrecord
280
     1
102
RTVSPropertyOp0
 70
     1
102
RTVSPropertyOp1
 70
     1
102
RTVSPropertyOp2
 70
     1
102
RTVSPropertyOp3
 70
     1
102
RTVSPropertyOp4
 70
     1
102
RTVSPropertyOp5
 70
     1
102
RTVSPropertyOp6
 70
     1
102
RTVSPropertyOp7
 70
     1
102
RTVSPropertyOp8
 70
     1
102
RTVSPropertyOp9
 70
     1
102
RTVSPropertyOp10
 70
     1
102
RTVSPropertyOp11
 70
     1
102
RTVSPropertyOp12
 70
     1
102
RTVSPropertyOp13
 70
     1
102
RTVSPropertyOp14
 70
     1
102
RTVSPropertyOp15
 70
     1
102
RTVSPropertyOp16
 70
     1
102
RTVSPropertyOp17
 70
     1
102
RTVSPropertyOp18
 70
     1
102
RTVSPropertyOp19
 70
     1
102
RTVSPropertyOp20
 70
     1
102
RTVSPropertyOp21
 70
     1
102
RTVSPropertyOp22
 70
     1
102
RTVSPropertyOp23
 70
     1
102
RTVSPropertyOp24
 70
     1
102
RTVSPropertyOp25
 70
     1
102
RTVSPropertyOp26
 70
     1
102
RTVSPropertyOp27
 70
     1
  0
XRECORD
  5
418
102
{ACAD_REACTORS
330
417
102
}
330
417
100
AcDbXrecord
280
     1
102
RTVSPropertyOp0
 70
     1
102
RTVSPropertyOp1
 70
     1
102
RTVSPropertyOp2
 70
     1
102
RTVSPropertyOp3
 70
     1
102
RTVSPropertyOp4
 70
     1
102
RTVSPropertyOp5
 70
     1
102
RTVSPropertyOp6
 70
     1
102
RTVSPropertyOp7
 70
     1
102
RTVSPropertyOp8
 70
     1
102
RTVSPropertyOp9
 70
     1
102
RTVSPropertyOp10
 70
     1
102
RTVSPropertyOp11
 70
     1
102
RTVSPropertyOp12
 70
     1
102
RTVSPropertyOp13
 70
     1
102
RTVSPropertyOp14
 70
     1
102
RTVSPropertyOp15
 70
     1
102
RTVSPropertyOp16
 70
     1
102
RTVSPropertyOp17
 70
     1
102
RTVSPropertyOp18
 70
     1
102
RTVSPropertyOp19
 70
     1
102
RTVSPropertyOp20
 70
     1
102
RTVSPropertyOp21
 70
     1
102
RTVSPropertyOp22
 70
     1
102
RTVSPropertyOp23
 70
     1
102
RTVSPropertyOp24
 70
     1
102
RTVSPropertyOp25
 70
     1
102
RTVSPropertyOp26
 70
     1
102
RTVSPropertyOp27
 70
     1
  0
XRECORD
  5
420
102
{ACAD_REACTORS
330
41F
102
}
330
41F
100
AcDbXrecord
280
     1
102
RTVSPropertyOp0
 70
     1
102
RTVSPropertyOp1
 70
     1
102
RTVSPropertyOp2
 70
     1
102
RTVSPropertyOp3
 70
     1
102
RTVSPropertyOp4
 70
     1
102
RTVSPropertyOp5
 70
     1
102
RTVSPropertyOp6
 70
     1
102
RTVSPropertyOp7
 70
     1
102
RTVSPropertyOp8
 70
     1
102
RTVSPropertyOp9
 70
     1
102
RTVSPropertyOp10
 70
     1
102
RTVSPropertyOp11
 70
     1
102
RTVSPropertyOp12
 70
     1
102
RTVSPropertyOp13
 70
     1
102
RTVSPropertyOp14
 70
     1
102
RTVSPropertyOp15
 70
     1
102
RTVSPropertyOp16
 70
     1
102
RTVSPropertyOp17
 70
     1
102
RTVSPropertyOp18
 70
     1
102
RTVSPropertyOp19
 70
     1
102
RTVSPropertyOp20
 70
     1
102
RTVSPropertyOp21
 70
     1
102
RTVSPropertyOp22
 70
     1
102
RTVSPropertyOp23
 70
     1
102
RTVSPropertyOp24
 70
     1
102
RTVSPropertyOp25
 70
     1
102
RTVSPropertyOp26
 70
     1
102
RTVSPropertyOp27
 70
     1
  0
XRECORD
  5
428
102
{ACAD_REACTORS
330
427
102
}
330
427
100
AcDbXrecord
280
     1
102
RTVSPropertyOp0
 70
     1
102
RTVSPropertyOp1
 70
     1
102
RTVSPropertyOp2
 70
     1
102
RTVSPropertyOp3
 70
     1
102
RTVSPropertyOp4
 70
     1
102
RTVSPropertyOp5
 70
     1
102
RTVSPropertyOp6
 70
     1
102
RTVSPropertyOp7
 70
     1
102
RTVSPropertyOp8
 70
     1
102
RTVSPropertyOp9
 70
     1
102
RTVSPropertyOp10
 70
     1
102
RTVSPropertyOp11
 70
     1
102
RTVSPropertyOp12
 70
     1
102
RTVSPropertyOp13
 70
     1
102
RTVSPropertyOp14
 70
     1
102
RTVSPropertyOp15
 70
     1
102
RTVSPropertyOp16
 70
     1
102
RTVSPropertyOp17
 70
     1
102
RTVSPropertyOp18
 70
     1
102
RTVSPropertyOp19
 70
     1
102
RTVSPropertyOp20
 70
     1
102
RTVSPropertyOp21
 70
     1
102
RTVSPropertyOp22
 70
     1
102
RTVSPropertyOp23
 70
     1
102
RTVSPropertyOp24
 70
     1
102
RTVSPropertyOp25
 70
     1
102
RTVSPropertyOp26
 70
     1
102
RTVSPropertyOp27
 70
     1
  0
XRECORD
  5
41C
102
{ACAD_REACTORS
330
41B
102
}
330
41B
100
AcDbXrecord
280
     1
102
RTVSPropertyOp0
 70
     1
102
RTVSPropertyOp1
 70
     1
102
RTVSPropertyOp2
 70
     1
102
RTVSPropertyOp3
 70
     1
102
RTVSPropertyOp4
 70
     1
102
RTVSPropertyOp5
 70
     1
102
RTVSPropertyOp6
 70
     1
102
RTVSPropertyOp7
 70
     1
102
RTVSPropertyOp8
 70
     1
102
RTVSPropertyOp9
 70
     1
102
RTVSPropertyOp10
 70
     1
102
RTVSPropertyOp11
 70
     1
102
RTVSPropertyOp12
 70
     1
102
RTVSPropertyOp13
 70
     1
102
RTVSPropertyOp14
 70
     1
102
RTVSPropertyOp15
 70
     1
102
RTVSPropertyOp16
 70
     1
102
RTVSPropertyOp17
 70
     1
102
RTVSPropertyOp18
 70
     1
102
RTVSPropertyOp19
 70
     1
102
RTVSPropertyOp20
 70
     1
102
RTVSPropertyOp21
 70
     1
102
RTVSPropertyOp22
 70
     1
102
RTVSPropertyOp23
 70
     1
102
RTVSPropertyOp24
 70
     1
102
RTVSPropertyOp25
 70
     1
102
RTVSPropertyOp26
 70
     1
102
RTVSPropertyOp27
 70
     1
  0
XRECORD
  5
41E
102
{ACAD_REACTORS
330
41D
102
}
330
41D
100
AcDbXrecord
280
     1
102
RTVSPropertyOp0
 70
     1
102
RTVSPropertyOp1
 70
     1
102
RTVSPropertyOp2
 70
     1
102
RTVSPropertyOp3
 70
     1
102
RTVSPropertyOp4
 70
     1
102
RTVSPropertyOp5
 70
     1
102
RTVSPropertyOp6
 70
     1
102
RTVSPropertyOp7
 70
     1
102
RTVSPropertyOp8
 70
     1
102
RTVSPropertyOp9
 70
     1
102
RTVSPropertyOp10
 70
     1
102
RTVSPropertyOp11
 70
     1
102
RTVSPropertyOp12
 70
     1
102
RTVSPropertyOp13
 70
     1
102
RTVSPropertyOp14
 70
     1
102
RTVSPropertyOp15
 70
     1
102
RTVSPropertyOp16
 70
     1
102
RTVSPropertyOp17
 70
     1
102
RTVSPropertyOp18
 70
     1
102
RTVSPropertyOp19
 70
     1
102
RTVSPropertyOp20
 70
     1
102
RTVSPropertyOp21
 70
     1
102
RTVSPropertyOp22
 70
     1
102
RTVSPropertyOp23
 70
     1
102
RTVSPropertyOp24
 70
     1
102
RTVSPropertyOp25
 70
     1
102
RTVSPropertyOp26
 70
     1
102
RTVSPropertyOp27
 70
     1
  0
XRECORD
  5
426
102
{ACAD_REACTORS
330
425
102
}
330
425
100
AcDbXrecord
280
     1
102
RTVSPropertyOp0
 70
     1
102
RTVSPropertyOp1
 70
     1
102
RTVSPropertyOp2
 70
     1
102
RTVSPropertyOp3
 70
     1
102
RTVSPropertyOp4
 70
     1
102
RTVSPropertyOp5
 70
     1
102
RTVSPropertyOp6
 70
     1
102
RTVSPropertyOp7
 70
     1
102
RTVSPropertyOp8
 70
     1
102
RTVSPropertyOp9
 70
     1
102
RTVSPropertyOp10
 70
     1
102
RTVSPropertyOp11
 70
     1
102
RTVSPropertyOp12
 70
     1
102
RTVSPropertyOp13
 70
     1
102
RTVSPropertyOp14
 70
     1
102
RTVSPropertyOp15
 70
     1
102
RTVSPropertyOp16
 70
     1
102
RTVSPropertyOp17
 70
     1
102
RTVSPropertyOp18
 70
     1
102
RTVSPropertyOp19
 70
     1
102
RTVSPropertyOp20
 70
     1
102
RTVSPropertyOp21
 70
     1
102
RTVSPropertyOp22
 70
     1
102
RTVSPropertyOp23
 70
     1
102
RTVSPropertyOp24
 70
     1
102
RTVSPropertyOp25
 70
     1
102
RTVSPropertyOp26
 70
     1
102
RTVSPropertyOp27
 70
     1
  0
XRECORD
  5
410
102
{ACAD_REACTORS
330
40F
102
}
330
40F
100
AcDbXrecord
280
     1
102
RTVSPropertyOp0
 70
     1
102
RTVSPropertyOp1
 70
     1
102
RTVSPropertyOp2
 70
     1
102
RTVSPropertyOp3
 70
     1
102
RTVSPropertyOp4
 70
     1
102
RTVSPropertyOp5
 70
     1
102
RTVSPropertyOp6
 70
     1
102
RTVSPropertyOp7
 70
     1
102
RTVSPropertyOp8
 70
     1
102
RTVSPropertyOp9
 70
     1
102
RTVSPropertyOp10
 70
     1
102
RTVSPropertyOp11
 70
     1
102
RTVSPropertyOp12
 70
     1
102
RTVSPropertyOp13
 70
     1
102
RTVSPropertyOp14
 70
     1
102
RTVSPropertyOp15
 70
     1
102
RTVSPropertyOp16
 70
     1
102
RTVSPropertyOp17
 70
     1
102
RTVSPropertyOp18
 70
     1
102
RTVSPropertyOp19
 70
     1
102
RTVSPropertyOp20
 70
     1
102
RTVSPropertyOp21
 70
     1
102
RTVSPropertyOp22
 70
     1
102
RTVSPropertyOp23
 70
     1
102
RTVSPropertyOp24
 70
     1
102
RTVSPropertyOp25
 70
     1
102
RTVSPropertyOp26
 70
     1
102
RTVSPropertyOp27
 70
     1
  0
XRECORD
  5
412
102
{ACAD_REACTORS
330
411
102
}
330
411
100
AcDbXrecord
280
     1
102
RTVSPropertyOp0
 70
     1
102
RTVSPropertyOp1
 70
     1
102
RTVSPropertyOp2
 70
     1
102
RTVSPropertyOp3
 70
     1
102
RTVSPropertyOp4
 70
     1
102
RTVSPropertyOp5
 70
     1
102
RTVSPropertyOp6
 70
     1
102
RTVSPropertyOp7
 70
     1
102
RTVSPropertyOp8
 70
     1
102
RTVSPropertyOp9
 70
     1
102
RTVSPropertyOp10
 70
     1
102
RTVSPropertyOp11
 70
     1
102
RTVSPropertyOp12
 70
     1
102
RTVSPropertyOp13
 70
     1
102
RTVSPropertyOp14
 70
     1
102
RTVSPropertyOp15
 70
     1
102
RTVSPropertyOp16
 70
     1
102
RTVSPropertyOp17
 70
     1
102
RTVSPropertyOp18
 70
     1
102
RTVSPropertyOp19
 70
     1
102
RTVSPropertyOp20
 70
     1
102
RTVSPropertyOp21
 70
     1
102
RTVSPropertyOp22
 70
     1
102
RTVSPropertyOp23
 70
     1
102
RTVSPropertyOp24
 70
     1
102
RTVSPropertyOp25
 70
     1
102
RTVSPropertyOp26
 70
     1
102
RTVSPropertyOp27
 70
     1
  0
XRECORD
  5
414
102
{ACAD_REACTORS
330
413
102
}
330
413
100
AcDbXrecord
280
     1
102
RTVSPropertyOp0
 70
     1
102
RTVSPropertyOp1
 70
     1
102
RTVSPropertyOp2
 70
     1
102
RTVSPropertyOp3
 70
     1
102
RTVSPropertyOp4
 70
     1
102
RTVSPropertyOp5
 70
     1
102
RTVSPropertyOp6
 70
     1
102
RTVSPropertyOp7
 70
     1
102
RTVSPropertyOp8
 70
     1
102
RTVSPropertyOp9
 70
     1
102
RTVSPropertyOp10
 70
     1
102
RTVSPropertyOp11
 70
     1
102
RTVSPropertyOp12
 70
     1
102
RTVSPropertyOp13
 70
     1
102
RTVSPropertyOp14
 70
     1
102
RTVSPropertyOp15
 70
     1
102
RTVSPropertyOp16
 70
     1
102
RTVSPropertyOp17
 70
     1
102
RTVSPropertyOp18
 70
     1
102
RTVSPropertyOp19
 70
     1
102
RTVSPropertyOp20
 70
     1
102
RTVSPropertyOp21
 70
     1
102
RTVSPropertyOp22
 70
     1
102
RTVSPropertyOp23
 70
     1
102
RTVSPropertyOp24
 70
     1
102
RTVSPropertyOp25
 70
     1
102
RTVSPropertyOp26
 70
     1
102
RTVSPropertyOp27
 70
     1
  0
XRECORD
  5
416
102
{ACAD_REACTORS
330
415
102
}
330
415
100
AcDbXrecord
280
     1
102
RTVSPropertyOp0
 70
     1
102
RTVSPropertyOp1
 70
     1
102
RTVSPropertyOp2
 70
     1
102
RTVSPropertyOp3
 70
     1
102
RTVSPropertyOp4
 70
     1
102
RTVSPropertyOp5
 70
     1
102
RTVSPropertyOp6
 70
     1
102
RTVSPropertyOp7
 70
     1
102
RTVSPropertyOp8
 70
     1
102
RTVSPropertyOp9
 70
     1
102
RTVSPropertyOp10
 70
     1
102
RTVSPropertyOp11
 70
     1
102
RTVSPropertyOp12
 70
     1
102
RTVSPropertyOp13
 70
     1
102
RTVSPropertyOp14
 70
     1
102
RTVSPropertyOp15
 70
     1
102
RTVSPropertyOp16
 70
     1
102
RTVSPropertyOp17
 70
     1
102
RTVSPropertyOp18
 70
     1
102
RTVSPropertyOp19
 70
     1
102
RTVSPropertyOp20
 70
     1
102
RTVSPropertyOp21
 70
     1
102
RTVSPropertyOp22
 70
     1
102
RTVSPropertyOp23
 70
     1
102
RTVSPropertyOp24
 70
     1
102
RTVSPropertyOp25
 70
     1
102
RTVSPropertyOp26
 70
     1
102
RTVSPropertyOp27
 70
     1
  0
XRECORD
  5
424
102
{ACAD_REACTORS
330
423
102
}
330
423
100
AcDbXrecord
280
     1
102
RTVSPropertyOp0
 70
     1
102
RTVSPropertyOp1
 70
     1
102
RTVSPropertyOp2
 70
     1
102
RTVSPropertyOp3
 70
     1
102
RTVSPropertyOp4
 70
     1
102
RTVSPropertyOp5
 70
     1
102
RTVSPropertyOp6
 70
     1
102
RTVSPropertyOp7
 70
     1
102
RTVSPropertyOp8
 70
     1
102
RTVSPropertyOp9
 70
     1
102
RTVSPropertyOp10
 70
     1
102
RTVSPropertyOp11
 70
     1
102
RTVSPropertyOp12
 70
     1
102
RTVSPropertyOp13
 70
     1
102
RTVSPropertyOp14
 70
     1
102
RTVSPropertyOp15
 70
     1
102
RTVSPropertyOp16
 70
     1
102
RTVSPropertyOp17
 70
     1
102
RTVSPropertyOp18
 70
     1
102
RTVSPropertyOp19
 70
     1
102
RTVSPropertyOp20
 70
     1
102
RTVSPropertyOp21
 70
     1
102
RTVSPropertyOp22
 70
     1
102
RTVSPropertyOp23
 70
     1
102
RTVSPropertyOp24
 70
     1
102
RTVSPropertyOp25
 70
     1
102
RTVSPropertyOp26
 70
     1
102
RTVSPropertyOp27
 70
     1
  0
XRECORD
  5
40C
102
{ACAD_REACTORS
330
40B
102
}
330
40B
100
AcDbXrecord
280
     1
102
RTVSPropertyOp0
 70
     1
102
RTVSPropertyOp1
 70
     1
102
RTVSPropertyOp2
 70
     1
102
RTVSPropertyOp3
 70
     1
102
RTVSPropertyOp4
 70
     1
102
RTVSPropertyOp5
 70
     1
102
RTVSPropertyOp6
 70
     1
102
RTVSPropertyOp7
 70
     1
102
RTVSPropertyOp8
 70
     1
102
RTVSPropertyOp9
 70
     1
102
RTVSPropertyOp10
 70
     1
102
RTVSPropertyOp11
 70
     1
102
RTVSPropertyOp12
 70
     1
102
RTVSPropertyOp13
 70
     1
102
RTVSPropertyOp14
 70
     1
102
RTVSPropertyOp15
 70
     1
102
RTVSPropertyOp16
 70
     1
102
RTVSPropertyOp17
 70
     1
102
RTVSPropertyOp18
 70
     1
102
RTVSPropertyOp19
 70
     1
102
RTVSPropertyOp20
 70
     1
102
RTVSPropertyOp21
 70
     1
102
RTVSPropertyOp22
 70
     1
102
RTVSPropertyOp23
 70
     1
102
RTVSPropertyOp24
 70
     1
102
RTVSPropertyOp25
 70
     1
102
RTVSPropertyOp26
 70
     1
102
RTVSPropertyOp27
 70
     1
  0
XRECORD
  5
422
102
{ACAD_REACTORS
330
421
102
}
330
421
100
AcDbXrecord
280
     1
102
RTVSPropertyOp0
 70
     1
102
RTVSPropertyOp1
 70
     1
102
RTVSPropertyOp2
 70
     1
102
RTVSPropertyOp3
 70
     1
102
RTVSPropertyOp4
 70
     1
102
RTVSPropertyOp5
 70
     1
102
RTVSPropertyOp6
 70
     1
102
RTVSPropertyOp7
 70
     1
102
RTVSPropertyOp8
 70
     1
102
RTVSPropertyOp9
 70
     1
102
RTVSPropertyOp10
 70
     1
102
RTVSPropertyOp11
 70
     1
102
RTVSPropertyOp12
 70
     1
102
RTVSPropertyOp13
 70
     1
102
RTVSPropertyOp14
 70
     1
102
RTVSPropertyOp15
 70
     1
102
RTVSPropertyOp16
 70
     1
102
RTVSPropertyOp17
 70
     1
102
RTVSPropertyOp18
 70
     1
102
RTVSPropertyOp19
 70
     1
102
RTVSPropertyOp20
 70
     1
102
RTVSPropertyOp21
 70
     1
102
RTVSPropertyOp22
 70
     1
102
RTVSPropertyOp23
 70
     1
102
RTVSPropertyOp24
 70
     1
102
RTVSPropertyOp25
 70
     1
102
RTVSPropertyOp26
 70
     1
102
RTVSPropertyOp27
 70
     1
  0
ENDSEC
  0
EOF
