  0
SECTION
  2
HEADER
  9
$ACADVER
  1
AC1018
  9
$ACADMAINTVER
 70
   104
  9
$DWGCODEPAGE
  3
ANSI_936
  9
$LASTSAVEDBY
  1
chaxiu.zhu
  9
$INSBASE
 10
0.0
 20
0.0
 30
0.0
  9
$EXTMIN
 10
141535.7768995445
 20
2273.726706582798
 30
-0.00000001
  9
$EXTMAX
 10
142577.623617891
 20
3548.676390661373
 30
0.00000001
  9
$LIMMIN
 10
0.0
 20
0.0
  9
$LIMMAX
 10
420.0
 20
297.0
  9
$ORTHOMODE
 70
     0
  9
$REGENMODE
 70
     1
  9
$FILLMODE
 70
     1
  9
$QTEXTMODE
 70
     0
  9
$MIRRTEXT
 70
     0
  9
$LTSCALE
 40
1.0
  9
$ATTMODE
 70
     1
  9
$TEXTSIZE
 40
2.5
  9
$TRACEWID
 40
1.0
  9
$TEXTSTYLE
  7
Standard
  9
$CLAYER
  8
尺寸标注
  9
$CELTYPE
  6
ByLayer
  9
$CECOLOR
 62
   256
  9
$CELTSCALE
 40
1.0
  9
$DISPSILH
 70
     0
  9
$DIMSCALE
 40
0.5
  9
$DIMASZ
 40
20.0
  9
$DIMEXO
 40
0.0
  9
$DIMDLI
 40
3.75
  9
$DIMRND
 40
0.0
  9
$DIMDLE
 40
0.0
  9
$DIMEXE
 40
10.0
  9
$DIMTP
 40
0.0
  9
$DIMTM
 40
0.0
  9
$DIMTXT
 40
30.0
  9
$DIMCEN
 40
0.0
  9
$DIMTSZ
 40
0.0
  9
$DIMTOL
 70
     0
  9
$DIMLIM
 70
     0
  9
$DIMTIH
 70
     0
  9
$DIMTOH
 70
     1
  9
$DIMSE1
 70
     0
  9
$DIMSE2
 70
     0
  9
$DIMTAD
 70
     0
  9
$DIMZIN
 70
     8
  9
$DIMBLK
  1

  9
$DIMASO
 70
     1
  9
$DIMSHO
 70
     1
  9
$DIMPOST
  1

  9
$DIMAPOST
  1

  9
$DIMALT
 70
     0
  9
$DIMALTD
 70
     3
  9
$DIMALTF
 40
0.03937007874016
  9
$DIMLFAC
 40
1.0
  9
$DIMTOFL
 70
     1
  9
$DIMTVP
 40
0.0
  9
$DIMTIX
 70
     0
  9
$DIMSOXD
 70
     0
  9
$DIMSAH
 70
     0
  9
$DIMBLK1
  1

  9
$DIMBLK2
  1

  9
$DIMSTYLE
  2
宋体
  9
$DIMCLRD
 70
     0
  9
$DIMCLRE
 70
     0
  9
$DIMCLRT
 70
     0
  9
$DIMTFAC
 40
1.0
  9
$DIMGAP
 40
20.0
  9
$DIMJUST
 70
     0
  9
$DIMSD1
 70
     0
  9
$DIMSD2
 70
     0
  9
$DIMTOLJ
 70
     1
  9
$DIMTZIN
 70
     8
  9
$DIMALTZ
 70
     0
  9
$DIMALTTZ
 70
     0
  9
$DIMUPT
 70
     0
  9
$DIMDEC
 70
     0
  9
$DIMTDEC
 70
     0
  9
$DIMALTU
 70
     2
  9
$DIMALTTD
 70
     3
  9
$DIMTXSTY
  7
Standard
  9
$DIMAUNIT
 70
     0
  9
$DIMADEC
 70
     0
  9
$DIMALTRND
 40
0.0
  9
$DIMAZIN
 70
     0
  9
$DIMDSEP
 70
    46
  9
$DIMATFIT
 70
     3
  9
$DIMFRAC
 70
     0
  9
$DIMLDRBLK
  1

  9
$DIMLUNIT
 70
     2
  9
$DIMLWD
 70
    -2
  9
$DIMLWE
 70
    -2
  9
$DIMTMOVE
 70
     1
  9
$LUNITS
 70
     2
  9
$LUPREC
 70
     4
  9
$SKETCHINC
 40
1.0
  9
$FILLETRAD
 40
0.0
  9
$AUNITS
 70
     0
  9
$AUPREC
 70
     0
  9
$MENU
  1
.
  9
$ELEVATION
 40
0.0
  9
$PELEVATION
 40
0.0
  9
$THICKNESS
 40
0.0
  9
$LIMCHECK
 70
     0
  9
$CHAMFERA
 40
0.0
  9
$CHAMFERB
 40
0.0
  9
$CHAMFERC
 40
0.0
  9
$CHAMFERD
 40
0.0
  9
$SKPOLY
 70
     0
  9
$TDCREATE
 40
2455843.370532037
  9
$TDUCREATE
 40
2455843.037198704
  9
$TDUPDATE
 40
2458858.398459340
  9
$TDUUPDATE
 40
2458858.065126007
  9
$TDINDWG
 40
6.7202941435
  9
$TDUSRTIMER
 40
6.7202939699
  9
$USRTIMER
 70
     1
  9
$ANGBASE
 50
0.0
  9
$ANGDIR
 70
     0
  9
$PDMODE
 70
     0
  9
$PDSIZE
 40
0.0
  9
$PLINEWID
 40
0.0
  9
$SPLFRAME
 70
     0
  9
$SPLINETYPE
 70
     6
  9
$SPLINESEGS
 70
     8
  9
$HANDSEED
  5
139EA
  9
$SURFTAB1
 70
     6
  9
$SURFTAB2
 70
     6
  9
$SURFTYPE
 70
     6
  9
$SURFU
 70
     6
  9
$SURFV
 70
     6
  9
$UCSBASE
  2

  9
$UCSNAME
  2

  9
$UCSORG
 10
0.0
 20
0.0
 30
0.0
  9
$UCSXDIR
 10
1.0
 20
0.0
 30
0.0
  9
$UCSYDIR
 10
0.0
 20
1.0
 30
0.0
  9
$UCSORTHOREF
  2

  9
$UCSORTHOVIEW
 70
     0
  9
$UCSORGTOP
 10
0.0
 20
0.0
 30
0.0
  9
$UCSORGBOTTOM
 10
0.0
 20
0.0
 30
0.0
  9
$UCSORGLEFT
 10
0.0
 20
0.0
 30
0.0
  9
$UCSORGRIGHT
 10
0.0
 20
0.0
 30
0.0
  9
$UCSORGFRONT
 10
0.0
 20
0.0
 30
0.0
  9
$UCSORGBACK
 10
0.0
 20
0.0
 30
0.0
  9
$PUCSBASE
  2

  9
$PUCSNAME
  2

  9
$PUCSORG
 10
0.0
 20
0.0
 30
0.0
  9
$PUCSXDIR
 10
1.0
 20
0.0
 30
0.0
  9
$PUCSYDIR
 10
0.0
 20
1.0
 30
0.0
  9
$PUCSORTHOREF
  2

  9
$PUCSORTHOVIEW
 70
     0
  9
$PUCSORGTOP
 10
0.0
 20
0.0
 30
0.0
  9
$PUCSORGBOTTOM
 10
0.0
 20
0.0
 30
0.0
  9
$PUCSORGLEFT
 10
0.0
 20
0.0
 30
0.0
  9
$PUCSORGRIGHT
 10
0.0
 20
0.0
 30
0.0
  9
$PUCSORGFRONT
 10
0.0
 20
0.0
 30
0.0
  9
$PUCSORGBACK
 10
0.0
 20
0.0
 30
0.0
  9
$USERI1
 70
     0
  9
$USERI2
 70
     0
  9
$USERI3
 70
     0
  9
$USERI4
 70
     0
  9
$USERI5
 70
     0
  9
$USERR1
 40
0.0
  9
$USERR2
 40
0.0
  9
$USERR3
 40
0.0
  9
$USERR4
 40
0.0
  9
$USERR5
 40
2.5
  9
$WORLDVIEW
 70
     1
  9
$SHADEDGE
 70
     3
  9
$SHADEDIF
 70
    70
  9
$TILEMODE
 70
     1
  9
$MAXACTVP
 70
    64
  9
$PINSBASE
 10
0.0
 20
0.0
 30
0.0
  9
$PLIMCHECK
 70
     0
  9
$PEXTMIN
 10
0.0
 20
0.0
 30
0.0
  9
$PEXTMAX
 10
0.0
 20
0.0
 30
0.0
  9
$PLIMMIN
 10
0.0
 20
0.0
  9
$PLIMMAX
 10
12.0
 20
9.0
  9
$UNITMODE
 70
     0
  9
$VISRETAIN
 70
     1
  9
$PLINEGEN
 70
     0
  9
$PSLTSCALE
 70
     1
  9
$TREEDEPTH
 70
  3020
  9
$CMLSTYLE
  2
Standard
  9
$CMLJUST
 70
     0
  9
$CMLSCALE
 40
20.0
  9
$PROXYGRAPHICS
 70
     1
  9
$MEASUREMENT
 70
     1
  9
$CELWEIGHT
370
    -1
  9
$ENDCAPS
280
     0
  9
$JOINSTYLE
280
     0
  9
$LWDISPLAY
290
     0
  9
$INSUNITS
 70
     4
  9
$HYPERLINKBASE
  1

  9
$STYLESHEET
  1
acad.ctb
  9
$XEDIT
290
     1
  9
$CEPSNTYPE
380
     0
  9
$PSTYLEMODE
290
     1
  9
$FINGERPRINTGUID
  2
{FCEE42D1-58A1-4B44-A11D-2BA26D9E7B92}
  9
$VERSIONGUID
  2
{CEF7AB1E-1BA3-4FC7-A1C6-F76ECA3B51A0}
  9
$EXTNAMES
290
     1
  9
$PSVPSCALE
 40
0.0
  9
$OLESTARTUP
290
     0
  9
$SORTENTS
280
   127
  9
$INDEXCTL
280
     0
  9
$HIDETEXT
280
     1
  9
$XCLIPFRAME
290
     0
  9
$HALOGAP
280
     0
  9
$OBSCOLOR
 70
   257
  9
$OBSLTYPE
280
     0
  9
$INTERSECTIONDISPLAY
280
     0
  9
$INTERSECTIONCOLOR
 70
   257
  9
$DIMASSOC
280
     2
  9
$PROJECTNAME
  1

  0
ENDSEC
  0
SECTION
  2
CLASSES
  0
CLASS
  1
ACDBDICTIONARYWDFLT
  2
AcDbDictionaryWithDefault
  3
ObjectDBX Classes
 90
        0
 91
        1
280
     0
281
     0
  0
CLASS
  1
DICTIONARYVAR
  2
AcDbDictionaryVar
  3
ObjectDBX Classes
 90
        0
 91
        4
280
     0
281
     0
  0
CLASS
  1
TABLESTYLE
  2
AcDbTableStyle
  3
ObjectDBX Classes
 90
     4095
 91
        1
280
     0
281
     0
  0
CLASS
  1
MATERIAL
  2
AcDbMaterial
  3
ObjectDBX Classes
 90
        0
 91
        3
280
     0
281
     0
  0
CLASS
  1
VISUALSTYLE
  2
AcDbVisualStyle
  3
ObjectDBX Classes
 90
     4095
 91
       16
280
     0
281
     0
  0
CLASS
  1
VLO-VL
  2
vlo_VL
  3
VL|AutoLISP based application
 90
        0
 91
        3
280
     0
281
     0
  0
CLASS
  1
SORTENTSTABLE
  2
AcDbSortentsTable
  3
ObjectDBX Classes
 90
        0
 91
        4
280
     0
281
     0
  0
CLASS
  1
DIMASSOC
  2
AcDbDimAssoc
  3
"ZcDbDimAssoc|Product Desc:     ZwDim ZRX App For Dimension|Company:          ZwSoft.|WEB Address:      www.zwsoft.com"
 90
        0
 91
        0
280
     0
281
     0
  0
CLASS
  1
EXACXREFPANELOBJECT
  2
ExAcXREFPanelObject
  3
EXAC_ESW
 90
     1025
 91
        0
280
     0
281
     0
  0
CLASS
  1
NPOCOLLECTION
  2
AcDbImpNonPersistentObjectsCollection
  3
ObjectDBX Classes
 90
     1153
 91
        0
280
     0
281
     0
  0
CLASS
  1
SCALE
  2
AcDbScale
  3
ObjectDBX Classes
 90
     1153
 91
       33
280
     0
281
     0
  0
CLASS
  1
MLEADERSTYLE
  2
AcDbMLeaderStyle
  3
ACDB_MLEADERSTYLE_CLASS
 90
     4095
 91
        1
280
     0
281
     0
  0
CLASS
  1
CELLSTYLEMAP
  2
AcDbCellStyleMap
  3
ObjectDBX Classes
 90
     1152
 91
        1
280
     0
281
     0
  0
ENDSEC
  0
SECTION
  2
TABLES
  0
TABLE
  2
VPORT
  5
8
330
0
100
AcDbSymbolTable
 70
     3
  0
VPORT
  5
139C3
330
8
100
AcDbSymbolTableRecord
100
AcDbViewportTableRecord
  2
*Active
 70
     0
 10
0.0
 20
0.0
 11
1.0
 21
1.0
 12
142797.8043075776
 22
2911.129634253695
 13
0.0
 23
0.0
 14
10.0
 24
10.0
 15
10.0
 25
10.0
 16
0.0
 26
0.0
 36
1.0
 17
0.0
 27
0.0
 37
0.0
 40
1944.36959943049
 41
1.857503152585119
 42
50.0
 43
0.0
 44
0.0
 50
0.0
 51
0.0
 71
     0
 72
  1000
 73
     1
 74
     3
 75
     0
 76
     0
 77
     0
 78
     0
281
     0
 65
     1
110
0.0
120
0.0
130
0.0
111
1.0
121
0.0
131
0.0
112
0.0
122
1.0
132
0.0
 79
     0
146
0.0
  0
ENDTAB
  0
TABLE
  2
LTYPE
  5
5
330
0
100
AcDbSymbolTable
 70
     6
  0
LTYPE
  5
14
330
5
100
AcDbSymbolTableRecord
100
AcDbLinetypeTableRecord
  2
ByBlock
 70
     0
  3

 72
    65
 73
     0
 40
0.0
  0
LTYPE
  5
15
330
5
100
AcDbSymbolTableRecord
100
AcDbLinetypeTableRecord
  2
ByLayer
 70
     0
  3

 72
    65
 73
     0
 40
0.0
  0
LTYPE
  5
16
330
5
100
AcDbSymbolTableRecord
100
AcDbLinetypeTableRecord
  2
Continuous
 70
     0
  3
Solid line
 72
    65
 73
     0
 40
0.0
  0
LTYPE
  5
1CC
330
5
100
AcDbSymbolTableRecord
100
AcDbLinetypeTableRecord
  2
ACAD_ISO02W100
 70
     0
  3
ISO dash __ __ __ __ __ __ __ __ __ __ __ __ __
 72
    65
 73
     2
 40
15.0
 49
12.0
 74
     0
 49
-3.0
 74
     0
  0
LTYPE
  5
1CE
330
5
100
AcDbSymbolTableRecord
100
AcDbLinetypeTableRecord
  2
CENTER2
 70
     0
  3
Center (.5x) ___ _ ___ _ ___ _ ___ _ ___ _ ___
 72
    65
 73
     4
 40
28.575
 49
19.05
 74
     0
 49
-3.174999999999999
 74
     0
 49
3.174999999999999
 74
     0
 49
-3.174999999999999
 74
     0
  0
LTYPE
  5
755
330
5
100
AcDbSymbolTableRecord
100
AcDbLinetypeTableRecord
  2
CENTER
 70
     0
  3
Center ____ _ ____ _ ____ _ ____ _ ____ _ ____
 72
    65
 73
     4
 40
50.8
 49
31.75
 74
     0
 49
-6.349999999999999
 74
     0
 49
6.349999999999999
 74
     0
 49
-6.349999999999999
 74
     0
  0
LTYPE
  5
1C6A
330
5
100
AcDbSymbolTableRecord
100
AcDbLinetypeTableRecord
  2
HIDDEN2
 70
     0
  3
Hidden (.5x) _ _ _ _ _ _ _ _ _ _ _ _ _ _ _ _ _
 72
    65
 73
     2
 40
4.762499999999999
 49
3.174999999999999
 74
     0
 49
-1.587499999999999
 74
     0
  0
LTYPE
  5
1C6B
330
5
100
AcDbSymbolTableRecord
100
AcDbLinetypeTableRecord
  2
PHANTOM2
 70
     0
  3
Phantom (.5x) ___ _ _ ___ _ _ ___ _ _ ___ _ _
 72
    65
 73
     6
 40
31.75
 49
15.875
 74
     0
 49
-3.174999999999999
 74
     0
 49
3.174999999999999
 74
     0
 49
-3.174999999999999
 74
     0
 49
3.174999999999999
 74
     0
 49
-3.174999999999999
 74
     0
  0
ENDTAB
  0
TABLE
  2
LAYER
  5
2
102
{ACAD_XDICTIONARY
360
1D0
102
}
330
0
100
AcDbSymbolTable
 70
    23
  0
LAYER
  5
10
330
2
100
AcDbSymbolTableRecord
100
AcDbLayerTableRecord
  2
0
 70
     0
 62
     7
  6
Continuous
370
    -3
390
F
  0
LAYER
  5
134
330
2
100
AcDbSymbolTableRecord
100
AcDbLayerTableRecord
  2
Defpoints
 70
     0
 62
     7
  6
Continuous
290
     0
370
    -3
390
F
  0
LAYER
  5
1C2
330
2
100
AcDbSymbolTableRecord
100
AcDbLayerTableRecord
  2
轮廓线.
 70
     0
 62
   255
  6
Continuous
370
    30
390
F
1001
AcAecLayerStandard
1000

1000

  0
LAYER
  5
1C4
330
2
100
AcDbSymbolTableRecord
100
AcDbLayerTableRecord
  2
尺寸标注
 70
     0
 62
    80
  6
Continuous
370
    18
390
F
1001
AcAecLayerStandard
1000

1000

  0
LAYER
  5
1C5
330
2
100
AcDbSymbolTableRecord
100
AcDbLayerTableRecord
  2
剖面线
 70
     0
 62
    50
  6
Continuous
370
    18
390
F
1001
AcAecLayerStandard
1000

1000

  0
LAYER
  5
1C6
330
2
100
AcDbSymbolTableRecord
100
AcDbLayerTableRecord
  2
不打印层
 70
     0
 62
    30
  6
Continuous
290
     0
370
    35
390
F
1001
AcAecLayerStandard
1000

1000

  0
LAYER
  5
1C7
330
2
100
AcDbSymbolTableRecord
100
AcDbLayerTableRecord
  2
图框层
 70
     0
 62
   255
  6
Continuous
370
    35
390
F
1001
AcAecLayerStandard
1000

1000

  0
LAYER
  5
1C8
330
2
100
AcDbSymbolTableRecord
100
AcDbLayerTableRecord
  2
细实线
 70
     0
 62
   210
  6
Continuous
370
    18
390
F
1001
AcAecLayerStandard
1000

1000

  0
LAYER
  5
1C9
330
2
100
AcDbSymbolTableRecord
100
AcDbLayerTableRecord
  2
虚线
 70
     0
 62
   130
  6
ACAD_ISO02W100
370
    18
390
F
1001
AcAecLayerStandard
1000

1000

  0
LAYER
  5
1CD
330
2
100
AcDbSymbolTableRecord
100
AcDbLayerTableRecord
  2
中心线
 70
     0
 62
    10
  6
CENTER2
370
    18
390
F
1001
AcAecLayerStandard
1000

1000

  0
LAYER
  5
1CF
330
2
100
AcDbSymbolTableRecord
100
AcDbLayerTableRecord
  2
中心线－圆
 70
     0
 62
    10
  6
Continuous
370
    18
390
F
1001
AcAecLayerStandard
1000

1000

  0
LAYER
  5
1C6C
102
{ACAD_XDICTIONARY
360
1C6D
102
}
330
2
100
AcDbSymbolTableRecord
100
AcDbLayerTableRecord
  2
细虚线
 70
     0
 62
     5
  6
HIDDEN2
370
    13
390
F
  0
LAYER
  5
1C6F
102
{ACAD_XDICTIONARY
360
1C70
102
}
330
2
100
AcDbSymbolTableRecord
100
AcDbLayerTableRecord
  2
细点划线
 70
     0
 62
     1
  6
CENTER2
370
    13
390
F
  0
LAYER
  5
1C72
102
{ACAD_XDICTIONARY
360
1C73
102
}
330
2
100
AcDbSymbolTableRecord
100
AcDbLayerTableRecord
  2
尺寸线
 70
     0
 62
     4
  6
Continuous
370
    13
390
F
  0
LAYER
  5
1C75
102
{ACAD_XDICTIONARY
360
1C76
102
}
330
2
100
AcDbSymbolTableRecord
100
AcDbLayerTableRecord
  2
双点划线
 70
     0
 62
     2
  6
PHANTOM2
370
    13
390
F
  0
LAYER
  5
1C78
330
2
100
AcDbSymbolTableRecord
100
AcDbLayerTableRecord
  2
SURFER
 70
     0
 62
     7
  6
Continuous
370
    -3
390
F
  0
LAYER
  5
2410
330
2
100
AcDbSymbolTableRecord
100
AcDbLayerTableRecord
  2
02___PRT_ALL_AXES
 70
     0
 62
     7
  6
Continuous
370
    -3
390
F
  0
LAYER
  5
2620
330
2
100
AcDbSymbolTableRecord
100
AcDbLayerTableRecord
  2
06___PRT_ALL_SURFS
 70
     0
 62
     7
  6
Continuous
370
    -3
390
F
  0
LAYER
  5
E9E1
330
2
100
AcDbSymbolTableRecord
100
AcDbLayerTableRecord
  2
图层1
 70
     0
 62
     3
  6
Continuous
370
    -3
390
F
1001
AcAecLayerStandard
1000

1000

  0
LAYER
  5
E9E2
330
2
100
AcDbSymbolTableRecord
100
AcDbLayerTableRecord
  2
轮廓线
 70
     0
 62
     7
  6
Continuous
370
    20
390
F
1001
AcAecLayerStandard
1000

1000

  0
LAYER
  5
E9E3
330
2
100
AcDbSymbolTableRecord
100
AcDbLayerTableRecord
  2
Layer 1
 70
     0
 62
     7
  6
Continuous
370
    -3
390
F
  0
LAYER
  5
101F8
330
2
100
AcDbSymbolTableRecord
100
AcDbLayerTableRecord
  2
图层 1
 70
     0
 62
     7
  6
Continuous
370
    -3
390
F
  0
LAYER
  5
12AE8
330
2
100
AcDbSymbolTableRecord
100
AcDbLayerTableRecord
  2
尺寸标注层
 70
     0
 62
    80
  6
Continuous
370
    13
390
F
1001
AcAecLayerStandard
1000

1000

  0
ENDTAB
  0
TABLE
  2
STYLE
  5
3
330
0
100
AcDbSymbolTable
 70
     5
  0
STYLE
  5
11
330
3
100
AcDbSymbolTableRecord
100
AcDbTextStyleTableRecord
  2
Standard
 70
     0
 40
0.0
 41
1.0
 50
0.0
 71
     0
 42
2.5
  3
SimSun.ttf
  4

1001
ACAD
1000
SimSun
1071
    34306
  0
STYLE
  5
12F
330
3
100
AcDbSymbolTableRecord
100
AcDbTextStyleTableRecord
  2
Arial
 70
     0
 40
0.0
 41
1.0
 50
0.0
 71
     0
 42
2.5
  3
arial.ttf
  4

1001
ACAD
1000
Arial
1071
       34
  0
STYLE
  5
15A
330
3
100
AcDbSymbolTableRecord
100
AcDbTextStyleTableRecord
  2
TXT
 70
     0
 40
0.0
 41
1.0
 50
0.0
 71
     0
 42
2.5
  3
txt.shx
  4

  0
STYLE
  5
1CB
330
3
100
AcDbSymbolTableRecord
100
AcDbTextStyleTableRecord
  2

 70
     1
 40
0.0
 41
1.0
 50
0.0
 71
     0
 42
2.5
  3
ltypeshp.shx
  4

  0
STYLE
  5
E9E4
330
3
100
AcDbSymbolTableRecord
100
AcDbTextStyleTableRecord
  2
TT宋体
 70
     0
 40
0.0
 41
1.0
 50
0.0
 71
     0
 42
2.5
  3
SimSun.ttf
  4

1001
ACAD
1000
SimSun
1071
    34306
  0
ENDTAB
  0
TABLE
  2
VIEW
  5
6
330
0
100
AcDbSymbolTable
 70
     0
  0
ENDTAB
  0
TABLE
  2
UCS
  5
7
330
0
100
AcDbSymbolTable
 70
     0
  0
ENDTAB
  0
TABLE
  2
APPID
  5
9
330
0
100
AcDbSymbolTable
 70
    12
  0
APPID
  5
12
330
9
100
AcDbSymbolTableRecord
100
AcDbRegAppTableRecord
  2
ACAD
 70
     0
  0
APPID
  5
9E
330
9
100
AcDbSymbolTableRecord
100
AcDbRegAppTableRecord
  2
ACAD_PSEXT
 70
     0
  0
APPID
  5
1C3
330
9
100
AcDbSymbolTableRecord
100
AcDbRegAppTableRecord
  2
AcAecLayerStandard
 70
     0
  0
APPID
  5
1DD
330
9
100
AcDbSymbolTableRecord
100
AcDbRegAppTableRecord
  2
ACAD_EXEMPT_FROM_CAD_STANDARDS
 70
     0
  0
APPID
  5
15A6
330
9
100
AcDbSymbolTableRecord
100
AcDbRegAppTableRecord
  2
DCO15
 70
     0
  0
APPID
  5
1C7A
330
9
100
AcDbSymbolTableRecord
100
AcDbRegAppTableRecord
  2
ACAD_DSTYLE_DIMJOGGED_JOGANGLE_SYMBOL
 70
     0
  0
APPID
  5
1C7B
330
9
100
AcDbSymbolTableRecord
100
AcDbRegAppTableRecord
  2
ACAD_DSTYLE_DIMJAG
 70
     0
  0
APPID
  5
1C7C
330
9
100
AcDbSymbolTableRecord
100
AcDbRegAppTableRecord
  2
ACAD_DSTYLE_DIMTALN
 70
     0
  0
APPID
  5
1C7D
330
9
100
AcDbSymbolTableRecord
100
AcDbRegAppTableRecord
  2
AcDbDynamicBlockGUID
 70
     0
  0
APPID
  5
1C7E
330
9
100
AcDbSymbolTableRecord
100
AcDbRegAppTableRecord
  2
AcDbBlockRepETag
 70
     0
  0
APPID
  5
1C7F
330
9
100
AcDbSymbolTableRecord
100
AcDbRegAppTableRecord
  2
ACAD_DSTYLE_DIMRADIAL_EXTENSION
 70
     0
  0
APPID
  5
139E9
330
9
100
AcDbSymbolTableRecord
100
AcDbRegAppTableRecord
  2
ACAD_MLEADERVER
 70
     0
  0
ENDTAB
  0
TABLE
  2
DIMSTYLE
  5
A
330
0
100
AcDbSymbolTable
 70
     9
100
AcDbDimStyleTable
 71
     5
340
27
340
E9E5
340
23C1
340
15B
340
132
  0
DIMSTYLE
105
27
330
A
100
AcDbSymbolTableRecord
100
AcDbDimStyleTableRecord
  2
宋体
 70
     0
 40
0.5
 41
20.0
 42
0.0
 43
3.75
 44
10.0
 73
     0
 78
     8
140
30.0
141
0.0
143
0.03937007874016
147
20.0
171
     3
172
     1
271
     0
272
     0
274
     3
279
     1
284
     8
340
11
  0
DIMSTYLE
105
132
330
A
100
AcDbSymbolTableRecord
100
AcDbDimStyleTableRecord
  2
Arial
 70
     0
 40
0.7
 41
20.0
 42
0.0
 43
3.75
 44
10.0
 73
     0
 78
     8
140
30.0
141
0.0
143
0.03937007874016
147
20.0
171
     3
172
     1
271
     0
272
     0
274
     3
279
     1
284
     8
340
12F
  0
DIMSTYLE
105
15B
330
A
100
AcDbSymbolTableRecord
100
AcDbDimStyleTableRecord
  2
TXT
 70
     0
 40
0.7
 41
20.0
 42
0.0
 43
3.75
 44
10.0
 73
     0
 78
     8
140
30.0
141
0.0
143
0.03937007874016
147
20.0
171
     3
172
     1
271
     0
272
     0
274
     3
279
     1
284
     8
340
15A
  0
DIMSTYLE
105
1C79
330
A
100
AcDbSymbolTableRecord
100
AcDbDimStyleTableRecord
  2
1-8
 70
     0
 41
1.8
 42
0.0
 43
5.0
 44
0.8
 73
     0
 74
     0
 77
     1
 78
     8
 79
     2
140
2.5
141
0.0
143
0.03937007874016
144
8.0
147
0.5
171
     3
271
     1
272
     1
274
     3
284
     8
340
11
1001
ACAD_DSTYLE_DIMJAG
1070
   388
1040
1.5
1001
ACAD_DSTYLE_DIMJOGGED_JOGANGLE_SYMBOL
1070
   384
1040
1.570796326794896
  0
DIMSTYLE
105
2376
330
A
100
AcDbSymbolTableRecord
100
AcDbDimStyleTableRecord
  2
Standard
 70
     0
340
11
  0
DIMSTYLE
105
23C1
330
A
100
AcDbSymbolTableRecord
100
AcDbDimStyleTableRecord
  2
ISO-25
 70
     0
 41
2.5
 42
0.625
 43
3.75
 44
1.25
 73
     0
 74
     0
 77
     1
 78
     8
140
2.5
141
2.5
143
0.03937007874016
147
0.625
171
     3
172
     1
271
     2
272
     2
274
     3
278
    44
283
     0
284
     8
340
11
  0
DIMSTYLE
105
E9E5
330
A
100
AcDbSymbolTableRecord
100
AcDbDimStyleTableRecord
  2
副本 ISO-25
 70
     0
 40
7.0
 41
1.5
 42
0.625
 43
3.75
 44
0.5
 73
     0
 77
     1
 78
     8
140
2.5
141
2.5
143
0.03937007874016
147
0.3
171
     3
172
     1
271
     0
272
     0
274
     3
283
     0
284
     8
340
11
  0
DIMSTYLE
105
101F9
330
A
100
AcDbSymbolTableRecord
100
AcDbDimStyleTableRecord
  2
新标注1比10
 70
     0
 40
0.6
 41
20.0
 42
0.0
 43
3.75
 44
10.0
 73
     0
 78
     8
140
30.0
141
50.0
143
0.03937007874016
147
-20.0
171
     3
172
     1
176
   256
177
   256
271
     0
272
     0
274
     3
279
     1
284
     8
340
E9E4
  0
DIMSTYLE
105
101FA
330
A
100
AcDbSymbolTableRecord
100
AcDbDimStyleTableRecord
  2
新标注1比10 无框
 70
     0
 40
0.35
 41
25.0
 42
0.0
 43
3.75
 44
10.0
 73
     0
 78
     8
140
40.0
141
0.0
143
0.03937007874016
147
20.0
171
     3
172
     1
176
     3
177
     3
178
     3
271
     0
272
     0
274
     3
279
     1
284
     8
340
E9E4
  0
ENDTAB
  0
TABLE
  2
BLOCK_RECORD
  5
1
330
0
100
AcDbSymbolTable
 70
   116
  0
BLOCK_RECORD
  5
1F
102
{ACAD_XDICTIONARY
360
1E9
102
}
330
1
100
AcDbSymbolTableRecord
100
AcDbBlockTableRecord
  2
*Model_Space
340
22
  0
BLOCK_RECORD
  5
D2
330
1
100
AcDbSymbolTableRecord
100
AcDbBlockTableRecord
  2
*Paper_Space
340
D3
  0
BLOCK_RECORD
  5
D6
330
1
100
AcDbSymbolTableRecord
100
AcDbBlockTableRecord
  2
*Paper_Space0
340
D7
  0
BLOCK_RECORD
  5
D55
330
1
100
AcDbSymbolTableRecord
100
AcDbBlockTableRecord
  2
fsad
340
0
310
2800000020000000200000000100080000000000000400000000000000000000000000000000000000000000000080000080000000808000800000008000800080800000C0C0C000C0DCC000F0CAA6000020400000206000002080000020A0000020C0000020E00000400000004020000040400000406000004080000040A0
310
000040C0000040E00000600000006020000060400000606000006080000060A0000060C0000060E00000800000008020000080400000806000008080000080A0000080C0000080E00000A0000000A0200000A0400000A0600000A0800000A0A00000A0C00000A0E00000C0000000C0200000C0400000C0600000C0800000C0
310
A00000C0C00000C0E00000E0000000E0200000E0400000E0600000E0800000E0A00000E0C00000E0E00040000000400020004000400040006000400080004000A0004000C0004000E00040200000402020004020400040206000402080004020A0004020C0004020E000404000004040200040404000404060004040800040
310
40A0004040C0004040E00040600000406020004060400040606000406080004060A0004060C0004060E00040800000408020004080400040806000408080004080A0004080C0004080E00040A0000040A0200040A0400040A0600040A0800040A0A00040A0C00040A0E00040C0000040C0200040C0400040C0600040C08000
310
40C0A00040C0C00040C0E00040E0000040E0200040E0400040E0600040E0800040E0A00040E0C00040E0E00080000000800020008000400080006000800080008000A0008000C0008000E00080200000802020008020400080206000802080008020A0008020C0008020E00080400000804020008040400080406000804080
310
008040A0008040C0008040E00080600000806020008060400080606000806080008060A0008060C0008060E00080800000808020008080400080806000808080008080A0008080C0008080E00080A0000080A0200080A0400080A0600080A0800080A0A00080A0C00080A0E00080C0000080C0200080C0400080C0600080C0
310
800080C0A00080C0C00080C0E00080E0000080E0200080E0400080E0600080E0800080E0A00080E0C00080E0E000C0000000C0002000C0004000C0006000C0008000C000A000C000C000C000E000C0200000C0202000C0204000C0206000C0208000C020A000C020C000C020E000C0400000C0402000C0404000C0406000C0
310
408000C040A000C040C000C040E000C0600000C0602000C0604000C0606000C0608000C060A000C060C000C060E000C0800000C0802000C0804000C0806000C0808000C080A000C080C000C080E000C0A00000C0A02000C0A04000C0A06000C0A08000C0A0A000C0A0C000C0A0E000C0C00000C0C02000C0C04000C0C06000
310
C0C08000C0C0A000F0FBFF00A4A0A000808080000000FF0000FF000000FFFF00FF000000FF00FF00FFFF0000FFFFFF00000000000000000000000000000000000000000000000000000000000000000000FF00000000000000000000000000000000000000000000000000000000FF000000FF000000000000000000000000
310
FFFF000000000000000000000000FF0000000000FF00000000000000000000FFFFFFFF00000000000000000000FF00000000000000FF000000000000000000FFFFFFFF000000000000000000FF000000000000000000FF000000000000000000FFFF000000000000000000FF0000000000000000000000FF00000000000000
310
0000000000000000000000FF00000000000000000000000000FF00000000000000000000000000000000FF000000000000000000000000000000FF0000000000000000000000000000FF0000000000000000000000000000000000FF000000000000000000000000FF00000000000000000000000000000000000000FF0000
310
0000000000000000FF000000000000000000000000000000000000000000FF0000000000000000FF0000000000000000000000000000000000000000000000FF000000000000FF00000000000000000000000000000000000000000000000000FF00000000FF00000000000000000000000000000000FFFF00000000000000
310
0000FF0000FF000000000000000000FFFF0000000000FFFFFFFF000000000000000000FFFF000000000000000000FFFFFFFF00000000FFFFFFFF000000000000000000FFFF000000000000000000FFFFFFFF0000000000FFFF000000000000000000FF0000FF000000000000000000FFFF0000000000000000000000000000
310
0000FF00000000FF00000000000000000000000000000000000000000000000000FF000000000000FF0000000000000000000000000000000000000000000000FF0000000000000000FF000000000000000000000000000000000000000000FF00000000000000000000FF00000000000000000000000000000000000000FF
310
000000000000000000000000FF0000000000000000000000000000000000FF0000000000000000000000000000FF000000000000000000000000000000FF00000000000000000000000000000000FF00000000000000000000000000FF000000000000000000000000000000000000FF0000000000000000000000FF000000
310
000000000000FFFF000000000000000000FF000000000000000000FF000000000000000000FFFFFFFF000000000000000000FF00000000000000FF00000000000000000000FFFFFFFF00000000000000000000FF0000000000FF000000000000000000000000FFFF000000000000000000000000FF000000FF000000000000
310
00000000000000000000000000000000000000000000FF000000000000000000000000000000000000000000000000000000000000000000
1001
ACAD
1000
DesignCenter Data
1002
{
1070
     1
1070
     4
1002
}
  0
BLOCK_RECORD
  5
1A47
102
{ACAD_XDICTIONARY
360
1A48
102
}
330
1
100
AcDbSymbolTableRecord
100
AcDbBlockTableRecord
  2
A$C272E2435
340
0
1001
AcDbDynamicBlockGUID
1000
{65983449-835A-48A1-B5D7-D236129E6C42}
1001
ACAD
1000
DesignCenter Data
1002
{
1070
     1
1070
     4
1002
}
  0
BLOCK_RECORD
  5
243B
102
{ACAD_XDICTIONARY
360
243C
102
}
330
1
100
AcDbSymbolTableRecord
100
AcDbBlockTableRecord
  2
A$C787F49FA
340
0
1001
ACAD
1000
DesignCenter Data
1002
{
1070
     1
1070
     4
1002
}
  0
BLOCK_RECORD
  5
E8C8
330
1
100
AcDbSymbolTableRecord
100
AcDbBlockTableRecord
  2
324
340
0
310
2800000020000000200000000100080000000000000400000000000000000000000000000000000000000000000080000080000000808000800000008000800080800000C0C0C000C0DCC000F0CAA6000020400000206000002080000020A0000020C0000020E00000400000004020000040400000406000004080000040A0
310
000040C0000040E00000600000006020000060400000606000006080000060A0000060C0000060E00000800000008020000080400000806000008080000080A0000080C0000080E00000A0000000A0200000A0400000A0600000A0800000A0A00000A0C00000A0E00000C0000000C0200000C0400000C0600000C0800000C0
310
A00000C0C00000C0E00000E0000000E0200000E0400000E0600000E0800000E0A00000E0C00000E0E00040000000400020004000400040006000400080004000A0004000C0004000E00040200000402020004020400040206000402080004020A0004020C0004020E000404000004040200040404000404060004040800040
310
40A0004040C0004040E00040600000406020004060400040606000406080004060A0004060C0004060E00040800000408020004080400040806000408080004080A0004080C0004080E00040A0000040A0200040A0400040A0600040A0800040A0A00040A0C00040A0E00040C0000040C0200040C0400040C0600040C08000
310
40C0A00040C0C00040C0E00040E0000040E0200040E0400040E0600040E0800040E0A00040E0C00040E0E00080000000800020008000400080006000800080008000A0008000C0008000E00080200000802020008020400080206000802080008020A0008020C0008020E00080400000804020008040400080406000804080
310
008040A0008040C0008040E00080600000806020008060400080606000806080008060A0008060C0008060E00080800000808020008080400080806000808080008080A0008080C0008080E00080A0000080A0200080A0400080A0600080A0800080A0A00080A0C00080A0E00080C0000080C0200080C0400080C0600080C0
310
800080C0A00080C0C00080C0E00080E0000080E0200080E0400080E0600080E0800080E0A00080E0C00080E0E000C0000000C0002000C0004000C0006000C0008000C000A000C000C000C000E000C0200000C0202000C0204000C0206000C0208000C020A000C020C000C020E000C0400000C0402000C0404000C0406000C0
310
408000C040A000C040C000C040E000C0600000C0602000C0604000C0606000C0608000C060A000C060C000C060E000C0800000C0802000C0804000C0806000C0808000C080A000C080C000C080E000C0A00000C0A02000C0A04000C0A06000C0A08000C0A0A000C0A0C000C0A0E000C0C00000C0C02000C0C04000C0C06000
310
C0C08000C0C0A000F0FBFF00A4A0A000808080000000FF0000FF000000FFFF00FF000000FF00FF00FFFF0000FFFFFF0000000000000000000000000000000000000000000000000000000000000000000000000000000000000000000000000000000000000000000000000000000000000000000000000000000000000000
310
00000000000000000000000000000000000000000000000000000000000000000000000000000000000000000000000000000000000000000000000000000000000000000000000000000000000000000000000000000000000000000000000000000000000000000000000000000000000000000000000000000000000000
310
00000000000000000000000000000000000000000000000000000000000000000000000000000000000000000000000000000000000000000000000000000000000000000000000000000000000000000000000000000000000000000000000000000000000000000000000000000000000000000000000000000000000000
310
000000000000000000000000000000000000000000000000000000000000000000000000000000000000000000000000000000000000000000000000000000000000000000000000000000000000000000000000FDFDFDFDFDFDFDFDFDFDFDFDFDFDFDFDFDFDFDFDFDFDFDFDFDFDFDFD0000000000FDFDFDFDFDFDFDFDFDFD
310
FDFDFDFDFDFDFDFDFDFDFDFDFDFDFDFDFD00000000000000000000FDFDFDFDFDFDFDFDFDFDFDFDFDFDFDFD00000000000000000000000000000000FFFFFFFFFFFFFFFFFFFFFFFFFFFFFFFF0000000000000000000000000000000000000000FDFDFDFDFDFDFDFD000000000000000000000000000000000000000000000000
310
FDFDFDFDFDFDFDFDFD00000000000000000000000000000000000000000000000000000000000000000000000000000000000000000000000000000000000000000000000000000000000000000000000000000000000000000000000000000000000000000000000000000000000000000000000000000000000000000000
310
00000000000000000000000000000000000000000000000000000000000000000000000000000000000000000000000000000000000000000000000000000000000000000000000000000000000000000000000000000000000000000000000000000000000000000000000000000000000000000000000000000000000000
310
00000000000000000000000000000000000000000000000000000000000000000000000000000000000000000000000000000000000000000000000000000000000000000000000000000000000000000000000000000000000000000000000000000000000000000000000000000000000000000000000000000000000000
310
0000000000000000000000000000000000000000000000000000000000000000000000000000000000000000000000000000000000000000
1001
ACAD
1000
DesignCenter Data
1002
{
1070
     1
1070
     4
1002
}
  0
BLOCK_RECORD
  5
E8CF
330
1
100
AcDbSymbolTableRecord
100
AcDbBlockTableRecord
  2
1212
340
0
310
2800000020000000200000000100080000000000000400000000000000000000000000000000000000000000000080000080000000808000800000008000800080800000C0C0C000C0DCC000F0CAA6000020400000206000002080000020A0000020C0000020E00000400000004020000040400000406000004080000040A0
310
000040C0000040E00000600000006020000060400000606000006080000060A0000060C0000060E00000800000008020000080400000806000008080000080A0000080C0000080E00000A0000000A0200000A0400000A0600000A0800000A0A00000A0C00000A0E00000C0000000C0200000C0400000C0600000C0800000C0
310
A00000C0C00000C0E00000E0000000E0200000E0400000E0600000E0800000E0A00000E0C00000E0E00040000000400020004000400040006000400080004000A0004000C0004000E00040200000402020004020400040206000402080004020A0004020C0004020E000404000004040200040404000404060004040800040
310
40A0004040C0004040E00040600000406020004060400040606000406080004060A0004060C0004060E00040800000408020004080400040806000408080004080A0004080C0004080E00040A0000040A0200040A0400040A0600040A0800040A0A00040A0C00040A0E00040C0000040C0200040C0400040C0600040C08000
310
40C0A00040C0C00040C0E00040E0000040E0200040E0400040E0600040E0800040E0A00040E0C00040E0E00080000000800020008000400080006000800080008000A0008000C0008000E00080200000802020008020400080206000802080008020A0008020C0008020E00080400000804020008040400080406000804080
310
008040A0008040C0008040E00080600000806020008060400080606000806080008060A0008060C0008060E00080800000808020008080400080806000808080008080A0008080C0008080E00080A0000080A0200080A0400080A0600080A0800080A0A00080A0C00080A0E00080C0000080C0200080C0400080C0600080C0
310
800080C0A00080C0C00080C0E00080E0000080E0200080E0400080E0600080E0800080E0A00080E0C00080E0E000C0000000C0002000C0004000C0006000C0008000C000A000C000C000C000E000C0200000C0202000C0204000C0206000C0208000C020A000C020C000C020E000C0400000C0402000C0404000C0406000C0
310
408000C040A000C040C000C040E000C0600000C0602000C0604000C0606000C0608000C060A000C060C000C060E000C0800000C0802000C0804000C0806000C0808000C080A000C080C000C080E000C0A00000C0A02000C0A04000C0A06000C0A08000C0A0A000C0A0C000C0A0E000C0C00000C0C02000C0C04000C0C06000
310
C0C08000C0C0A000F0FBFF00A4A0A000808080000000FF0000FF000000FFFF00FF000000FF00FF00FFFF0000FFFFFF0000000000000000000000000000000000000000000000000000000000000000000000000000000000000000000000000000000000000000000000000000000000000000000000000000000000000000
310
00000000000000000000000000000000000000000000000000000000000000000000000000000000000000000000000000000000000000000000000000000000000000000000000000000000000000000000000000000000000000000000000000000000000000000000000000000000000000000000000000000000000000
310
00000000000000000000000000000000000000000000000000000000000000000000000000000000000000000000000000000000000000000000000000000000FFFFFF000000000000000000000000000000000000000000000000000000FFFFFFFF00FFFFFFFF000000000000000000000000000000000000000000FFFF00
310
FFFF000000000000FFFFFF00000000000000000000000000000000FFFF000000FFFFFF0000000000000000FFFF000000000000000000000000FFFF000000FFFFFFFFFFFFFFFF00000000000000FF00000000000000000000FF00000000FFFFFFFFFFFFFFFFFFFFFFFF0000000000FF0000000000000000FF000000FFFFFFFF
310
000000FFFF0000FFFFFFFFFFFF000000FF00000000000000FF00FFFFFFFFFFFFFF00000000000000FFFFFFFFFFFFFFFF00FF0000000000FF00FFFFFF0000FFFFFFFFFFFF00FFFFFF0000000000FFFFFFFFFFFF000000FFFFFFFF0000000000000000FFFFFFFFFF000000000000000000FFFFFF0000FFFFFFFF000000000000
310
0000000000FFFF0000000000000000FFFFFF00000000000000FFFFFFFF0000000000000000FFFF000000000000FFFFFF000000000000000000000000FFFFFF000000000000FFFF0000000000FFFF0000000000000000000000000000000000FFFFFF00000000FFFF0000FFFF00000000000000000000000000000000000000
310
000000FFFFFF00FFFFFFFF0000000000000000000000000000000000000000000000000000FFFFFFFF0000000000000000000000000000000000000000000000000000000000000000000000000000000000000000000000000000000000000000000000000000000000000000000000000000000000000000000000000000
310
00000000000000000000000000000000000000000000000000000000000000000000000000000000000000000000000000000000000000000000000000000000000000000000000000000000000000000000000000000000000000000000000000000000000000000000000000000000000000000000000000000000000000
310
0000000000000000000000000000000000000000000000000000000000000000000000000000000000000000000000000000000000000000
1001
ACAD
1000
DesignCenter Data
1002
{
1070
     1
1070
     4
1002
}
  0
BLOCK_RECORD
  5
E945
330
1
100
AcDbSymbolTableRecord
100
AcDbBlockTableRecord
  2
block 3
340
0
102
{BLKREFS
331
E956
102
}
  0
BLOCK_RECORD
  5
E949
330
1
100
AcDbSymbolTableRecord
100
AcDbBlockTableRecord
  2
block 4
340
0
102
{BLKREFS
331
E958
102
}
  0
BLOCK_RECORD
  5
E94D
330
1
100
AcDbSymbolTableRecord
100
AcDbBlockTableRecord
  2
121
340
0
310
2800000020000000200000000100080000000000000400000000000000000000000000000000000000000000000080000080000000808000800000008000800080800000C0C0C000C0DCC000F0CAA6000020400000206000002080000020A0000020C0000020E00000400000004020000040400000406000004080000040A0
310
000040C0000040E00000600000006020000060400000606000006080000060A0000060C0000060E00000800000008020000080400000806000008080000080A0000080C0000080E00000A0000000A0200000A0400000A0600000A0800000A0A00000A0C00000A0E00000C0000000C0200000C0400000C0600000C0800000C0
310
A00000C0C00000C0E00000E0000000E0200000E0400000E0600000E0800000E0A00000E0C00000E0E00040000000400020004000400040006000400080004000A0004000C0004000E00040200000402020004020400040206000402080004020A0004020C0004020E000404000004040200040404000404060004040800040
310
40A0004040C0004040E00040600000406020004060400040606000406080004060A0004060C0004060E00040800000408020004080400040806000408080004080A0004080C0004080E00040A0000040A0200040A0400040A0600040A0800040A0A00040A0C00040A0E00040C0000040C0200040C0400040C0600040C08000
310
40C0A00040C0C00040C0E00040E0000040E0200040E0400040E0600040E0800040E0A00040E0C00040E0E00080000000800020008000400080006000800080008000A0008000C0008000E00080200000802020008020400080206000802080008020A0008020C0008020E00080400000804020008040400080406000804080
310
008040A0008040C0008040E00080600000806020008060400080606000806080008060A0008060C0008060E00080800000808020008080400080806000808080008080A0008080C0008080E00080A0000080A0200080A0400080A0600080A0800080A0A00080A0C00080A0E00080C0000080C0200080C0400080C0600080C0
310
800080C0A00080C0C00080C0E00080E0000080E0200080E0400080E0600080E0800080E0A00080E0C00080E0E000C0000000C0002000C0004000C0006000C0008000C000A000C000C000C000E000C0200000C0202000C0204000C0206000C0208000C020A000C020C000C020E000C0400000C0402000C0404000C0406000C0
310
408000C040A000C040C000C040E000C0600000C0602000C0604000C0606000C0608000C060A000C060C000C060E000C0800000C0802000C0804000C0806000C0808000C080A000C080C000C080E000C0A00000C0A02000C0A04000C0A06000C0A08000C0A0A000C0A0C000C0A0E000C0C00000C0C02000C0C04000C0C06000
310
C0C08000C0C0A000F0FBFF00A4A0A000808080000000FF0000FF000000FFFF00FF000000FF00FF00FFFF0000FFFFFF0000000000000000000000000000000000000000000000000000000000000000000000000000000000000000000000000000000000000000000000000000000000000000000000000000000000000000
310
00000000000000000000000000000000000000000000000000000000000000000000000000000000000000000000000000000000000000000000000000000000000000000000000000000000000000000000000000000000000000000000000000000000000000000000000000000000000000000000000000000000000000
310
00000000000000000000000000000000000000000000000000000000000000000000000000000000000000000000000000000000000000000000000000000000000000000000000000000000000000000000000000000000000000000000000000000000000000000000000000000000000000000000000000000000000000
310
0000000000000000000000000000000000000000000000000000000000000000000000000000000000000000000000000000000000000000000000000000000000000000000000000000000000000000000000FFFF0000FFFFFFFFFF00FF0000FFFFFFFF00FFFF00FFFF00FFFF00FFFFFFFF00FFFFFFFFFFFFFFFFFF00FF00
310
FFFFFFFFFFFFFFFF00FFFF00FFFFFFFFFFFFFF0000FFFFFFFF0000FFFF00FF00FFFF0000FFFFFFFF00FFFF00FFFFFFFF00FFFF0000FFFFFFFF0000FFFF00FF00FFFFFF00FFFFFFFF00FFFF00FFFFFFFF00FFFF00FFFFFFFFFFFFFFFFFF00FFFFFFFFFFFFFFFFFFFFFFFFFFFFFFFFFFFFFFFFFF00FFFF0000FFFFFFFFFF00FF
310
FFFFFFFFFFFF00FFFFFFFFFFFFFF0000FFFFFFFF0000000000000000000000000000000000000000000000000000000000000000000000000000000000000000000000000000000000000000000000000000000000000000000000000000000000000000000000000000000000000000000000000000000000000000000000
310
00000000000000000000000000000000000000000000000000000000000000000000000000000000000000000000000000000000000000000000000000000000000000000000000000000000000000000000000000000000000000000000000000000000000000000000000000000000000000000000000000000000000000
310
00000000000000000000000000000000000000000000000000000000000000000000000000000000000000000000000000000000000000000000000000000000000000000000000000000000000000000000000000000000000000000000000000000000000000000000000000000000000000000000000000000000000000
310
0000000000000000000000000000000000000000000000000000000000000000000000000000000000000000000000000000000000000000
1001
ACAD
1000
DesignCenter Data
1002
{
1070
     1
1070
     4
1002
}
  0
BLOCK_RECORD
  5
10334
102
{ACAD_XDICTIONARY
360
10335
102
}
330
1
100
AcDbSymbolTableRecord
100
AcDbBlockTableRecord
  2
A$C701F5D03
340
0
1001
ACAD
1000
DesignCenter Data
1002
{
1070
     1
1070
     4
1002
}
  0
BLOCK_RECORD
  5
12956
330
1
100
AcDbSymbolTableRecord
100
AcDbBlockTableRecord
  2
a
340
0
310
2800000020000000200000000100080000000000000400000000000000000000000000000000000000000000000080000080000000808000800000008000800080800000C0C0C000C0DCC000F0CAA6000020400000206000002080000020A0000020C0000020E00000400000004020000040400000406000004080000040A0
310
000040C0000040E00000600000006020000060400000606000006080000060A0000060C0000060E00000800000008020000080400000806000008080000080A0000080C0000080E00000A0000000A0200000A0400000A0600000A0800000A0A00000A0C00000A0E00000C0000000C0200000C0400000C0600000C0800000C0
310
A00000C0C00000C0E00000E0000000E0200000E0400000E0600000E0800000E0A00000E0C00000E0E00040000000400020004000400040006000400080004000A0004000C0004000E00040200000402020004020400040206000402080004020A0004020C0004020E000404000004040200040404000404060004040800040
310
40A0004040C0004040E00040600000406020004060400040606000406080004060A0004060C0004060E00040800000408020004080400040806000408080004080A0004080C0004080E00040A0000040A0200040A0400040A0600040A0800040A0A00040A0C00040A0E00040C0000040C0200040C0400040C0600040C08000
310
40C0A00040C0C00040C0E00040E0000040E0200040E0400040E0600040E0800040E0A00040E0C00040E0E00080000000800020008000400080006000800080008000A0008000C0008000E00080200000802020008020400080206000802080008020A0008020C0008020E00080400000804020008040400080406000804080
310
008040A0008040C0008040E00080600000806020008060400080606000806080008060A0008060C0008060E00080800000808020008080400080806000808080008080A0008080C0008080E00080A0000080A0200080A0400080A0600080A0800080A0A00080A0C00080A0E00080C0000080C0200080C0400080C0600080C0
310
800080C0A00080C0C00080C0E00080E0000080E0200080E0400080E0600080E0800080E0A00080E0C00080E0E000C0000000C0002000C0004000C0006000C0008000C000A000C000C000C000E000C0200000C0202000C0204000C0206000C0208000C020A000C020C000C020E000C0400000C0402000C0404000C0406000C0
310
408000C040A000C040C000C040E000C0600000C0602000C0604000C0606000C0608000C060A000C060C000C060E000C0800000C0802000C0804000C0806000C0808000C080A000C080C000C080E000C0A00000C0A02000C0A04000C0A06000C0A08000C0A0A000C0A0C000C0A0E000C0C00000C0C02000C0C04000C0C06000
310
C0C08000C0C0A000F0FBFF00A4A0A000808080000000FF0000FF000000FFFF00FF000000FF00FF00FFFF0000FFFFFF0000000000000000000000000000000000000000000000000000000000000000000000000000000000000000000000000000000000000000000000000000000000000000000000000000000000000000
310
00000000000000000000000000000000000000000000000000000000000000000000000000000000000000000000000000000000000000000000000000000000000000000000000000000000000000000000000000000000000000000000000000000000000000000000000000000000000000000000000000000000000000
310
00000000000000000000000000000000000000000000000000000000000000000000000000000000000000000000000000000000000000000000000000000000000000000000000000000000000000000000000000000000000000000000000000000000000000000000000000000000000000000000000000000000000000
310
000000000000000000000000000000000000000000000000000000000000000000000000000000000000000000000000000000000000000000000000000000000000000000000000000000FFFF00000000000000FFFFFF00FFFFFFFFFF0000FFFFFFFFFFFFFFFFFFFF00FFFFFF00FFFF0000000000FFFFFFFFFFFFFFFFFFFF
310
FFFF00FFFFFFFFFFFFFFFFFFFFFF00FFFF0000000000FFFFFFFFFF0000FFFFFFFFFF00FFFFFFFF00FFFFFFFFFFFF00FFFF000000000000FFFFFFFF0000FFFFFFFF0000FFFFFFFF00FFFFFFFFFFFF00FFFF000000000000FFFFFF0000FFFFFFFFFFFF00FFFF000000FFFFFFFFFFFF00FFFF000000000000FFFFFF0000FFFFFF
310
00FFFFFFFFFFFFFFFFFFFF00FFFFFFFFFFFFFFFF0000000000FF000000FFFF0000FFFFFFFFFFFFFFFFFF0000FFFFFFFFFFFFFFFF000000000000000000000000000000000000000000000000000000000000000000000000000000000000000000000000000000000000000000000000000000000000000000000000000000
310
00000000000000000000000000000000000000000000000000000000000000000000000000000000000000000000000000000000000000000000000000000000000000000000000000000000000000000000000000000000000000000000000000000000000000000000000000000000000000000000000000000000000000
310
00000000000000000000000000000000000000000000000000000000000000000000000000000000000000000000000000000000000000000000000000000000000000000000000000000000000000000000000000000000000000000000000000000000000000000000000000000000000000000000000000000000000000
310
0000000000000000000000000000000000000000000000000000000000000000000000000000000000000000000000000000000000000000
1001
ACAD
1000
DesignCenter Data
1002
{
1070
     1
1070
     4
1002
}
  0
ENDTAB
  0
ENDSEC
  0
SECTION
  2
BLOCKS
  0
BLOCK
  5
20
330
1F
100
AcDbEntity
  8
0
100
AcDbBlockBegin
  2
*Model_Space
 70
     0
 10
0.0
 20
0.0
 30
0.0
  3
*Model_Space
  1

  0
ENDBLK
  5
21
330
1F
100
AcDbEntity
  8
0
100
AcDbBlockEnd
  0
BLOCK
  5
D4
330
D2
100
AcDbEntity
 67
     1
  8
0
100
AcDbBlockBegin
  2
*Paper_Space
 70
     0
 10
0.0
 20
0.0
 30
0.0
  3
*Paper_Space
  1

  0
ENDBLK
  5
D5
330
D2
100
AcDbEntity
 67
     1
  8
0
100
AcDbBlockEnd
  0
BLOCK
  5
D8
330
D6
100
AcDbEntity
  8
0
100
AcDbBlockBegin
  2
*Paper_Space0
 70
     0
 10
0.0
 20
0.0
 30
0.0
  3
*Paper_Space0
  1

  0
ENDBLK
  5
D9
330
D6
100
AcDbEntity
  8
0
100
AcDbBlockEnd
  0
BLOCK
  5
D56
330
D55
100
AcDbEntity
  8
0
100
AcDbBlockBegin
  2
fsad
 70
     0
 10
0.0
 20
0.0
 30
0.0
  3
fsad
  1

  0
LINE
  5
D57
330
D55
100
AcDbEntity
  8
轮廓线.
100
AcDbLine
 10
1460.701809442617
 20
990.3837483801325
 30
0.0
 11
1490.701809442616
 21
960.3837483801326
 31
0.0
  0
LINE
  5
D58
330
D55
100
AcDbEntity
  8
轮廓线.
100
AcDbLine
 10
1460.701809442617
 20
960.3837483801326
 30
0.0
 11
1490.701809442616
 21
990.3837483801325
 31
0.0
  0
HATCH
  5
D59
330
D55
100
AcDbEntity
  8
轮廓线.
100
AcDbHatch
 10
0.0
 20
0.0
 30
0.0
210
0.0
220
0.0
230
1.0
  2
SOLID
 70
     1
 71
     1
 91
        1
 92
        1
 93
        1
 72
     2
 10
1463.114000087243
 20
975.3837483801326
 40
1.5
 50
0.0
 51
360.0
 73
     1
 97
        1
330
D5A
 75
     0
 76
     1
 98
        1
 10
0.0
 20
0.0
450
        0
451
        0
460
0.0
461
0.0
452
        1
462
1.0
453
        2
463
0.0
 63
     5
421
      255
463
1.0
 63
     7
421
 16777215
470
LINEAR
1001
ACAD
1010
0.0
1020
0.0
1030
0.0
  0
CIRCLE
  5
D5A
102
{ACAD_REACTORS
330
D59
102
}
330
D55
100
AcDbEntity
  8
轮廓线.
100
AcDbCircle
 10
1463.114000087243
 20
975.3837483801326
 30
0.0
 40
1.5
  0
HATCH
  5
D5B
330
D55
100
AcDbEntity
  8
轮廓线.
100
AcDbHatch
 10
0.0
 20
0.0
 30
0.0
210
0.0
220
0.0
230
1.0
  2
SOLID
 70
     1
 71
     1
 91
        1
 92
        1
 93
        1
 72
     2
 10
1475.701809442617
 20
988.0153778285722
 40
1.5
 50
0.0
 51
360.0
 73
     1
 97
        1
330
D5C
 75
     0
 76
     1
 98
        1
 10
0.0
 20
0.0
450
        0
451
        0
460
0.0
461
0.0
452
        1
462
1.0
453
        2
463
0.0
 63
     5
421
      255
463
1.0
 63
     7
421
 16777215
470
LINEAR
1001
ACAD
1010
0.0
1020
0.0
1030
0.0
  0
CIRCLE
  5
D5C
102
{ACAD_REACTORS
330
D5B
102
}
330
D55
100
AcDbEntity
  8
轮廓线.
100
AcDbCircle
 10
1475.701809442617
 20
988.0153778285722
 30
0.0
 40
1.5
  0
HATCH
  5
D5D
330
D55
100
AcDbEntity
  8
轮廓线.
100
AcDbHatch
 10
0.0
 20
0.0
 30
0.0
210
0.0
220
0.0
230
1.0
  2
SOLID
 70
     1
 71
     1
 91
        1
 92
        1
 93
        1
 72
     2
 10
1475.701809442617
 20
962.7521189316928
 40
1.5
 50
0.0
 51
360.0
 73
     1
 97
        1
330
D5E
 75
     0
 76
     1
 98
        1
 10
0.0
 20
0.0
450
        0
451
        0
460
0.0
461
0.0
452
        1
462
1.0
453
        2
463
0.0
 63
     5
421
      255
463
1.0
 63
     7
421
 16777215
470
LINEAR
1001
ACAD
1010
0.0
1020
0.0
1030
0.0
  0
CIRCLE
  5
D5E
102
{ACAD_REACTORS
330
D5D
102
}
330
D55
100
AcDbEntity
  8
轮廓线.
100
AcDbCircle
 10
1475.701809442617
 20
962.7521189316928
 30
0.0
 40
1.5
  0
HATCH
  5
D5F
330
D55
100
AcDbEntity
  8
轮廓线.
100
AcDbHatch
 10
0.0
 20
0.0
 30
0.0
210
0.0
220
0.0
230
1.0
  2
SOLID
 70
     1
 71
     1
 91
        1
 92
        1
 93
        1
 72
     2
 10
1488.289618797989
 20
975.3837483801326
 40
1.5
 50
0.0
 51
360.0
 73
     1
 97
        1
330
D60
 75
     0
 76
     1
 98
        1
 10
0.0
 20
0.0
450
        0
451
        0
460
0.0
461
0.0
452
        1
462
1.0
453
        2
463
0.0
 63
     5
421
      255
463
1.0
 63
     7
421
 16777215
470
LINEAR
1001
ACAD
1010
0.0
1020
0.0
1030
0.0
  0
CIRCLE
  5
D60
102
{ACAD_REACTORS
330
D5F
102
}
330
D55
100
AcDbEntity
  8
轮廓线.
100
AcDbCircle
 10
1488.289618797989
 20
975.3837483801326
 30
0.0
 40
1.5
  0
ENDBLK
  5
D61
330
D55
100
AcDbEntity
  8
0
100
AcDbBlockEnd
  0
BLOCK
  5
1A4A
330
1A47
100
AcDbEntity
  8
0
 48
0.005
100
AcDbBlockBegin
  2
A$C272E2435
 70
     0
 10
0.0
 20
0.0
 30
0.0
  3
A$C272E2435
  1

  0
LINE
  5
1A4B
330
1A47
100
AcDbEntity
  8
剖面线
  6
Continuous
100
AcDbLine
 10
1.067977511203935
 20
50.18875924678195
 30
0.0
 11
0.0000014766046661
 21
49.12078321208174
 31
0.0
1001
AcDbBlockRepETag
1070
     1
1071
        0
1005
1A4B
  0
LINE
  5
1A4C
330
1A47
100
AcDbEntity
  8
剖面线
  6
Continuous
100
AcDbLine
 10
1.585682151504443
 20
49.57509303718143
 30
0.0
 11
0.1491962327036163
 21
48.13860711838152
 31
0.0
1001
AcDbBlockRepETag
1070
     1
1071
        1
1005
1A4C
  0
LINE
  5
1A4D
330
1A47
100
AcDbEntity
  8
剖面线
  6
Continuous
100
AcDbLine
 10
2.27684442910504
 20
49.13488446488191
 30
0.0
 11
0.3608483013049408
 21
47.2188883370818
 31
0.0
1001
AcDbBlockRepETag
1070
     1
1071
        2
1005
1A4D
  0
LINE
  5
1A4E
330
1A47
100
AcDbEntity
  8
剖面线
  6
Continuous
100
AcDbLine
 10
2.835682151504443
 20
48.56235133738119
 30
0.0
 11
1.908215279005162
 21
47.63488446488191
 31
0.0
1001
AcDbBlockRepETag
1070
     1
1071
        3
1005
1A4E
  0
LINE
  5
1A4F
330
1A47
100
AcDbEntity
  8
剖面线
  6
Continuous
100
AcDbLine
 10
1.834001131705008
 20
47.56067031748171
 30
0.0
 11
0.5918718337052269
 21
46.31854101958106
 31
0.0
1001
AcDbBlockRepETag
1070
     1
1071
        4
1005
1A4F
  0
LINE
  5
1A50
330
1A47
100
AcDbEntity
  8
剖面线
  6
Continuous
100
AcDbLine
 10
2.065871313005118
 20
46.66116964898174
 30
0.0
 11
0.7992377783048142
 21
45.39453611428143
 31
0.0
1001
AcDbBlockRepETag
1070
     1
1071
        5
1005
1A50
  0
LINE
  5
1A51
330
1A47
100
AcDbEntity
  8
剖面线
  6
Continuous
100
AcDbLine
 10
2.274358146403756
 20
45.73828563248116
 30
0.0
 11
0.9725202235040342
 21
44.43644770958144
 31
0.0
1001
AcDbBlockRepETag
1070
     1
1071
        6
1005
1A51
  0
LINE
  5
1A52
330
1A47
100
AcDbEntity
  8
剖面线
  6
Continuous
100
AcDbLine
 10
2.449681015305031
 20
44.78223765138136
 30
0.0
 11
1.108413503803603
 21
43.44097013988175
 31
0.0
1001
AcDbBlockRepETag
1070
     1
1071
        7
1005
1A52
  0
LINE
  5
1A53
330
1A47
100
AcDbEntity
  8
剖面线
  6
Continuous
100
AcDbLine
 10
2.588994727804674
 20
43.79018051398179
 30
0.0
 11
1.210329187604656
 21
42.41151497388182
 31
0.0
1001
AcDbBlockRepETag
1070
     1
1071
        8
1005
1A53
  0
LINE
  5
1A54
330
1A47
100
AcDbEntity
  8
剖面线
  6
Continuous
100
AcDbLine
 10
2.698128130004988
 20
42.76794306638111
 30
0.0
 11
1.285594333605331
 21
41.35540926988142
 31
0.0
1001
AcDbBlockRepETag
1070
     1
1071
        9
1005
1A54
  0
LINE
  5
1A55
330
1A47
100
AcDbEntity
  8
剖面线
  6
Continuous
100
AcDbLine
 10
2.778714425105135
 20
41.7171585114811
 30
0.0
 11
1.338829668804464
 21
40.27727375528138
 31
0.0
1001
AcDbBlockRepETag
1070
     1
1071
       10
1005
1A55
  0
LINE
  5
1A56
330
1A47
100
AcDbEntity
  8
剖面线
  6
Continuous
100
AcDbLine
 10
2.837702045504556
 20
40.64477528208136
 30
0.0
 11
1.37653296960525
 21
39.18360620618114
 31
0.0
1001
AcDbBlockRepETag
1070
     1
1071
       11
1005
1A56
  0
LINE
  5
1A57
330
1A47
100
AcDbEntity
  8
剖面线
  6
Continuous
100
AcDbLine
 10
2.879217598503601
 20
39.55491998518119
 30
0.0
 11
1.405494562304738
 21
38.08119694888137
 31
0.0
1001
AcDbBlockRepETag
1070
     1
1071
       12
1005
1A57
  0
LINE
  5
1A58
330
1A47
100
AcDbEntity
  8
剖面线
  6
Continuous
100
AcDbLine
 10
2.909569420804473
 20
38.45390095758103
 30
0.0
 11
1.430274905003898
 21
36.97460644168132
 31
0.0
1001
AcDbBlockRepETag
1070
     1
1071
       13
1005
1A58
  0
LINE
  5
1A59
330
1A47
100
AcDbEntity
  8
剖面线
  6
Continuous
100
AcDbLine
 10
2.935153195405291
 20
37.34811388228172
 30
0.0
 11
1.453002149804888
 21
35.86596283668132
 31
0.0
1001
AcDbBlockRepETag
1070
     1
1071
       14
1005
1A59
  0
LINE
  5
1A5A
330
1A47
100
AcDbEntity
  8
剖面线
  6
Continuous
100
AcDbLine
 10
2.958389351404548
 20
36.23997918838177
 30
0.0
 11
1.790014566504396
 21
35.07160440348162
 31
0.0
1001
AcDbBlockRepETag
1070
     1
1071
       15
1005
1A5A
  0
LINE
  5
1A5B
330
1A47
100
AcDbEntity
  8
剖面线
  6
Continuous
100
AcDbLine
 10
2.980318679305128
 20
35.13053766638132
 30
0.0
 11
2.912282497503838
 21
35.06250148458184
 31
0.0
1001
AcDbBlockRepETag
1070
     1
1071
       16
1005
1A5B
  0
LINE
  5
1A5C
330
1A47
100
AcDbEntity
  8
剖面线
  6
Continuous
100
AcDbLine
 10
14.19967697320499
 20
35.03618746128177
 30
0.0
 11
12.08483170570434
 21
32.92134219378113
 31
0.0
1001
AcDbBlockRepETag
1070
     1
1071
       17
1005
1A5C
  0
LINE
  5
1A5D
330
1A47
100
AcDbEntity
  8
剖面线
  6
Continuous
100
AcDbLine
 10
16.44431363150397
 20
36.14945326968154
 30
0.0
 11
10.80823358470479
 21
30.51337322288146
 31
0.0
1001
AcDbBlockRepETag
1070
     1
1071
       18
1005
1A5D
  0
LINE
  5
1A5E
330
1A47
100
AcDbEntity
  8
剖面线
  6
Continuous
100
AcDbLine
 10
17.98593633170458
 20
36.55970511998112
 30
0.0
 11
16.58085507000396
 21
35.15462385828141
 31
0.0
1001
AcDbBlockRepETag
1070
     1
1071
       19
1005
1A5E
  0
LINE
  5
1A5F
330
1A47
100
AcDbEntity
  8
剖面线
  6
Continuous
100
AcDbLine
 10
11.80997375600418
 20
30.38374254428163
 30
0.0
 11
10.38034161970426
 21
28.95411040798172
 31
0.0
1001
AcDbBlockRepETag
1070
     1
1071
       20
1005
1A5F
  0
LINE
  5
1A60
330
1A47
100
AcDbEntity
  8
剖面线
  6
Continuous
100
AcDbLine
 10
30.13868488420485
 20
47.58108282258127
 30
0.0
 11
29.37375041610358
 21
46.81614835448181
 31
0.0
1001
AcDbBlockRepETag
1070
     1
1071
       21
1005
1A60
  0
LINE
  5
1A61
330
1A47
100
AcDbEntity
  8
剖面线
  6
Continuous
100
AcDbLine
 10
19.25547117720453
 20
36.69786911558186
 30
0.0
 11
18.13895320840493
 21
35.58135114678135
 31
0.0
1001
AcDbBlockRepETag
1070
     1
1071
       22
1005
1A61
  0
LINE
  5
1A62
330
1A47
100
AcDbEntity
  8
剖面线
  6
Continuous
100
AcDbLine
 10
11.35600865620472
 20
28.79840659458114
 30
0.0
 11
10.21485054490404
 21
27.65724848328137
 31
0.0
1001
AcDbBlockRepETag
1070
     1
1071
       23
1005
1A62
  0
LINE
  5
1A63
330
1A47
100
AcDbEntity
  8
剖面线
  6
Continuous
100
AcDbLine
 10
2.870103546203608
 20
20.31250148458184
 30
0.0
 11
1.709920074905312
 21
19.15231801328173
 31
0.0
1001
AcDbBlockRepETag
1070
     1
1071
       24
1005
1A63
  0
LINE
  5
1A64
330
1A47
100
AcDbEntity
  8
剖面线
  6
Continuous
100
AcDbLine
 10
30.94448952590392
 20
47.25551661438112
 30
0.0
 11
29.43009039660501
 21
45.7411174850813
 31
0.0
1001
AcDbBlockRepETag
1070
     1
1071
       25
1005
1A64
  0
LINE
  5
1A65
330
1A47
100
AcDbEntity
  8
剖面线
  6
Continuous
100
AcDbLine
 10
20.32552713270525
 20
36.63655422118154
 30
0.0
 11
19.39088720860491
 21
35.7019142970812
 31
0.0
1001
AcDbBlockRepETag
1070
     1
1071
       26
1005
1A65
  0
LINE
  5
1A66
330
1A47
100
AcDbEntity
  8
剖面线
  6
Continuous
100
AcDbLine
 10
11.20015510360463
 20
27.51118219218188
 30
0.0
 11
10.20826065760411
 21
26.51928774608132
 31
0.0
1001
AcDbBlockRepETag
1070
     1
1071
       27
1005
1A66
  0
LINE
  5
1A67
330
1A47
100
AcDbEntity
  8
剖面线
  6
Continuous
100
AcDbLine
 10
3.218373412504661
 20
19.52940050098186
 30
0.0
 11
1.721711767804663
 21
18.03273885638191
 31
0.0
1001
AcDbBlockRepETag
1070
     1
1071
       28
1005
1A67
  0
LINE
  5
1A68
330
1A47
100
AcDbEntity
  8
剖面线
  6
Continuous
100
AcDbLine
 10
31.75029416770485
 20
46.92995040628193
 30
0.0
 11
30.98212137800511
 21
46.16177761658128
 31
0.0
1001
AcDbBlockRepETag
1070
     1
1071
       29
1005
1A68
  0
LINE
  5
1A69
330
1A47
100
AcDbEntity
  8
剖面线
  6
Continuous
100
AcDbLine
 10
30.4379364052038
 20
45.61759264378179
 30
0.0
 11
29.48643037710463
 21
44.6660866156817
 31
0.0
1001
AcDbBlockRepETag
1070
     1
1071
       30
1005
1A69
  0
LINE
  5
1A6A
330
1A47
100
AcDbEntity
  8
剖面线
  6
Continuous
100
AcDbLine
 10
21.34779395370424
 20
36.52745019228132
 30
0.0
 11
20.44360925160436
 21
35.62326549018144
 31
0.0
1001
AcDbBlockRepETag
1070
     1
1071
       31
1005
1A6A
  0
LINE
  5
1A6B
330
1A47
100
AcDbEntity
  8
剖面线
  6
Continuous
100
AcDbLine
 10
11.22529681500418
 20
26.40495305358127
 30
0.0
 11
10.31628038150484
 21
25.49593662018106
 31
0.0
1001
AcDbBlockRepETag
1070
     1
1071
       32
1005
1A6B
  0
LINE
  5
1A6C
330
1A47
100
AcDbEntity
  8
剖面线
  6
Continuous
100
AcDbLine
 10
3.230340503403567
 20
18.40999674198156
 30
0.0
 11
1.73257635340451
 21
16.91223259198159
 31
0.0
1001
AcDbBlockRepETag
1070
     1
1071
       33
1005
1A6C
  0
LINE
  5
1A6D
330
1A47
100
AcDbEntity
  8
剖面线
  6
Continuous
100
AcDbLine
 10
32.55609880940392
 20
46.60438419808179
 30
0.0
 11
31.78792601970418
 21
45.83621140838113
 31
0.0
1001
AcDbBlockRepETag
1070
     1
1071
       34
1005
1A6D
  0
LINE
  5
1A6E
330
1A47
100
AcDbEntity
  8
剖面线
  6
Continuous
100
AcDbLine
 10
30.49427638570524
 20
44.54256177438128
 30
0.0
 11
29.54277035760424
 21
43.59105574638124
 31
0.0
1001
AcDbBlockRepETag
1070
     1
1071
       35
1005
1A6E
  0
LINE
  5
1A6F
330
1A47
100
AcDbEntity
  8
剖面线
  6
Continuous
100
AcDbLine
 10
22.22174737180467
 20
36.27003276048163
 30
0.0
 11
21.42741948390358
 21
35.47570487258145
 31
0.0
1001
AcDbBlockRepETag
1070
     1
1071
       36
1005
1A6F
  0
LINE
  5
1A70
330
1A47
100
AcDbEntity
  8
剖面线
  6
Continuous
100
AcDbLine
 10
11.36057535860527
 20
25.40886074728132
 30
0.0
 11
10.51379278250533
 21
24.56207817118138
 31
0.0
1001
AcDbBlockRepETag
1070
     1
1071
       37
1005
1A70
  0
LINE
  5
1A71
330
1A47
100
AcDbEntity
  8
剖面线
  6
Continuous
100
AcDbLine
 10
3.241420648404528
 20
17.28970603708148
 30
0.0
 11
1.864039931304432
 21
15.91232532008143
 31
0.0
1001
AcDbBlockRepETag
1070
     1
1071
       38
1005
1A71
  0
LINE
  5
1A72
330
1A47
100
AcDbEntity
  8
剖面线
  6
Continuous
100
AcDbLine
 10
33.36190345110481
 20
46.27881798998169
 30
0.0
 11
32.59373066150511
 21
45.51064520028103
 31
0.0
1001
AcDbBlockRepETag
1070
     1
1071
       39
1005
1A72
  0
LINE
  5
1A73
330
1A47
100
AcDbEntity
  8
剖面线
  6
Continuous
100
AcDbLine
 10
30.72590187080459
 20
43.64281640958142
 30
0.0
 11
29.5991103382039
 21
42.51602487698164
 31
0.0
1001
AcDbBlockRepETag
1070
     1
1071
       40
1005
1A73
  0
LINE
  5
1A74
330
1A47
100
AcDbEntity
  8
剖面线
  6
Continuous
100
AcDbLine
 10
23.0957007899051
 20
36.01261532868193
 30
0.0
 11
22.28920470270532
 21
35.20611924148125
 31
0.0
1001
AcDbBlockRepETag
1070
     1
1071
       41
1005
1A74
  0
LINE
  5
1A75
330
1A47
100
AcDbEntity
  8
剖面线
  6
Continuous
100
AcDbLine
 10
11.58119674900444
 20
24.49811128788133
 30
0.0
 11
10.78005175600447
 21
23.69696629478131
 31
0.0
1001
AcDbBlockRepETag
1070
     1
1071
       42
1005
1A75
  0
LINE
  5
1A76
330
1A47
100
AcDbEntity
  8
剖面线
  6
Continuous
100
AcDbLine
 10
3.252178626004024
 20
16.16909316478177
 30
0.0
 11
2.895586945804097
 21
15.81250148458184
 31
0.0
1001
AcDbBlockRepETag
1070
     1
1071
       43
1005
1A76
  0
LINE
  5
1A77
330
1A47
100
AcDbEntity
  8
剖面线
  6
Continuous
100
AcDbLine
 10
34.11040562990456
 20
45.89594931878127
 30
0.0
 11
33.39582411750416
 21
45.18136780648183
 31
0.0
1001
AcDbBlockRepETag
1070
     1
1071
       44
1005
1A77
  0
LINE
  5
1A78
330
1A47
100
AcDbEntity
  8
剖面线
  6
Continuous
100
AcDbLine
 10
32.00275134190452
 20
43.78829503078122
 30
0.0
 11
29.68667444388666
 21
41.47221813276155
 31
0.0
1001
AcDbBlockRepETag
1070
     1
1071
       45
1005
1A78
  0
LINE
  5
1A79
330
1A47
100
AcDbEntity
  8
剖面线
  6
Continuous
100
AcDbLine
 10
23.8506648210041
 20
35.63620850988173
 30
0.0
 11
23.11880049690444
 21
34.90434418578116
 31
0.0
1001
AcDbBlockRepETag
1070
     1
1071
       46
1005
1A79
  0
LINE
  5
1A7A
330
1A47
100
AcDbEntity
  8
剖面线
  6
Continuous
100
AcDbLine
 10
11.86946162690401
 20
23.65500531578164
 30
0.0
 11
11.10051754590495
 21
22.88606123478166
 31
0.0
1001
AcDbBlockRepETag
1070
     1
1071
       47
1005
1A7A
  0
LINE
  5
1A7B
330
1A47
100
AcDbEntity
  8
剖面线
  6
Continuous
100
AcDbLine
 10
34.41449971630391
 20
45.06867255538145
 30
0.0
 11
33.508961202504
 21
44.1631340414815
 31
0.0
1001
AcDbBlockRepETag
1070
     1
1071
       48
1005
1A7B
  0
LINE
  5
1A7C
330
1A47
100
AcDbEntity
  8
剖面线
  6
Continuous
100
AcDbLine
 10
33.27960081300444
 20
43.93377365198193
 30
0.0
 11
32.14371301280517
 21
42.79788585178176
 31
0.0
1001
AcDbBlockRepETag
1070
     1
1071
       49
1005
1A7C
  0
LINE
  5
1A7D
330
1A47
100
AcDbEntity
  8
剖面线
  6
Continuous
100
AcDbLine
 10
31.07315138100421
 20
41.72732421998171
 30
0.0
 11
29.85359371201048
 21
40.50776655098798
 31
0.0
1001
AcDbBlockRepETag
1070
     1
1071
       50
1005
1A7D
  0
LINE
  5
1A7E
330
1A47
100
AcDbEntity
  8
剖面线
  6
Continuous
100
AcDbLine
 10
24.59836752980482
 20
35.25254036878141
 30
0.0
 11
23.85532014370438
 21
34.50949298268188
 31
0.0
1001
AcDbBlockRepETag
1070
     1
1071
       51
1005
1A7E
  0
LINE
  5
1A7F
330
1A47
100
AcDbEntity
  8
剖面线
  6
Continuous
100
AcDbLine
 10
12.21221783280453
 20
22.86639067178112
 30
0.0
 11
11.46523787730439
 21
22.11941071638193
 31
0.0
1001
AcDbBlockRepETag
1070
     1
1071
       52
1005
1A7F
  0
LINE
  5
1A80
330
1A47
100
AcDbEntity
  8
剖面线
  6
Continuous
100
AcDbLine
 10
34.52763680130374
 20
44.05043879048117
 30
0.0
 11
33.42056248390509
 21
42.94336447298156
 31
0.0
1001
AcDbBlockRepETag
1070
     1
1071
       53
1005
1A80
  0
LINE
  5
1A81
330
1A47
100
AcDbEntity
  8
剖面线
  6
Continuous
100
AcDbLine
 10
31.21515274310514
 20
40.73795473218161
 30
0.0
 11
30.08767149356208
 21
39.61047348273223
 31
0.0
1001
AcDbBlockRepETag
1070
     1
1071
       54
1005
1A81
  0
LINE
  5
1A82
330
1A47
100
AcDbEntity
  8
剖面线
  6
Continuous
100
AcDbLine
 10
25.57105822110498
 20
35.09386021018145
 30
0.0
 11
24.57987999970465
 21
34.10268198878112
 31
0.0
1001
AcDbBlockRepETag
1070
     1
1071
       55
1005
1A82
  0
LINE
  5
1A83
330
1A47
100
AcDbEntity
  8
剖面线
  6
Continuous
100
AcDbLine
 10
19.56365199320498
 20
29.0864539823815
 30
0.0
 11
17.80012912790516
 21
27.32293111698164
 31
0.0
1001
AcDbBlockRepETag
1070
     1
1071
       56
1005
1A83
  0
LINE
  5
1A84
330
1A47
100
AcDbEntity
  8
剖面线
  6
Continuous
100
AcDbLine
 10
12.60032869760471
 20
22.12313068668118
 30
0.0
 11
11.86726766500396
 21
21.39006965408134
 31
0.0
1001
AcDbBlockRepETag
1070
     1
1071
       57
1005
1A84
  0
LINE
  5
1A85
330
1A47
100
AcDbEntity
  8
剖面线
  6
Continuous
100
AcDbLine
 10
31.48053074790368
 20
39.87196188708185
 30
0.0
 11
30.37984008439162
 21
38.77127122356796
 31
0.0
1001
AcDbBlockRepETag
1070
     1
1071
       58
1005
1A85
  0
LINE
  5
1A86
330
1A47
100
AcDbEntity
  8
剖面线
  6
Continuous
100
AcDbLine
 10
26.7024290710051
 20
35.09386021018145
 30
0.0
 11
25.20028210450437
 21
33.59171324368162
 31
0.0
1001
AcDbBlockRepETag
1070
     1
1071
       59
1005
1A86
  0
LINE
  5
1A87
330
1A47
100
AcDbEntity
  8
剖面线
  6
Continuous
100
AcDbLine
 10
20.46006589890385
 20
28.8514970380811
 30
0.0
 11
19.68145076680412
 21
28.07288190608142
 31
0.0
1001
AcDbBlockRepETag
1070
     1
1071
       60
1005
1A87
  0
LINE
  5
1A88
330
1A47
100
AcDbEntity
  8
剖面线
  6
Continuous
100
AcDbLine
 10
18.79716860470398
 20
27.18859974388124
 30
0.0
 11
17.93606977740455
 21
26.32750091658181
 31
0.0
1001
AcDbBlockRepETag
1070
     1
1071
       61
1005
1A88
  0
LINE
  5
1A89
330
1A47
100
AcDbEntity
  8
剖面线
  6
Continuous
100
AcDbLine
 10
13.0280326361044
 20
21.41946377528165
 30
0.0
 11
12.30416115180378
 21
20.69559229098104
 31
0.0
1001
AcDbBlockRepETag
1070
     1
1071
       62
1005
1A89
  0
LINE
  5
1A8A
330
1A47
100
AcDbEntity
  8
剖面线
  6
Continuous
100
AcDbLine
 10
31.77402838260423
 20
39.03408867188137
 30
0.0
 11
30.72382022891361
 21
37.98388051819165
 31
0.0
1001
AcDbBlockRepETag
1070
     1
1071
       63
1005
1A8A
  0
LINE
  5
1A8B
330
1A47
100
AcDbEntity
  8
剖面线
  6
Continuous
100
AcDbLine
 10
27.83379992090522
 20
35.09386021018145
 30
0.0
 11
25.82068420930409
 21
33.08074449858123
 31
0.0
1001
AcDbBlockRepETag
1070
     1
1071
       64
1005
1A8B
  0
LINE
  5
1A8C
330
1A47
100
AcDbEntity
  8
剖面线
  6
Continuous
100
AcDbLine
 10
21.14085061420519
 20
28.40091090348142
 30
0.0
 11
20.43159025550449
 21
27.69165054478162
 31
0.0
1001
AcDbBlockRepETag
1070
     1
1071
       65
1005
1A8C
  0
LINE
  5
1A8D
330
1A47
100
AcDbEntity
  8
剖面线
  6
Continuous
100
AcDbLine
 10
19.02255445330411
 20
26.28261474258124
 30
0.0
 11
18.28229578370519
 21
25.54235607308147
 31
0.0
1001
AcDbBlockRepETag
1070
     1
1071
       66
1005
1A8D
  0
LINE
  5
1A8E
330
1A47
100
AcDbEntity
  8
剖面线
  6
Continuous
100
AcDbLine
 10
13.49241885460469
 20
20.75247914388183
 30
0.0
 11
12.77692309590384
 21
20.03698338528193
 31
0.0
1001
AcDbBlockRepETag
1070
     1
1071
       67
1005
1A8E
  0
LINE
  5
1A8F
330
1A47
100
AcDbEntity
  8
剖面线
  6
Continuous
100
AcDbLine
 10
32.14929588830455
 20
38.27798532768156
 30
0.0
 11
31.11711262460449
 21
37.2458020639815
 31
0.0
1001
AcDbBlockRepETag
1070
     1
1071
       68
1005
1A8F
  0
LINE
  5
1A90
330
1A47
100
AcDbEntity
  8
剖面线
  6
Continuous
100
AcDbLine
 10
28.96517077080535
 20
35.09386021018145
 30
0.0
 11
26.35737980030536
 21
32.48606923968146
 31
0.0
1001
AcDbBlockRepETag
1070
     1
1071
       69
1005
1A90
  0
LINE
  5
1A91
330
1A47
100
AcDbEntity
  8
剖面线
  6
Continuous
100
AcDbLine
 10
21.69323269800407
 20
27.82192213748113
 30
0.0
 11
20.98397461590502
 21
27.11266405528113
 31
0.0
1001
AcDbBlockRepETag
1070
     1
1071
       70
1005
1A91
  0
LINE
  5
1A92
330
1A47
100
AcDbEntity
  8
剖面线
  6
Continuous
100
AcDbLine
 10
19.60931061770498
 20
25.73800005708108
 30
0.0
 11
18.71752664150517
 21
24.84621608088128
 31
0.0
1001
AcDbBlockRepETag
1070
     1
1071
       71
1005
1A92
  0
LINE
  5
1A93
330
1A47
100
AcDbEntity
  8
剖面线
  6
Continuous
100
AcDbLine
 10
13.99101443220388
 20
20.1197038715818
 30
0.0
 11
13.28238260320359
 21
19.41107204268155
 31
0.0
1001
AcDbBlockRepETag
1070
     1
1071
       72
1005
1A93
  0
LINE
  5
1A94
330
1A47
100
AcDbEntity
  8
剖面线
  6
Continuous
100
AcDbLine
 10
32.54491680240426
 20
37.5422353919812
 30
0.0
 11
31.54527164220417
 21
36.54259023168106
 31
0.0
1001
AcDbBlockRepETag
1070
     1
1071
       73
1005
1A94
  0
LINE
  5
1A95
330
1A47
100
AcDbEntity
  8
剖面线
  6
Continuous
100
AcDbLine
 10
30.09654162070365
 20
35.09386021018145
 30
0.0
 11
26.87637233690475
 21
31.87369092638164
 31
0.0
1001
AcDbBlockRepETag
1070
     1
1071
       74
1005
1A95
  0
LINE
  5
1A96
330
1A47
100
AcDbEntity
  8
剖面线
  6
Continuous
100
AcDbLine
 10
22.17893897400427
 20
27.17625756348116
 30
0.0
 11
19.22385426010442
 21
24.22117284958131
 31
0.0
1001
AcDbBlockRepETag
1070
     1
1071
       75
1005
1A96
  0
LINE
  5
1A97
330
1A47
100
AcDbEntity
  8
剖面线
  6
Continuous
100
AcDbLine
 10
14.52682981780526
 20
19.52414840728124
 30
0.0
 11
13.81833773800463
 21
18.81565632748152
 31
0.0
1001
AcDbBlockRepETag
1070
     1
1071
       76
1005
1A97
  0
LINE
  5
1A98
330
1A47
100
AcDbEntity
  8
剖面线
  6
Continuous
100
AcDbLine
 10
32.98304908700448
 20
36.84899682658124
 30
0.0
 11
31.9857242549042
 21
35.85167199458192
 31
0.0
1001
AcDbBlockRepETag
1070
     1
1071
       77
1005
1A98
  0
LINE
  5
1A99
330
1A47
100
AcDbEntity
  8
剖面线
  6
Continuous
100
AcDbLine
 10
31.22791247060377
 20
35.09386021018145
 30
0.0
 11
27.38349655860475
 21
31.24944429818152
 31
0.0
1001
AcDbBlockRepETag
1070
     1
1071
       78
1005
1A99
  0
LINE
  5
1A9A
330
1A47
100
AcDbEntity
  8
剖面线
  6
Continuous
100
AcDbLine
 10
22.64112442660371
 20
26.50707216618139
 30
0.0
 11
19.77643402300418
 21
23.64238176258186
 31
0.0
1001
AcDbBlockRepETag
1070
     1
1071
       79
1005
1A9A
  0
LINE
  5
1A9B
330
1A47
100
AcDbEntity
  8
剖面线
  6
Continuous
100
AcDbLine
 10
15.08991860230526
 20
18.95586634188112
 30
0.0
 11
14.38264030900427
 21
18.24858804868108
 31
0.0
1001
AcDbBlockRepETag
1070
     1
1071
       80
1005
1A9B
  0
LINE
  5
1A9C
330
1A47
100
AcDbEntity
  8
剖面线
  6
Continuous
100
AcDbLine
 10
33.42118137150464
 20
36.15575826118129
 30
0.0
 11
32.42610803360367
 21
35.16068492338127
 31
0.0
1001
AcDbBlockRepETag
1070
     1
1071
       81
1005
1A9C
  0
LINE
  5
1A9D
330
1A47
100
AcDbEntity
  8
剖面线
  6
Continuous
100
AcDbLine
 10
32.35928332050389
 20
35.09386021018145
 30
0.0
 11
27.86532172080479
 21
30.59989861048143
 31
0.0
1001
AcDbBlockRepETag
1070
     1
1071
       82
1005
1A9D
  0
LINE
  5
1A9E
330
1A47
100
AcDbEntity
  8
剖面线
  6
Continuous
100
AcDbLine
 10
23.10828622160443
 20
25.84286311128108
 30
0.0
 11
20.35289946890407
 21
23.08747635868167
 31
0.0
1001
AcDbBlockRepETag
1070
     1
1071
       83
1005
1A9E
  0
LINE
  5
1A9F
330
1A47
100
AcDbEntity
  8
剖面线
  6
Continuous
100
AcDbLine
 10
15.67307150650413
 20
18.40764839618168
 30
0.0
 11
14.96564796450366
 21
17.70022485418121
 31
0.0
1001
AcDbBlockRepETag
1070
     1
1071
       84
1005
1A9F
  0
LINE
  5
1AA0
330
1A47
100
AcDbEntity
  8
剖面线
  6
Continuous
100
AcDbLine
 10
3.077924594905198
 20
5.812501484581844
 30
0.0
 11
1.81189523890498
 21
4.546472128581626
 31
0.0
1001
AcDbBlockRepETag
1070
     1
1071
       85
1005
1AA0
  0
LINE
  5
1AA1
330
1A47
100
AcDbEntity
  8
剖面线
  6
Continuous
100
AcDbLine
 10
33.84969988410376
 20
35.45290592388119
 30
0.0
 11
28.34714688300483
 21
29.95035292278135
 31
0.0
1001
AcDbBlockRepETag
1070
     1
1071
       86
1005
1AA1
  0
LINE
  5
1AA2
330
1A47
100
AcDbEntity
  8
剖面线
  6
Continuous
100
AcDbLine
 10
23.58421189680484
 20
25.18741793658137
 30
0.0
 11
20.9279871725048
 21
22.53119321228132
 31
0.0
1001
AcDbBlockRepETag
1070
     1
1071
       87
1005
1AA2
  0
LINE
  5
1AA3
330
1A47
100
AcDbEntity
  8
剖面线
  6
Continuous
100
AcDbLine
 10
16.22599840170369
 20
17.82920444148112
 30
0.0
 11
15.51686066070397
 21
17.12006670058144
 31
0.0
1001
AcDbBlockRepETag
1070
     1
1071
       88
1005
1AA3
  0
LINE
  5
1AA4
330
1A47
100
AcDbEntity
  8
剖面线
  6
Continuous
100
AcDbLine
 10
3.323754425904553
 20
4.926960465681077
 30
0.0
 11
1.814292502904208
 21
3.417498542681641
 31
0.0
1001
AcDbBlockRepETag
1070
     1
1071
       89
1005
1AA4
  0
LINE
  5
1AA5
330
1A47
100
AcDbEntity
  8
剖面线
  6
Continuous
100
AcDbLine
 10
34.24947807010358
 20
34.7213132599818
 30
0.0
 11
28.83397240030536
 21
29.30580759018176
 31
0.0
1001
AcDbBlockRepETag
1070
     1
1071
       90
1005
1AA5
  0
LINE
  5
1AA6
330
1A47
100
AcDbEntity
  8
剖面线
  6
Continuous
100
AcDbLine
 10
24.06850505790499
 20
24.54034024788143
 30
0.0
 11
21.47641182350526
 21
21.94824701338166
 31
0.0
1001
AcDbBlockRepETag
1070
     1
1071
       91
1005
1AA6
  0
LINE
  5
1AA7
330
1A47
100
AcDbEntity
  8
剖面线
  6
Continuous
100
AcDbLine
 10
16.67455893840451
 20
17.14639412828183
 30
0.0
 11
15.81543374540524
 21
16.28726893528164
 31
0.0
1001
AcDbBlockRepETag
1070
     1
1071
       92
1005
1AA7
  0
LINE
  5
1AA8
330
1A47
100
AcDbEntity
  8
剖面线
  6
Continuous
100
AcDbLine
 10
3.326453588604636
 20
3.798288778481037
 30
0.0
 11
1.815514697304024
 21
2.287349887181335
 31
0.0
1001
AcDbBlockRepETag
1070
     1
1071
       93
1005
1AA8
  0
LINE
  5
1AA9
330
1A47
100
AcDbEntity
  8
剖面线
  6
Continuous
100
AcDbLine
 10
34.64925625610522
 20
33.9897205960815
 30
0.0
 11
29.32470891390403
 21
28.66517325388122
 31
0.0
1001
AcDbBlockRepETag
1070
     1
1071
       94
1005
1AA9
  0
LINE
  5
1AAA
330
1A47
100
AcDbEntity
  8
剖面线
  6
Continuous
100
AcDbLine
 10
24.56136830700416
 20
23.90183264698135
 30
0.0
 11
21.98039306320425
 21
21.32085740328148
 31
0.0
1001
AcDbBlockRepETag
1070
     1
1071
       95
1005
1AAA
  0
LINE
  5
1AAB
330
1A47
100
AcDbEntity
  8
剖面线
  6
Continuous
100
AcDbLine
 10
16.81543374540524
 20
16.15589808538152
 30
0.0
 11
15.81543374540524
 21
15.15589808538152
 31
0.0
1001
AcDbBlockRepETag
1070
     1
1071
       96
1005
1AAB
  0
LINE
  5
1AAC
330
1A47
100
AcDbEntity
  8
剖面线
  6
Continuous
100
AcDbLine
 10
3.328124374804247
 20
2.668588714881479
 30
0.0
 11
1.815353962703738
 21
1.155818302681836
 31
0.0
1001
AcDbBlockRepETag
1070
     1
1071
       97
1005
1AAC
  0
LINE
  5
1AAD
330
1A47
100
AcDbEntity
  8
剖面线
  6
Continuous
100
AcDbLine
 10
35.04903444210504
 20
33.2581279321812
 30
0.0
 11
29.81544542740449
 21
28.0245389175816
 31
0.0
1001
AcDbBlockRepETag
1070
     1
1071
       98
1005
1AAD
  0
LINE
  5
1AAE
330
1A47
100
AcDbEntity
  8
剖面线
  6
Continuous
100
AcDbLine
 10
25.06416279570476
 20
23.27325628578183
 30
0.0
 11
22.4359700803052
 21
20.64506357038135
 31
0.0
1001
AcDbBlockRepETag
1070
     1
1071
       99
1005
1AAE
  0
LINE
  5
1AAF
330
1A47
100
AcDbEntity
  8
剖面线
  6
Continuous
100
AcDbLine
 10
16.81543374540524
 20
15.02452723558144
 30
0.0
 11
15.81543374540524
 21
14.02452723558144
 31
0.0
1001
AcDbBlockRepETag
1070
     1
1071
      100
1005
1AAF
  0
LINE
  5
1AB0
330
1A47
100
AcDbEntity
  8
剖面线
  6
Continuous
100
AcDbLine
 10
4.291630379204434
 20
2.5007238692815
 30
0.0
 11
1.815193228105272
 21
0.0242867182814735
 31
0.0
1001
AcDbBlockRepETag
1070
     1
1071
      101
1005
1AB0
  0
LINE
  5
1AB1
330
1A47
100
AcDbEntity
  8
剖面线
  6
Continuous
100
AcDbLine
 10
35.39772857230492
 20
32.4754512125819
 30
0.0
 11
30.32829165700423
 21
27.40601429718117
 31
0.0
1001
AcDbBlockRepETag
1070
     1
1071
      102
1005
1AB1
  0
LINE
  5
1AB2
330
1A47
100
AcDbEntity
  8
剖面线
  6
Continuous
100
AcDbLine
 10
25.57222343660396
 20
22.64994607678182
 30
0.0
 11
22.836645125004
 21
19.91436776518185
 31
0.0
1001
AcDbBlockRepETag
1070
     1
1071
      103
1005
1AB2
  0
LINE
  5
1AB3
330
1A47
100
AcDbEntity
  8
剖面线
  6
Continuous
100
AcDbLine
 10
16.81543374540524
 20
13.89315638568132
 30
0.0
 11
16.23477884440399
 21
13.31250148458184
 31
0.0
1001
AcDbBlockRepETag
1070
     1
1071
      104
1005
1AB3
  0
LINE
  5
1AB4
330
1A47
100
AcDbEntity
  8
剖面线
  6
Continuous
100
AcDbLine
 10
4.941247514005226
 20
2.018970154181261
 30
0.0
 11
4.298001229104556
 21
1.3757238692815
 31
0.0
1001
AcDbBlockRepETag
1070
     1
1071
      105
1005
1AB4
  0
LINE
  5
1AB5
330
1A47
100
AcDbEntity
  8
剖面线
  6
Continuous
100
AcDbLine
 10
4.164740259204336
 20
1.242462899481324
 30
0.0
 11
3.949508484904072
 21
1.02723112518197
 31
0.0
1001
AcDbBlockRepETag
1070
     1
1071
      106
1005
1AB5
  0
LINE
  5
1AB6
330
1A47
100
AcDbEntity
  8
剖面线
  6
Continuous
100
AcDbLine
 10
3.328153372003725
 20
0.4058760121815795
 30
0.0
 11
2.92227884440399
 21
0.0000014845818441
 31
0.0
1001
AcDbBlockRepETag
1070
     1
1071
      107
1005
1AB6
  0
LINE
  5
1AB7
330
1A47
100
AcDbEntity
  8
剖面线
  6
Continuous
100
AcDbLine
 10
35.73879615690385
 20
31.68514794728162
 30
0.0
 11
30.86099565710538
 21
26.80734744738129
 31
0.0
1001
AcDbBlockRepETag
1070
     1
1071
      108
1005
1AB7
  0
LINE
  5
1AB8
330
1A47
100
AcDbEntity
  8
剖面线
  6
Continuous
100
AcDbLine
 10
26.08028407750499
 20
22.0266358677818
 30
0.0
 11
23.16691273030483
 21
19.11326452068169
 31
0.0
1001
AcDbBlockRepETag
1070
     1
1071
      109
1005
1AB8
  0
LINE
  5
1AB9
330
1A47
100
AcDbEntity
  8
剖面线
  6
Continuous
100
AcDbLine
 10
6.554372079004679
 20
2.5007238692815
 30
0.0
 11
5.941247514005226
 21
1.887599304281138
 31
0.0
1001
AcDbBlockRepETag
1070
     1
1071
      110
1005
1AB9
  0
LINE
  5
1ABA
330
1A47
100
AcDbEntity
  8
剖面线
  6
Continuous
100
AcDbLine
 10
36.07986374160464
 20
30.89484468198134
 30
0.0
 11
31.39369965710467
 21
26.20868059758141
 31
0.0
1001
AcDbBlockRepETag
1070
     1
1071
      111
1005
1ABA
  0
LINE
  5
1ABB
330
1A47
100
AcDbEntity
  8
剖面线
  6
Continuous
100
AcDbLine
 10
26.58834471840419
 20
21.4033256587818
 30
0.0
 11
23.38421221090539
 21
18.19919315138122
 31
0.0
1001
AcDbBlockRepETag
1070
     1
1071
      112
1005
1ABB
  0
LINE
  5
1ABC
330
1A47
100
AcDbEntity
  8
剖面线
  6
Continuous
100
AcDbLine
 10
7.441247514005226
 20
2.256228454381925
 30
0.0
 11
6.560742928904801
 21
1.3757238692815
 31
0.0
1001
AcDbBlockRepETag
1070
     1
1071
      113
1005
1ABC
  0
LINE
  5
1ABD
330
1A47
100
AcDbEntity
  8
剖面线
  6
Continuous
100
AcDbLine
 10
36.40795110120417
 20
30.09156119178169
 30
0.0
 11
31.96889241010467
 21
25.65250250058125
 31
0.0
1001
AcDbBlockRepETag
1070
     1
1071
      114
1005
1ABD
  0
LINE
  5
1ABE
330
1A47
100
AcDbEntity
  8
剖面线
  6
Continuous
100
AcDbLine
 10
27.11789154890357
 20
20.80150163938106
 30
0.0
 11
23.44043374540524
 21
17.12404383598186
 31
0.0
1001
AcDbBlockRepETag
1070
     1
1071
      115
1005
1ABE
  0
LINE
  5
1ABF
330
1A47
100
AcDbEntity
  8
剖面线
  6
Continuous
100
AcDbLine
 10
7.441247514005226
 20
1.124857604481803
 30
0.0
 11
7.317113778804923
 21
1.0007238692815
 31
0.0
1001
AcDbBlockRepETag
1070
     1
1071
      116
1005
1ABF
  0
LINE
  5
1AC0
330
1A47
100
AcDbEntity
  8
剖面线
  6
Continuous
100
AcDbLine
 10
36.68717417130392
 20
29.23941341188129
 30
0.0
 11
35.272162037405
 21
27.8244012780815
 31
0.0
1001
AcDbBlockRepETag
1070
     1
1071
      117
1005
1AC0
  0
LINE
  5
1AC1
330
1A47
100
AcDbEntity
  8
剖面线
  6
Continuous
100
AcDbLine
 10
33.26254173930465
 20
25.81478097988111
 30
0.0
 11
32.57166889960536
 21
25.12390814018181
 31
0.0
1001
AcDbBlockRepETag
1070
     1
1071
      118
1005
1AC1
  0
LINE
  5
1AC2
330
1A47
100
AcDbEntity
  8
剖面线
  6
Continuous
100
AcDbLine
 10
27.65970580090471
 20
20.21194504148116
 30
0.0
 11
25.01026224400448
 21
17.56250148458184
 31
0.0
1001
AcDbBlockRepETag
1070
     1
1071
      119
1005
1AC2
  0
LINE
  5
1AC3
330
1A47
100
AcDbEntity
  8
剖面线
  6
Continuous
100
AcDbLine
 10
24.44043374540525
 20
16.99267298608174
 30
0.0
 11
23.44043374540524
 21
15.99267298608174
 31
0.0
1001
AcDbBlockRepETag
1070
     1
1071
      120
1005
1AC3
  0
LINE
  5
1AC4
330
1A47
100
AcDbEntity
  8
剖面线
  6
Continuous
100
AcDbLine
 10
36.96639724140368
 20
28.38726563208183
 30
0.0
 11
35.89734559200406
 21
27.3182139826813
 31
0.0
1001
AcDbBlockRepETag
1070
     1
1071
      121
1005
1AC4
  0
LINE
  5
1AC5
330
1A47
100
AcDbEntity
  8
剖面线
  6
Continuous
100
AcDbLine
 10
33.89244997080459
 20
25.31331836158188
 30
0.0
 11
33.17528919520373
 21
24.59615758588189
 31
0.0
1001
AcDbBlockRepETag
1070
     1
1071
      122
1005
1AC5
  0
LINE
  5
1AC6
330
1A47
100
AcDbEntity
  8
剖面线
  6
Continuous
100
AcDbLine
 10
28.20152005290402
 20
19.62238844358125
 30
0.0
 11
26.1416330939046
 21
17.56250148458184
 31
0.0
1001
AcDbBlockRepETag
1070
     1
1071
      123
1005
1AC6
  0
LINE
  5
1AC7
330
1A47
100
AcDbEntity
  8
剖面线
  6
Continuous
100
AcDbLine
 10
24.44043374540525
 20
15.86130213618162
 30
0.0
 11
23.44043374540524
 21
14.86130213618162
 31
0.0
1001
AcDbBlockRepETag
1070
     1
1071
      124
1005
1AC7
  0
LINE
  5
1AC8
330
1A47
100
AcDbEntity
  8
剖面线
  6
Continuous
100
AcDbLine
 10
15.81543374540524
 20
13.31250148458184
 30
0.0
 11
24.44043374540525
 21
13.31250148458184
 31
0.0
1001
AcDbBlockRepETag
1070
     1
1071
      125
1005
1AC8
  0
LINE
  5
1AC9
330
1A47
100
AcDbEntity
  8
剖面线
  6
Continuous
100
AcDbLine
 10
37.24562031140522
 20
27.53511785228147
 30
0.0
 11
36.15215459120373
 21
26.4416521320818
 31
0.0
1001
AcDbBlockRepETag
1070
     1
1071
      126
1005
1AC9
  0
LINE
  5
1ACA
330
1A47
100
AcDbEntity
  8
剖面线
  6
Continuous
100
AcDbLine
 10
34.55788561060399
 20
24.84738315148116
 30
0.0
 11
33.85699090500384
 21
24.14648844588191
 31
0.0
1001
AcDbBlockRepETag
1070
     1
1071
      127
1005
1ACA
  0
LINE
  5
1ACB
330
1A47
100
AcDbEntity
  8
剖面线
  6
Continuous
100
AcDbLine
 10
28.75182760790449
 20
19.04132514878165
 30
0.0
 11
27.27300394380473
 21
17.56250148458184
 31
0.0
1001
AcDbBlockRepETag
1070
     1
1071
      128
1005
1ACB
  0
LINE
  5
1ACC
330
1A47
100
AcDbEntity
  8
剖面线
  6
Continuous
100
AcDbLine
 10
24.44043374540525
 20
14.7299312862815
 30
0.0
 11
23.44043374540524
 21
13.7299312862815
 31
0.0
1001
AcDbBlockRepETag
1070
     1
1071
      129
1005
1ACC
  0
LINE
  5
1ACD
330
1A47
100
AcDbEntity
  8
剖面线
  6
Continuous
100
AcDbLine
 10
37.50876896590489
 20
26.66689565678189
 30
0.0
 11
36.39125346830406
 21
25.54938015918106
 31
0.0
1001
AcDbBlockRepETag
1070
     1
1071
      130
1005
1ACD
  0
LINE
  5
1ACE
330
1A47
100
AcDbEntity
  8
剖面线
  6
Continuous
100
AcDbLine
 10
35.26435127970399
 20
24.42247797068103
 30
0.0
 11
34.53869261480395
 21
23.6968193057819
 31
0.0
1001
AcDbBlockRepETag
1070
     1
1071
      131
1005
1ACE
  0
LINE
  5
1ACF
330
1A47
100
AcDbEntity
  8
剖面线
  6
Continuous
100
AcDbLine
 10
29.35561682470506
 20
18.51374351558115
 30
0.0
 11
28.40437479370485
 21
17.56250148458184
 31
0.0
1001
AcDbBlockRepETag
1070
     1
1071
      132
1005
1ACF
  0
LINE
  5
1AD0
330
1A47
100
AcDbEntity
  8
剖面线
  6
Continuous
100
AcDbLine
 10
24.44043374540525
 20
13.59856043638137
 30
0.0
 11
24.15437479370485
 21
13.31250148458184
 31
0.0
1001
AcDbBlockRepETag
1070
     1
1071
      133
1005
1AD0
  0
LINE
  5
1AD1
330
1A47
100
AcDbEntity
  8
剖面线
  6
Continuous
100
AcDbLine
 10
37.72621184300442
 20
25.75296768408134
 30
0.0
 11
36.61184041690467
 21
24.63859625798159
 31
0.0
1001
AcDbBlockRepETag
1070
     1
1071
      134
1005
1AD1
  0
LINE
  5
1AD2
330
1A47
100
AcDbEntity
  8
剖面线
  6
Continuous
100
AcDbLine
 10
36.03361689110534
 20
24.06037273208131
 30
0.0
 11
35.29214162580502
 21
23.31889746688194
 31
0.0
1001
AcDbBlockRepETag
1070
     1
1071
      135
1005
1AD2
  0
LINE
  5
1AD3
330
1A47
100
AcDbEntity
  8
剖面线
  6
Continuous
100
AcDbLine
 10
29.95940604150383
 20
17.98616188248161
 30
0.0
 11
29.23254699010431
 21
17.25930283118123
 31
0.0
1001
AcDbBlockRepETag
1070
     1
1071
      136
1005
1AD3
  0
LINE
  5
1AD4
330
1A47
100
AcDbEntity
  8
剖面线
  6
Continuous
100
AcDbLine
 10
37.94365472010395
 20
24.83903971128166
 30
0.0
 11
36.0698275649047
 21
22.9652125560815
 31
0.0
1001
AcDbBlockRepETag
1070
     1
1071
      137
1005
1AD4
  0
LINE
  5
1AD5
330
1A47
100
AcDbEntity
  8
剖面线
  6
Continuous
100
AcDbLine
 10
30.56511534480524
 20
17.46050033588199
 30
0.0
 11
29.85538283340429
 21
16.75076782448104
 31
0.0
1001
AcDbBlockRepETag
1070
     1
1071
      138
1005
1AD5
  0
LINE
  5
1AD6
330
1A47
100
AcDbEntity
  8
剖面线
  6
Continuous
100
AcDbLine
 10
38.16109759730534
 20
23.92511173858111
 30
0.0
 11
36.94930184810437
 21
22.71331598938104
 31
0.0
1001
AcDbBlockRepETag
1070
     1
1071
      139
1005
1AD6
  0
LINE
  5
1AD7
330
1A47
100
AcDbEntity
  8
剖面线
  6
Continuous
100
AcDbLine
 10
31.25480850860367
 20
17.01882264978121
 30
0.0
 11
30.51775397720485
 21
16.28176811838148
 31
0.0
1001
AcDbBlockRepETag
1070
     1
1071
      140
1005
1AD7
  0
LINE
  5
1AD8
330
1A47
100
AcDbEntity
  8
剖面线
  6
Continuous
100
AcDbLine
 10
38.26579914210379
 20
22.89844243348125
 30
0.0
 11
37.96953654690515
 21
22.60217983818165
 31
0.0
1001
AcDbBlockRepETag
1070
     1
1071
      141
1005
1AD8
  0
LINE
  5
1AD9
330
1A47
100
AcDbEntity
  8
剖面线
  6
Continuous
100
AcDbLine
 10
31.94450167230389
 20
16.57714496368135
 30
0.0
 11
31.19250095490497
 21
15.82514424618148
 31
0.0
1001
AcDbBlockRepETag
1070
     1
1071
      142
1005
1AD9
  0
LINE
  5
1ADA
330
1A47
100
AcDbEntity
  8
剖面线
  6
Continuous
100
AcDbLine
 10
32.66777774900402
 20
16.16905019048135
 30
0.0
 11
31.92578361820415
 21
15.42705605968149
 31
0.0
1001
AcDbBlockRepETag
1070
     1
1071
      143
1005
1ADA
  0
LINE
  5
1ADB
330
1A47
100
AcDbEntity
  8
剖面线
  6
Continuous
100
AcDbLine
 10
33.46076035530496
 20
15.83066194678122
 30
0.0
 11
32.67535345880424
 21
15.04525505028141
 31
0.0
1001
AcDbBlockRepETag
1070
     1
1071
      144
1005
1ADB
  0
LINE
  5
1ADC
330
1A47
100
AcDbEntity
  8
剖面线
  6
Continuous
100
AcDbLine
 10
34.25374296150403
 20
15.49227370318113
 30
0.0
 11
33.48247206690394
 21
14.72100280858194
 31
0.0
1001
AcDbBlockRepETag
1070
     1
1071
      145
1005
1ADC
  0
LINE
  5
1ADD
330
1A47
100
AcDbEntity
  8
剖面线
  6
Continuous
100
AcDbLine
 10
35.16142504390519
 20
15.26858493568125
 30
0.0
 11
34.32809405770422
 21
14.43525394938115
 31
0.0
1001
AcDbBlockRepETag
1070
     1
1071
      146
1005
1ADD
  0
LINE
  5
1ADE
330
1A47
100
AcDbEntity
  8
剖面线
  6
Continuous
100
AcDbLine
 10
36.07412736790502
 20
15.04991640978187
 30
0.0
 11
35.21570516750399
 21
14.19149420938174
 31
0.0
1001
AcDbBlockRepETag
1070
     1
1071
      147
1005
1ADE
  0
LINE
  5
1ADF
330
1A47
100
AcDbEntity
  8
剖面线
  6
Continuous
100
AcDbLine
 10
37.08695457410431
 20
14.93137276608195
 30
0.0
 11
36.17644621510408
 21
14.02086440708172
 31
0.0
1001
AcDbBlockRepETag
1070
     1
1071
      148
1005
1ADF
  0
LINE
  5
1AE0
330
1A47
100
AcDbEntity
  8
剖面线
  6
Continuous
100
AcDbLine
 10
38.14027860740498
 20
14.85332594938154
 30
0.0
 11
37.17663906000416
 21
13.88968640208168
 31
0.0
1001
AcDbBlockRepETag
1070
     1
1071
      149
1005
1AE0
  0
LINE
  5
1AE1
330
1A47
100
AcDbEntity
  8
剖面线
  6
Continuous
100
AcDbLine
 10
39.23082499240445
 20
14.81250148458184
 30
0.0
 11
38.24619447290388
 21
13.82787096508127
 31
0.0
1001
AcDbBlockRepETag
1070
     1
1071
      150
1005
1AE1
  0
LINE
  5
1AE2
330
1A47
100
AcDbEntity
  8
剖面线
  6
Continuous
100
AcDbLine
 10
40.36219584230457
 20
14.81250148458184
 30
0.0
 11
38.94124751400523
 21
13.39155315618154
 31
0.0
1001
AcDbBlockRepETag
1070
     1
1071
      151
1005
1AE2
  0
LINE
  5
1AE3
330
1A47
100
AcDbEntity
  8
剖面线
  6
Continuous
100
AcDbLine
 10
41.49356669220469
 20
14.81250148458184
 30
0.0
 11
39.4935666922047
 21
12.81250148458184
 31
0.0
1001
AcDbBlockRepETag
1070
     1
1071
      152
1005
1AE3
  0
LINE
  5
1AE4
330
1A47
100
AcDbEntity
  8
剖面线
  6
Continuous
100
AcDbLine
 10
42.62493754210481
 20
14.81250148458184
 30
0.0
 11
40.62493754210481
 21
12.81250148458184
 31
0.0
1001
AcDbBlockRepETag
1070
     1
1071
      153
1005
1AE4
  0
LINE
  5
1AE5
330
1A47
100
AcDbEntity
  8
剖面线
  6
Continuous
100
AcDbLine
 10
77.12472560060451
 20
48.18091869308137
 30
0.0
 11
76.32653647460393
 21
47.38272956708169
 31
0.0
1001
AcDbBlockRepETag
1070
     1
1071
      154
1005
1AE5
  0
LINE
  5
1AE6
330
1A47
100
AcDbEntity
  8
剖面线
  6
Continuous
100
AcDbLine
 10
43.75630839200494
 20
14.81250148458184
 30
0.0
 11
41.75630839200493
 21
12.81250148458184
 31
0.0
1001
AcDbBlockRepETag
1070
     1
1071
      155
1005
1AE6
  0
LINE
  5
1AE7
330
1A47
100
AcDbEntity
  8
剖面线
  6
Continuous
100
AcDbLine
 10
78.24303695050367
 20
48.16785919318135
 30
0.0
 11
76.14462230320532
 21
46.06944454588119
 31
0.0
1001
AcDbBlockRepETag
1070
     1
1071
      156
1005
1AE7
  0
LINE
  5
1AE8
330
1A47
100
AcDbEntity
  8
剖面线
  6
Continuous
100
AcDbLine
 10
44.88767924190506
 20
14.81250148458184
 30
0.0
 11
42.88767924190506
 21
12.81250148458184
 31
0.0
1001
AcDbBlockRepETag
1070
     1
1071
      157
1005
1AE8
  0
LINE
  5
1AE9
330
1A47
100
AcDbEntity
  8
剖面线
  6
Continuous
100
AcDbLine
 10
79.3455377997052
 20
48.13898919248186
 30
0.0
 11
78.37072147110484
 21
47.1641728638815
 31
0.0
1001
AcDbBlockRepETag
1070
     1
1071
      158
1005
1AE9
  0
LINE
  5
1AEA
330
1A47
100
AcDbEntity
  8
剖面线
  6
Continuous
100
AcDbLine
 10
77.13458240280488
 20
45.92803379558154
 30
0.0
 11
75.96270813190495
 21
44.7561595246816
 31
0.0
1001
AcDbBlockRepETag
1070
     1
1071
      159
1005
1AEA
  0
LINE
  5
1AEB
330
1A47
100
AcDbEntity
  8
剖面线
  6
Continuous
100
AcDbLine
 10
56.5978172332052
 20
25.39126862598187
 30
0.0
 11
51.01541411440485
 21
19.80886550718151
 31
0.0
1001
AcDbBlockRepETag
1070
     1
1071
      160
1005
1AEB
  0
LINE
  5
1AEC
330
1A47
100
AcDbEntity
  8
剖面线
  6
Continuous
100
AcDbLine
 10
46.01905009180518
 20
14.81250148458184
 30
0.0
 11
44.01905009180518
 21
12.81250148458184
 31
0.0
1001
AcDbBlockRepETag
1070
     1
1071
      161
1005
1AEC
  0
LINE
  5
1AED
330
1A47
100
AcDbEntity
  8
剖面线
  6
Continuous
100
AcDbLine
 10
80.44803864880487
 20
48.11011919168141
 30
0.0
 11
79.47322232020451
 21
47.13530286308105
 31
0.0
1001
AcDbBlockRepETag
1070
     1
1071
      162
1005
1AED
  0
LINE
  5
1AEE
330
1A47
100
AcDbEntity
  8
剖面线
  6
Continuous
100
AcDbLine
 10
76.95266823150451
 20
44.6147487742819
 30
0.0
 11
75.82110521830509
 21
43.48318576118162
 31
0.0
1001
AcDbBlockRepETag
1070
     1
1071
      163
1005
1AEE
  0
LINE
  5
1AEF
330
1A47
100
AcDbEntity
  8
剖面线
  6
Continuous
100
AcDbLine
 10
61.79296888290446
 20
29.45504942578191
 30
0.0
 11
55.16953143110367
 21
22.83161197388108
 31
0.0
1001
AcDbBlockRepETag
1070
     1
1071
      164
1005
1AEF
  0
LINE
  5
1AF0
330
1A47
100
AcDbEntity
  8
剖面线
  6
Continuous
100
AcDbLine
 10
51.9644103353039
 20
19.62649087808131
 30
0.0
 11
50.64465154080426
 21
18.30673208368171
 31
0.0
1001
AcDbBlockRepETag
1070
     1
1071
      165
1005
1AF0
  0
LINE
  5
1AF1
330
1A47
100
AcDbEntity
  8
剖面线
  6
Continuous
100
AcDbLine
 10
47.1504209417053
 20
14.81250148458184
 30
0.0
 11
45.15042094170531
 21
12.81250148458184
 31
0.0
1001
AcDbBlockRepETag
1070
     1
1071
      166
1005
1AF1
  0
LINE
  5
1AF2
330
1A47
100
AcDbEntity
  8
剖面线
  6
Continuous
100
AcDbLine
 10
81.55053949790454
 20
48.08124919088186
 30
0.0
 11
80.09512509980414
 21
46.62583479278146
 31
0.0
1001
AcDbBlockRepETag
1070
     1
1071
      167
1005
1AF2
  0
LINE
  5
1AF3
330
1A47
100
AcDbEntity
  8
剖面线
  6
Continuous
100
AcDbLine
 10
76.99215542190358
 20
43.52286511488182
 30
0.0
 11
76.43506888620504
 21
42.96577857918146
 31
0.0
1001
AcDbBlockRepETag
1070
     1
1071
      168
1005
1AF3
  0
LINE
  5
1AF4
330
1A47
100
AcDbEntity
  8
剖面线
  6
Continuous
100
AcDbLine
 10
63.95047803670422
 20
30.48118772968155
 30
0.0
 11
60.35447241680413
 21
26.88518210978145
 31
0.0
1001
AcDbBlockRepETag
1070
     1
1071
      169
1005
1AF4
  0
LINE
  5
1AF5
330
1A47
100
AcDbEntity
  8
剖面线
  6
Continuous
100
AcDbLine
 10
59.69839287650393
 20
26.22910256948126
 30
0.0
 11
58.49563654580379
 21
25.02634623878112
 31
0.0
1001
AcDbBlockRepETag
1070
     1
1071
      170
1005
1AF5
  0
LINE
  5
1AF6
330
1A47
100
AcDbEntity
  8
剖面线
  6
Continuous
100
AcDbLine
 10
51.56034658320459
 20
18.09105627618192
 30
0.0
 11
51.22373116350354
 21
17.75444085648178
 31
0.0
1001
AcDbBlockRepETag
1070
     1
1071
      171
1005
1AF6
  0
LINE
  5
1AF7
330
1A47
100
AcDbEntity
  8
剖面线
  6
Continuous
100
AcDbLine
 10
48.28179179160361
 20
14.81250148458184
 30
0.0
 11
46.28179179160361
 21
12.81250148458184
 31
0.0
1001
AcDbBlockRepETag
1070
     1
1071
      172
1005
1AF7
  0
LINE
  5
1AF8
330
1A47
100
AcDbEntity
  8
剖面线
  6
Continuous
100
AcDbLine
 10
82.58258899040447
 20
47.98192783348167
 30
0.0
 11
77.99213033770502
 21
43.39146918078131
 31
0.0
1001
AcDbBlockRepETag
1070
     1
1071
      173
1005
1AF8
  0
LINE
  5
1AF9
330
1A47
100
AcDbEntity
  8
剖面线
  6
Continuous
100
AcDbLine
 10
65.93641348650454
 20
31.33575232958174
 30
0.0
 11
63.26056596270428
 21
28.65990480578148
 31
0.0
1001
AcDbBlockRepETag
1070
     1
1071
      174
1005
1AF9
  0
LINE
  5
1AFA
330
1A47
100
AcDbEntity
  8
剖面线
  6
Continuous
100
AcDbLine
 10
59.5558663175052
 20
24.9552051605815
 30
0.0
 11
58.43306465840396
 21
23.83240350148117
 31
0.0
1001
AcDbBlockRepETag
1070
     1
1071
      175
1005
1AFA
  0
LINE
  5
1AFB
330
1A47
100
AcDbEntity
  8
剖面线
  6
Continuous
100
AcDbLine
 10
50.68537327900412
 20
16.08471212198128
 30
0.0
 11
50.25677915610504
 21
15.65611799918133
 31
0.0
1001
AcDbBlockRepETag
1070
     1
1071
      176
1005
1AFB
  0
LINE
  5
1AFC
330
1A47
100
AcDbEntity
  8
剖面线
  6
Continuous
100
AcDbLine
 10
49.41316264150373
 20
14.81250148458184
 30
0.0
 11
47.41316264150372
 21
12.81250148458184
 31
0.0
1001
AcDbBlockRepETag
1070
     1
1071
      177
1005
1AFC
  0
LINE
  5
1AFD
330
1A47
100
AcDbEntity
  8
剖面线
  6
Continuous
100
AcDbLine
 10
82.89014867240439
 20
47.15811666548143
 30
0.0
 11
78.3734427699037
 21
42.64141076308169
 31
0.0
1001
AcDbBlockRepETag
1070
     1
1071
      178
1005
1AFD
  0
LINE
  5
1AFE
330
1A47
100
AcDbEntity
  8
剖面线
  6
Continuous
100
AcDbLine
 10
67.98660800650395
 20
32.2545759995819
 30
0.0
 11
65.2991608934044
 21
29.56712888648144
 31
0.0
1001
AcDbBlockRepETag
1070
     1
1071
      179
1005
1AFE
  0
LINE
  5
1AFF
330
1A47
100
AcDbEntity
  8
剖面线
  6
Continuous
100
AcDbLine
 10
59.49329443010356
 20
23.76126242328155
 30
0.0
 11
58.37049277090409
 21
22.63846076408118
 31
0.0
1001
AcDbBlockRepETag
1070
     1
1071
      180
1005
1AFF
  0
LINE
  5
1B00
330
1A47
100
AcDbEntity
  8
剖面线
  6
Continuous
100
AcDbLine
 10
51.18054141690482
 20
15.4485094100819
 30
0.0
 11
48.54453349140385
 21
12.81250148458184
 31
0.0
1001
AcDbBlockRepETag
1070
     1
1071
      181
1005
1B00
  0
LINE
  5
1B01
330
1A47
100
AcDbEntity
  8
剖面线
  6
Continuous
100
AcDbLine
 10
82.30293991740472
 20
45.43953706068168
 30
0.0
 11
77.86194446520494
 21
40.9985416084819
 31
0.0
1001
AcDbBlockRepETag
1070
     1
1071
      182
1005
1B01
  0
LINE
  5
1B02
330
1A47
100
AcDbEntity
  8
剖面线
  6
Continuous
100
AcDbLine
 10
70.34099637730469
 20
33.47759352048161
 30
0.0
 11
67.28410879940383
 21
30.42070594268171
 31
0.0
1001
AcDbBlockRepETag
1070
     1
1071
      183
1005
1B02
  0
LINE
  5
1B03
330
1A47
100
AcDbEntity
  8
剖面线
  6
Continuous
100
AcDbLine
 10
59.43072254260369
 20
22.56731968588156
 30
0.0
 11
58.30792088350427
 21
21.44451802668118
 31
0.0
1001
AcDbBlockRepETag
1070
     1
1071
      184
1005
1B03
  0
LINE
  5
1B04
330
1A47
100
AcDbEntity
  8
剖面线
  6
Continuous
100
AcDbLine
 10
52.19797930440472
 20
15.33457644768168
 30
0.0
 11
49.67590434130397
 21
12.81250148458184
 31
0.0
1001
AcDbBlockRepETag
1070
     1
1071
      185
1005
1B04
  0
LINE
  5
1B05
330
1A47
100
AcDbEntity
  8
剖面线
  6
Continuous
100
AcDbLine
 10
80.38901356000497
 20
42.3942398533818
 30
0.0
 11
76.27772710100362
 21
38.28295339438137
 31
0.0
1001
AcDbBlockRepETag
1070
     1
1071
      186
1005
1B05
  0
LINE
  5
1B06
330
1A47
100
AcDbEntity
  8
剖面线
  6
Continuous
100
AcDbLine
 10
73.74494814500394
 20
35.75017443838169
 30
0.0
 11
68.8006170657045
 21
30.80584335908134
 31
0.0
1001
AcDbBlockRepETag
1070
     1
1071
      187
1005
1B06
  0
LINE
  5
1B07
330
1A47
100
AcDbEntity
  8
剖面线
  6
Continuous
100
AcDbLine
 10
59.36815065520386
 20
21.37337694848156
 30
0.0
 11
58.04597574330364
 21
20.05120203668139
 31
0.0
1001
AcDbBlockRepETag
1070
     1
1071
      188
1005
1B07
  0
LINE
  5
1B08
330
1A47
100
AcDbEntity
  8
剖面线
  6
Continuous
100
AcDbLine
 10
53.81373106540377
 20
15.81895735868147
 30
0.0
 11
50.8072751912041
 21
12.81250148458184
 31
0.0
1001
AcDbBlockRepETag
1070
     1
1071
      189
1005
1B08
  0
LINE
  5
1B09
330
1A47
100
AcDbEntity
  8
剖面线
  6
Continuous
100
AcDbLine
 10
79.1452711714046
 20
40.01912661478127
 30
0.0
 11
71.96615890690373
 21
32.84001435038135
 31
0.0
1001
AcDbBlockRepETag
1070
     1
1071
      190
1005
1B09
  0
LINE
  5
1B0A
330
1A47
100
AcDbEntity
  8
剖面线
  6
Continuous
100
AcDbLine
 10
70.18590024940386
 20
31.05975569288148
 30
0.0
 11
69.11545596780524
 21
29.98931141128105
 31
0.0
1001
AcDbBlockRepETag
1070
     1
1071
      191
1005
1B0A
  0
LINE
  5
1B0B
330
1A47
100
AcDbEntity
  8
剖面线
  6
Continuous
100
AcDbLine
 10
59.17157048120498
 20
20.04542592468169
 30
0.0
 11
51.93864604110422
 21
12.81250148458184
 31
0.0
1001
AcDbBlockRepETag
1070
     1
1071
      192
1005
1B0B
  0
LINE
  5
1B0C
330
1A47
100
AcDbEntity
  8
剖面线
  6
Continuous
100
AcDbLine
 10
78.32404426930406
 20
38.06652886288157
 30
0.0
 11
75.91942078280408
 21
35.66190537638159
 31
0.0
1001
AcDbBlockRepETag
1070
     1
1071
      193
1005
1B0C
  0
LINE
  5
1B0D
330
1A47
100
AcDbEntity
  8
剖面线
  6
Continuous
100
AcDbLine
 10
70.24224022990529
 20
29.98472482348189
 30
0.0
 11
69.17179594830486
 21
28.91428054188145
 31
0.0
1001
AcDbBlockRepETag
1070
     1
1071
      194
1005
1B0D
  0
LINE
  5
1B0E
330
1A47
100
AcDbEntity
  8
剖面线
  6
Continuous
100
AcDbLine
 10
58.07684451910427
 20
17.81932911268177
 30
0.0
 11
56.22144013950492
 21
15.96392473308151
 31
0.0
1001
AcDbBlockRepETag
1070
     1
1071
      195
1005
1B0E
  0
LINE
  5
1B0F
330
1A47
100
AcDbEntity
  8
剖面线
  6
Continuous
100
AcDbLine
 10
77.70391679380373
 20
36.31503053748111
 30
0.0
 11
75.48313820620387
 21
34.09425194988126
 31
0.0
1001
AcDbBlockRepETag
1070
     1
1071
      196
1005
1B0F
  0
LINE
  5
1B10
330
1A47
100
AcDbEntity
  8
剖面线
  6
Continuous
100
AcDbLine
 10
70.29858021040491
 20
28.90969395408138
 30
0.0
 11
69.22813592880448
 21
27.83924967248186
 31
0.0
1001
AcDbBlockRepETag
1070
     1
1071
      197
1005
1B10
  0
LINE
  5
1B11
330
1A47
100
AcDbEntity
  8
剖面线
  6
Continuous
100
AcDbLine
 10
77.21340786970358
 20
34.69315076348176
 30
0.0
 11
75.13101481580452
 21
32.61075770958178
 31
0.0
1001
AcDbBlockRepETag
1070
     1
1071
      198
1005
1B11
  0
LINE
  5
1B12
330
1A47
100
AcDbEntity
  8
剖面线
  6
Continuous
100
AcDbLine
 10
70.35492019090452
 20
27.83466308468178
 30
0.0
 11
69.28447590930409
 21
26.76421880308135
 31
0.0
1001
AcDbBlockRepETag
1070
     1
1071
      199
1005
1B12
  0
LINE
  5
1B13
330
1A47
100
AcDbEntity
  8
剖面线
  6
Continuous
100
AcDbLine
 10
76.81260355950508
 20
33.16097560338131
 30
0.0
 11
74.82724939070431
 21
31.17562143458144
 31
0.0
1001
AcDbBlockRepETag
1070
     1
1071
      200
1005
1B13
  0
LINE
  5
1B14
330
1A47
100
AcDbEntity
  8
剖面线
  6
Continuous
100
AcDbLine
 10
70.41126017150418
 20
26.75963221538132
 30
0.0
 11
69.34081588990375
 21
25.6891879337818
 31
0.0
1001
AcDbBlockRepETag
1070
     1
1071
      201
1005
1B14
  0
LINE
  5
1B15
330
1A47
100
AcDbEntity
  8
剖面线
  6
Continuous
100
AcDbLine
 10
76.47483808770449
 20
31.6918392816815
 30
0.0
 11
74.55495452810464
 21
29.77195572208166
 31
0.0
1001
AcDbBlockRepETag
1070
     1
1071
      202
1005
1B15
  0
LINE
  5
1B16
330
1A47
100
AcDbEntity
  8
剖面线
  6
Continuous
100
AcDbLine
 10
70.4676001520038
 20
25.68460134598172
 30
0.0
 11
69.39715587040518
 21
24.61415706438129
 31
0.0
1001
AcDbBlockRepETag
1070
     1
1071
      203
1005
1B16
  0
LINE
  5
1B17
330
1A47
100
AcDbEntity
  8
剖面线
  6
Continuous
100
AcDbLine
 10
76.18622215340474
 20
30.27185249748163
 30
0.0
 11
74.32489188000364
 21
28.41052222408143
 31
0.0
1001
AcDbBlockRepETag
1070
     1
1071
      204
1005
1B17
  0
LINE
  5
1B18
330
1A47
100
AcDbEntity
  8
剖面线
  6
Continuous
100
AcDbLine
 10
70.52394013250523
 20
24.60957047658121
 30
0.0
 11
69.4534958509048
 21
23.53912619498169
 31
0.0
1001
AcDbBlockRepETag
1070
     1
1071
      205
1005
1B18
  0
LINE
  5
1B19
330
1A47
100
AcDbEntity
  8
剖面线
  6
Continuous
100
AcDbLine
 10
75.93535622760464
 20
28.88961572178141
 30
0.0
 11
74.11645305810452
 21
27.07071255228129
 31
0.0
1001
AcDbBlockRepETag
1070
     1
1071
      206
1005
1B19
  0
LINE
  5
1B1A
330
1A47
100
AcDbEntity
  8
剖面线
  6
Continuous
100
AcDbLine
 10
70.58028011300485
 20
23.53453960718161
 30
0.0
 11
69.50983583140441
 21
22.46409532558118
 31
0.0
1001
AcDbBlockRepETag
1070
     1
1071
      207
1005
1B1A
  0
LINE
  5
1B1B
330
1A47
100
AcDbEntity
  8
剖面线
  6
Continuous
100
AcDbLine
 10
75.71330486000443
 20
27.53619350428107
 30
0.0
 11
73.93455931220524
 21
25.75744795648188
 31
0.0
1001
AcDbBlockRepETag
1070
     1
1071
      208
1005
1B1B
  0
LINE
  5
1B1C
330
1A47
100
AcDbEntity
  8
剖面线
  6
Continuous
100
AcDbLine
 10
70.6366200936045
 20
22.45950873788115
 30
0.0
 11
69.56617581200408
 21
21.38906445628163
 31
0.0
1001
AcDbBlockRepETag
1070
     1
1071
      209
1005
1B1C
  0
LINE
  5
1B1D
330
1A47
100
AcDbEntity
  8
剖面线
  6
Continuous
100
AcDbLine
 10
75.51312887860513
 20
26.20464667298165
 30
0.0
 11
73.76702598650445
 21
24.45854378088188
 31
0.0
1001
AcDbBlockRepETag
1070
     1
1071
      210
1005
1B1D
  0
LINE
  5
1B1E
330
1A47
100
AcDbEntity
  8
剖面线
  6
Continuous
100
AcDbLine
 10
70.69296007410412
 20
21.38447786848155
 30
0.0
 11
69.62251579250369
 21
20.31403358688113
 31
0.0
1001
AcDbBlockRepETag
1070
     1
1071
      211
1005
1B1E
  0
LINE
  5
1B1F
330
1A47
100
AcDbEntity
  8
剖面线
  6
Continuous
100
AcDbLine
 10
75.3451788909042
 20
24.90532583538152
 30
0.0
 11
73.62762954440404
 21
23.18777648888135
 31
0.0
1001
AcDbBlockRepETag
1070
     1
1071
      212
1005
1B1F
  0
LINE
  5
1B20
330
1A47
100
AcDbEntity
  8
剖面线
  6
Continuous
100
AcDbLine
 10
70.74930005460373
 20
20.30944699908196
 30
0.0
 11
69.67885577300513
 21
19.23900271748152
 31
0.0
1001
AcDbBlockRepETag
1070
     1
1071
      213
1005
1B20
  0
LINE
  5
1B21
330
1A47
100
AcDbEntity
  8
剖面线
  6
Continuous
100
AcDbLine
 10
75.19138411780478
 20
23.6201602124811
 30
0.0
 11
73.48823310220359
 21
21.91700919678169
 31
0.0
1001
AcDbBlockRepETag
1070
     1
1071
      214
1005
1B21
  0
LINE
  5
1B22
330
1A47
100
AcDbEntity
  8
剖面线
  6
Continuous
100
AcDbLine
 10
70.80564003510517
 20
19.23441612968145
 30
0.0
 11
69.73519575350474
 21
18.16397184808193
 31
0.0
1001
AcDbBlockRepETag
1070
     1
1071
      215
1005
1B22
  0
LINE
  5
1B23
330
1A47
100
AcDbEntity
  8
剖面线
  6
Continuous
100
AcDbLine
 10
75.05307801710478
 20
22.35048326178185
 30
0.0
 11
73.38089980090444
 21
20.67830504568155
 31
0.0
1001
AcDbBlockRepETag
1070
     1
1071
      216
1005
1B23
  0
LINE
  5
1B24
330
1A47
100
AcDbEntity
  8
剖面线
  6
Continuous
100
AcDbLine
 10
70.86198001570483
 20
18.15938526038189
 30
0.0
 11
69.7915357341044
 21
17.08894097878146
 31
0.0
1001
AcDbBlockRepETag
1070
     1
1071
      217
1005
1B24
  0
LINE
  5
1B25
330
1A47
100
AcDbEntity
  8
剖面线
  6
Continuous
100
AcDbLine
 10
74.93451380440456
 20
21.10054819918151
 30
0.0
 11
73.27497381100511
 21
19.44100820578114
 31
0.0
1001
AcDbBlockRepETag
1070
     1
1071
      218
1005
1B25
  0
LINE
  5
1B26
330
1A47
100
AcDbEntity
  8
剖面线
  6
Continuous
100
AcDbLine
 10
70.91831999620445
 20
17.08435439098139
 30
0.0
 11
69.84787571460401
 21
16.01391010938186
 31
0.0
1001
AcDbBlockRepETag
1070
     1
1071
      219
1005
1B26
  0
LINE
  5
1B27
330
1A47
100
AcDbEntity
  8
剖面线
  6
Continuous
100
AcDbLine
 10
74.82191874010459
 20
19.85658228498141
 30
0.0
 11
73.17832184040526
 21
18.21298538528117
 31
0.0
1001
AcDbBlockRepETag
1070
     1
1071
      220
1005
1B27
  0
LINE
  5
1B28
330
1A47
100
AcDbEntity
  8
剖面线
  6
Continuous
100
AcDbLine
 10
70.97465997670406
 20
16.00932352158179
 30
0.0
 11
69.90421569510363
 21
14.93887923998136
 31
0.0
1001
AcDbBlockRepETag
1070
     1
1071
      221
1005
1B28
  0
LINE
  5
1B29
330
1A47
100
AcDbEntity
  8
剖面线
  6
Continuous
100
AcDbLine
 10
74.72738311320426
 20
18.63067580818188
 30
0.0
 11
73.09723717350426
 21
17.00052986848186
 31
0.0
1001
AcDbBlockRepETag
1070
     1
1071
      222
1005
1B29
  0
LINE
  5
1B2A
330
1A47
100
AcDbEntity
  8
剖面线
  6
Continuous
100
AcDbLine
 10
71.03099995720367
 20
14.93429265218128
 30
0.0
 11
69.96055567560507
 21
13.86384837058176
 31
0.0
1001
AcDbBlockRepETag
1070
     1
1071
      223
1005
1B2A
  0
LINE
  5
1B2B
330
1A47
100
AcDbEntity
  8
剖面线
  6
Continuous
100
AcDbLine
 10
74.63577248380534
 20
17.40769432888192
 30
0.0
 11
73.01615250650502
 21
15.7880743515816
 31
0.0
1001
AcDbBlockRepETag
1070
     1
1071
      224
1005
1B2B
  0
LINE
  5
1B2C
330
1A47
100
AcDbEntity
  8
剖面线
  6
Continuous
100
AcDbLine
 10
71.08733993780515
 20
13.85926178288173
 30
0.0
 11
70.01689565620472
 21
12.7888175012813
 31
0.0
1001
AcDbBlockRepETag
1070
     1
1071
      225
1005
1B2C
  0
LINE
  5
1B2D
330
1A47
100
AcDbEntity
  8
剖面线
  6
Continuous
100
AcDbLine
 10
74.55775053790421
 20
16.19830153308157
 30
0.0
 11
72.9472218220053
 21
14.58777281718176
 31
0.0
1001
AcDbBlockRepETag
1070
     1
1071
      226
1005
1B2D
  0
LINE
  5
1B2E
330
1A47
100
AcDbEntity
  8
剖面线
  6
Continuous
100
AcDbLine
 10
71.14367991830476
 20
12.78423091348122
 30
0.0
 11
70.07323563670434
 21
11.7137866318817
 31
0.0
1001
AcDbBlockRepETag
1070
     1
1071
      227
1005
1B2E
  0
LINE
  5
1B2F
330
1A47
100
AcDbEntity
  8
剖面线
  6
Continuous
100
AcDbLine
 10
74.48444559070413
 20
14.99362573598137
 30
0.0
 11
72.88615890880464
 21
13.39533905418193
 31
0.0
1001
AcDbBlockRepETag
1070
     1
1071
      228
1005
1B2F
  0
LINE
  5
1B30
330
1A47
100
AcDbEntity
  8
剖面线
  6
Continuous
100
AcDbLine
 10
71.20001989880439
 20
11.70920004408162
 30
0.0
 11
70.12957561720395
 21
10.63875576248119
 31
0.0
1001
AcDbBlockRepETag
1070
     1
1071
      229
1005
1B30
  0
LINE
  5
1B31
330
1A47
100
AcDbEntity
  8
剖面线
  6
Continuous
100
AcDbLine
 10
74.41752868220465
 20
13.79533797758176
 30
0.0
 11
72.82509599570403
 21
12.20290529108115
 31
0.0
1001
AcDbBlockRepETag
1070
     1
1071
      230
1005
1B31
  0
LINE
  5
1B32
330
1A47
100
AcDbEntity
  8
剖面线
  6
Continuous
100
AcDbLine
 10
71.256359879304
 20
10.63416917478116
 30
0.0
 11
70.18591559770356
 21
9.563724893081598
 31
0.0
1001
AcDbBlockRepETag
1070
     1
1071
      231
1005
1B32
  0
LINE
  5
1B33
330
1A47
100
AcDbEntity
  8
剖面线
  6
Continuous
100
AcDbLine
 10
74.36035011800413
 20
12.60678856358117
 30
0.0
 11
72.77536401840371
 21
11.02180246388161
 31
0.0
1001
AcDbBlockRepETag
1070
     1
1071
      232
1005
1B33
  0
LINE
  5
1B34
330
1A47
100
AcDbEntity
  8
剖面线
  6
Continuous
100
AcDbLine
 10
71.31269985990366
 20
9.559138305381566
 30
0.0
 11
70.24225557830504
 21
8.488694023781135
 31
0.0
1001
AcDbBlockRepETag
1070
     1
1071
      233
1005
1B34
  0
LINE
  5
1B35
330
1A47
100
AcDbEntity
  8
剖面线
  6
Continuous
100
AcDbLine
 10
74.30317155390366
 20
11.41823914948145
 30
0.0
 11
72.73110077530509
 21
9.846168370881969
 31
0.0
1001
AcDbBlockRepETag
1070
     1
1071
      234
1005
1B35
  0
LINE
  5
1B36
330
1A47
100
AcDbEntity
  8
剖面线
  6
Continuous
100
AcDbLine
 10
71.36903984040509
 20
8.484107435981968
 30
0.0
 11
70.29859555880467
 21
7.413663154381538
 31
0.0
1001
AcDbBlockRepETag
1070
     1
1071
      235
1005
1B36
  0
LINE
  5
1B37
330
1A47
100
AcDbEntity
  8
剖面线
  6
Continuous
100
AcDbLine
 10
74.25801083640362
 20
10.24170758208129
 30
0.0
 11
72.68683753220466
 21
8.670534277881415
 31
0.0
1001
AcDbBlockRepETag
1070
     1
1071
      236
1005
1B37
  0
LINE
  5
1B38
330
1A47
100
AcDbEntity
  8
剖面线
  6
Continuous
100
AcDbLine
 10
71.42537982090471
 20
7.409076566581461
 30
0.0
 11
70.35493553930428
 21
6.338632284981031
 31
0.0
1001
AcDbBlockRepETag
1070
     1
1071
      237
1005
1B38
  0
LINE
  5
1B39
330
1A47
100
AcDbEntity
  8
剖面线
  6
Continuous
100
AcDbLine
 10
74.21581964360484
 20
9.068145539381475
 30
0.0
 11
72.65237404310392
 21
7.504699938881458
 31
0.0
1001
AcDbBlockRepETag
1070
     1
1071
      238
1005
1B39
  0
LINE
  5
1B3A
330
1A47
100
AcDbEntity
  8
剖面线
  6
Continuous
100
AcDbLine
 10
71.48171980140432
 20
6.334045697281908
 30
0.0
 11
70.41127551980389
 21
5.263601415681478
 31
0.0
1001
AcDbBlockRepETag
1070
     1
1071
      239
1005
1B3A
  0
LINE
  5
1B3B
330
1A47
100
AcDbEntity
  8
剖面线
  6
Continuous
100
AcDbLine
 10
74.17362845080424
 20
7.894583496681661
 30
0.0
 11
72.62369938840492
 21
6.344654434381482
 31
0.0
1001
AcDbBlockRepETag
1070
     1
1071
      240
1005
1B3B
  0
LINE
  5
1B3C
330
1A47
100
AcDbEntity
  8
剖面线
  6
Continuous
100
AcDbLine
 10
71.53805978200399
 20
5.259014827881401
 30
0.0
 11
70.46761550040537
 21
4.18857054628188
 31
0.0
1001
AcDbBlockRepETag
1070
     1
1071
      241
1005
1B3C
  0
LINE
  5
1B3D
330
1A47
100
AcDbEntity
  8
剖面线
  6
Continuous
100
AcDbLine
 10
74.14601402960397
 20
6.73559822558127
 30
0.0
 11
72.59502473380416
 21
5.184608929781461
 31
0.0
1001
AcDbBlockRepETag
1070
     1
1071
      242
1005
1B3D
  0
LINE
  5
1B3E
330
1A47
100
AcDbEntity
  8
剖面线
  6
Continuous
100
AcDbLine
 10
71.5943997625036
 20
4.183983958481803
 30
0.0
 11
70.52395548090498
 21
3.113539676881373
 31
0.0
1001
AcDbBlockRepETag
1070
     1
1071
      243
1005
1B3E
  0
LINE
  5
1B3F
330
1A47
100
AcDbEntity
  8
剖面线
  6
Continuous
100
AcDbLine
 10
74.11945786840442
 20
5.577671214581641
 30
0.0
 11
72.57695400370358
 21
4.035167349881703
 31
0.0
1001
AcDbBlockRepETag
1070
     1
1071
      244
1005
1B3F
  0
LINE
  5
1B40
330
1A47
100
AcDbEntity
  8
剖面线
  6
Continuous
100
AcDbLine
 10
71.65073974300503
 20
3.108953089081296
 30
0.0
 11
70.5802954614046
 21
2.038508807481775
 31
0.0
1001
AcDbBlockRepETag
1070
     1
1071
      245
1005
1B40
  0
LINE
  5
1B41
330
1A47
100
AcDbEntity
  8
剖面线
  6
Continuous
100
AcDbLine
 10
74.09290170730492
 20
4.419744203481059
 30
0.0
 11
72.56810921960459
 21
2.894951715881688
 31
0.0
1001
AcDbBlockRepETag
1070
     1
1071
      246
1005
1B41
  0
LINE
  5
1B42
330
1A47
100
AcDbEntity
  8
剖面线
  6
Continuous
100
AcDbLine
 10
71.70707972350465
 20
2.033922219781743
 30
0.0
 11
70.63663544190422
 21
0.9634779381813132
 31
0.0
1001
AcDbBlockRepETag
1070
     1
1071
      247
1005
1B42
  0
LINE
  5
1B43
330
1A47
100
AcDbEntity
  8
剖面线
  6
Continuous
100
AcDbLine
 10
74.08362691250477
 20
3.279098558781697
 30
0.0
 11
72.55926443550379
 21
1.754736081881674
 31
0.0
1001
AcDbBlockRepETag
1070
     1
1071
      248
1005
1B43
  0
LINE
  5
1B44
330
1A47
100
AcDbEntity
  8
剖面线
  6
Continuous
100
AcDbLine
 10
71.92952983830401
 20
1.125001484581844
 30
0.0
 11
70.80452983830401
 21
0.0000014845818441
 31
0.0
1001
AcDbBlockRepETag
1070
     1
1071
      249
1005
1B44
  0
LINE
  5
1B45
330
1A47
100
AcDbEntity
  8
剖面线
  6
Continuous
100
AcDbLine
 10
74.08053563840439
 20
2.144636434781205
 30
0.0
 11
71.93590068820412
 21
0.0000014845818441
 31
0.0
1001
AcDbBlockRepETag
1070
     1
1071
      250
1005
1B45
  0
LINE
  5
1B46
330
1A47
100
AcDbEntity
  8
剖面线
  6
Continuous
100
AcDbLine
 10
74.07744436430403
 20
1.010174310781621
 30
0.0
 11
73.06727153810425
 21
0.0000014845818441
 31
0.0
1001
AcDbBlockRepETag
1070
     1
1071
      251
1005
1B46
  0
ENDBLK
  5
1B47
330
1A47
100
AcDbEntity
  8
0
 48
0.005
100
AcDbBlockEnd
  0
BLOCK
  5
243E
330
243B
100
AcDbEntity
  8
0
100
AcDbBlockBegin
  2
A$C787F49FA
 70
     0
 10
0.0
 20
0.0
 30
0.0
  3
A$C787F49FA
  1

  0
LINE
  5
243F
330
243B
100
AcDbEntity
  8
0
  6
Continuous
 62
     7
100
AcDbLine
 10
19.82311145098015
 20
11.44530306335593
 30
0.0
 11
-54.30128244102139
 21
54.07764908035563
 31
0.0
  0
LINE
  5
2440
330
243B
100
AcDbEntity
  8
0
100
AcDbLine
 10
19.82311145098015
 20
11.44530306335593
 30
0.0
 11
19.82311145098015
 21
1.445303063355936
 31
0.0
  0
LINE
  5
2441
330
243B
100
AcDbEntity
  8
0
100
AcDbLine
 10
23.31655874194894
 20
12.54245954581597
 30
0.0
 11
19.82311145098015
 21
11.44530306335593
 31
0.0
  0
ENDBLK
  5
2442
330
243B
100
AcDbEntity
  8
0
100
AcDbBlockEnd
  0
BLOCK
  5
E8C9
330
E8C8
100
AcDbEntity
  8
0
 62
     3
100
AcDbBlockBegin
  2
324
 70
     0
 10
0.0
 20
0.0
 30
0.0
  3
324
  1

  0
MTEXT
  5
E8CA
330
E8C8
100
AcDbEntity
  8
细实线
100
AcDbMText
 10
29054.37823481583
 20
-55732.52507939721
 30
0.0
 40
11.27268679680001
 41
376.5520848629087
 71
     1
 72
     5
  1
AXENT(HEBEI)CERAMICS  INDUSTRY  CO.,LTD
  7
Arial
 73
     1
 44
1.0
  0
MTEXT
  5
E8CB
330
E8C8
100
AcDbEntity
  8
细实线
100
AcDbMText
 10
29176.06739685612
 20
-55671.61054363424
 30
0.0
 40
23.48476416000001
 41
101.8650775012487
 71
     1
 72
     5
  1
AXENT
  7
Arial
 73
     1
 44
1.0
  0
MTEXT
  5
E8CC
330
E8C8
100
AcDbEntity
  8
细实线
100
AcDbMText
 10
29132.28115667855
 20
-55707.913045229
 30
0.0
 40
14.09085849600001
 41
272.3719768829322
 71
     1
 72
     5
  1
河北优胜洁具有限公司
 73
     1
 44
1.0
  0
LINE
  5
E8CD
330
E8C8
100
AcDbEntity
  8
图框层
100
AcDbLine
 10
29131.45767891429
 20
-55701.98589061343
 30
0.0
 11
29329.77890166011
 21
-55701.98589061343
 31
0.0
  0
ENDBLK
  5
E8CE
330
E8C8
100
AcDbEntity
  8
0
 62
     3
100
AcDbBlockEnd
  0
BLOCK
  5
E8D0
330
E8CF
100
AcDbEntity
  8
0
 62
     3
100
AcDbBlockBegin
  2
1212
 70
     0
 10
0.0
 20
0.0
 30
0.0
  3
1212
  1

  0
LWPOLYLINE
  5
E8D1
330
E8CF
100
AcDbEntity
  8
0
  6
Continuous
 62
     7
100
AcDbPolyline
 90
        3
 70
     0
 43
0.0
 10
27566.55189236667
 20
-60707.85586707481
 10
27570.03179211967
 20
-60710.9715444528
 10
27571.68315513867
 20
-60711.9792519092
  0
LINE
  5
E8D2
330
E8CF
100
AcDbEntity
  8
0
  6
Continuous
 62
     7
100
AcDbLine
 10
27566.56696497447
 20
-60707.87330324461
 30
0.0
 11
27391.91076754087
 21
-60503.486658653
 31
0.0
  0
LWPOLYLINE
  5
E8D3
330
E8CF
100
AcDbEntity
  8
0
  6
Continuous
 62
     7
100
AcDbPolyline
 90
        8
 70
     0
 43
0.0
 10
27399.34036680747
 20
-60483.4603775602
 10
27396.49827554507
 20
-60484.62272736901
 10
27393.24895900547
 20
-60486.76691852861
 10
27390.73340468687
 20
-60489.70740719741
 10
27389.26446615348
 20
-60493.30394713662
 10
27389.06325135607
 20
-60497.04289610461
 10
27390.03079989827
 20
-60500.55382313801
 10
27391.87881686927
 20
-60503.44937509261
  0
LWPOLYLINE
  5
E8D4
330
E8CF
100
AcDbEntity
  8
0
  6
Continuous
 62
     7
100
AcDbPolyline
 90
        6
 70
     0
 43
0.0
 10
27877.62574972707
 20
-60877.47173290581
 10
27879.79841640687
 20
-60878.483263481
 10
27884.03633084987
 20
-60879.6630428232
 10
27888.12331015267
 20
-60879.9908324622
 10
27892.47374244227
 20
-60879.54518702461
 10
27895.13666599007
 20
-60878.84402111361
  0
LINE
  5
E8D5
330
E8CF
100
AcDbEntity
  8
0
  6
Continuous
 62
     7
100
AcDbLine
 10
27877.63282404207
 20
-60877.47553625721
 30
0.0
 11
27571.70684165967
 21
-60711.99200179902
 31
0.0
  0
LINE
  5
E8D6
330
E8CF
100
AcDbEntity
  8
0
  6
Continuous
 62
     7
100
AcDbLine
 10
27986.54306048967
 20
-60289.57445417101
 30
0.0
 11
27399.34358464407
 21
-60483.45924980181
 31
0.0
  0
LINE
  5
E8D7
330
E8CF
100
AcDbEntity
  8
0
  6
Continuous
 62
     7
100
AcDbLine
 10
27989.67842409487
 20
-60290.00713825341
 30
0.0
 11
27402.47912613907
 21
-60483.8918751474
 31
0.0
  0
LINE
  5
E8D8
330
E8CF
100
AcDbEntity
  8
0
  6
Continuous
 62
     7
100
AcDbLine
 10
27432.81137551107
 20
-60476.86863587281
 30
0.0
 11
27966.21562643787
 21
-60300.74624742821
 31
0.0
  0
LINE
  5
E8D9
330
E8CF
100
AcDbEntity
  8
0
  6
Continuous
 62
     7
100
AcDbLine
 10
27440.78066505227
 20
-60487.1569323998
 30
0.0
 11
27974.18491597887
 21
-60311.034543955
 31
0.0
  0
LWPOLYLINE
  5
E8DA
330
E8CF
100
AcDbEntity
  8
0
  6
Continuous
 62
     7
100
AcDbPolyline
 90
        3
 70
     0
 43
0.0
 10
27432.22144289927
 20
-60498.2737653438
 10
27431.85933461707
 20
-60497.99271338381
 10
27431.77478609087
 20
-60497.91818694361
  0
LINE
  5
E8DB
330
E8CF
100
AcDbEntity
  8
0
  6
Continuous
 62
     7
100
AcDbLine
 10
27431.77552704187
 20
-60497.9188799814
 30
0.0
 11
27431.75988667927
 21
-60497.90415671301
 31
0.0
  0
LINE
  5
E8DC
330
E8CF
100
AcDbEntity
  8
0
  6
Continuous
 62
     7
100
AcDbLine
 10
27394.16216429507
 20
-60504.87721596861
 30
0.0
 11
27852.93253568287
 21
-60753.03836256601
 31
0.0
  0
LINE
  5
E8DD
330
E8CF
100
AcDbEntity
  8
0
  6
Continuous
 62
     7
100
AcDbLine
 10
27400.98653760587
 20
-60489.0292895482
 30
0.0
 11
27859.75690899367
 21
-60737.1904361458
 31
0.0
  0
LINE
  5
E8DE
330
E8CF
100
AcDbEntity
  8
0
  6
Continuous
 62
     7
100
AcDbLine
 10
27843.13850910327
 20
-60724.3714736414
 30
0.0
 11
27426.39743473667
 21
-60498.94509630961
 31
0.0
  0
LINE
  5
E8DF
330
E8CF
100
AcDbEntity
  8
0
  6
Continuous
 62
     7
100
AcDbLine
 10
27850.75098701647
 20
-60724.79936799821
 30
0.0
 11
27434.00990528627
 21
-60499.37298668321
 31
0.0
  0
LWPOLYLINE
  5
E8E0
330
E8CF
100
AcDbEntity
  8
0
  6
Continuous
 62
     7
100
AcDbPolyline
 90
        3
 70
     0
 43
0.0
 10
27434.00342685967
 20
-60499.369440996
 10
27432.87081973907
 20
-60498.71077011141
 10
27432.22144289927
 20
-60498.2737653438
  0
LWPOLYLINE
  5
E8E1
330
E8CF
100
AcDbEntity
  8
0
  6
Continuous
 62
     7
100
AcDbPolyline
 90
        8
 70
     0
 43
0.0
 10
27890.35601415207
 20
-60726.3908185044
 10
27885.55520766907
 20
-60727.7331334566
 10
27878.91241689927
 20
-60728.88400651661
 10
27872.13022566687
 20
-60729.30167383061
 10
27865.50504151767
 20
-60728.97421804321
 10
27859.39212742987
 20
-60727.9467242486
 10
27854.11199345727
 20
-60726.3367339118
 10
27850.75793056967
 20
-60724.8031167732
  0
LWPOLYLINE
  5
E8E2
330
E8CF
100
AcDbEntity
  8
0
  6
Continuous
 62
     7
100
AcDbPolyline
 90
        4
 70
     0
 43
0.0
 10
27929.57372374107
 20
-60713.44178499941
 10
27923.02743485787
 20
-60713.4006782744
 10
27909.90864030487
 20
-60712.1084742042
 10
27899.57852273467
 20
-60710.12436521542
  0
LINE
  5
E8E3
330
E8CF
100
AcDbEntity
  8
0
  6
Continuous
 62
     7
100
AcDbLine
 10
27899.57576127487
 20
-60710.1236955432
 30
0.0
 11
27899.57852396127
 21
-60710.12436012121
 31
0.0
  0
LINE
  5
E8E4
330
E8CF
100
AcDbEntity
  8
0
  6
Continuous
 62
     7
100
AcDbLine
 10
27874.32630465807
 20
-60874.2582637012
 30
0.0
 11
27852.93253568287
 21
-60753.03836256601
 31
0.0
  0
LINE
  5
E8E5
330
E8CF
100
AcDbEntity
  8
0
  6
Continuous
 62
     7
100
AcDbLine
 10
27898.63862083487
 20
-60875.5198540438
 30
0.0
 11
27877.24485185967
 21
-60754.2999529088
 31
0.0
  0
LINE
  5
E8E6
330
E8CF
100
AcDbEntity
  8
0
  6
Continuous
 62
     7
100
AcDbLine
 10
27974.18491597887
 20
-60311.034543955
 30
0.0
 11
27955.95599627947
 21
-60505.71442236461
 31
0.0
  0
LINE
  5
E8E7
330
E8CF
100
AcDbEntity
  8
0
  6
Continuous
 62
     7
100
AcDbLine
 10
28008.25275661106
 20
-60312.80235819481
 30
0.0
 11
27990.02383691147
 21
-60507.4822366044
 31
0.0
  0
LINE
  5
E8E8
330
E8CF
100
AcDbEntity
  8
0
  6
Continuous
 62
     7
100
AcDbLine
 10
28423.76353389767
 20
-60550.26743916581
 30
0.0
 11
27890.35927291247
 21
-60726.38983093181
 31
0.0
  0
LINE
  5
E8E9
330
E8CF
100
AcDbEntity
  8
0
  6
Continuous
 62
     7
100
AcDbLine
 10
28428.78011566587
 20
-60550.95973369761
 30
0.0
 11
27895.37586473927
 21
-60727.0821221424
 31
0.0
  0
LINE
  5
E8EA
330
E8CF
100
AcDbEntity
  8
0
  6
Continuous
 62
     7
100
AcDbLine
 10
27871.91306708207
 20
-60737.8212313172
 30
0.0
 11
28459.11236503807
 21
-60543.936494423
 31
0.0
  0
LINE
  5
E8EB
330
E8CF
100
AcDbEntity
  8
0
  6
Continuous
 62
     7
100
AcDbLine
 10
27877.24485185967
 20
-60754.2999529088
 30
0.0
 11
28464.44414981567
 21
-60560.41521601481
 31
0.0
  0
LWPOLYLINE
  5
E8EC
330
E8CF
100
AcDbEntity
  8
0
  6
Continuous
 62
     7
100
AcDbPolyline
 90
        3
 70
     0
 43
0.0
 10
28427.87465120887
 20
-60548.66445230201
 10
28425.43365327787
 20
-60549.6816319768
 10
28423.76637013287
 20
-60550.2664160258
  0
LINE
  5
E8ED
330
E8CF
100
AcDbEntity
  8
0
  6
Continuous
 62
     7
100
AcDbLine
 10
28402.03245820787
 20
-60557.442726853
 30
0.0
 11
28424.99383097767
 21
-60538.22873552661
 31
0.0
  0
LINE
  5
E8EE
330
E8CF
100
AcDbEntity
  8
0
  6
Continuous
 62
     7
100
AcDbLine
 10
28286.69161000567
 20
-60749.5581819416
 30
0.0
 11
27895.12420878207
 21
-60878.84808883821
 31
0.0
  0
LINE
  5
E8EF
330
E8CF
100
AcDbEntity
  8
0
  6
Continuous
 62
     7
100
AcDbLine
 10
27989.88835393287
 20
-60288.7149536846
 30
0.0
 11
27986.53959187207
 21
-60289.57559989421
 31
0.0
  0
LINE
  5
E8F0
330
E8CF
100
AcDbEntity
  8
0
  6
Continuous
 62
     7
100
AcDbLine
 10
28008.25275661106
 20
-60312.80235819481
 30
0.0
 11
28424.99383097767
 21
-60538.22873552661
 31
0.0
  0
LINE
  5
E8F1
330
E8CF
100
AcDbEntity
  8
0
  6
Continuous
 62
     7
100
AcDbLine
 10
28430.16833000367
 20
-60547.34598317021
 30
0.0
 11
28430.15388802967
 21
-60547.3580820306
 31
0.0
  0
LWPOLYLINE
  5
E8F2
330
E8CF
100
AcDbEntity
  8
0
  6
Continuous
 62
     7
100
AcDbPolyline
 90
        4
 70
     0
 43
0.0
 10
28430.15246261887
 20
-60547.35884175341
 10
28430.13226060807
 20
-60547.3753983026
 10
28429.47811115967
 20
-60547.81805420401
 10
28427.87465120887
 20
-60548.66445230201
  0
LWPOLYLINE
  5
E8F3
330
E8CF
100
AcDbEntity
  8
0
  6
Continuous
 62
     7
100
AcDbPolyline
 90
        3
 70
     0
 43
0.0
 10
28289.48562082447
 20
-60748.40489112021
 10
28292.54246346707
 20
-60746.47154152461
 10
28294.50871510507
 20
-60744.6745515988
  0
LINE
  5
E8F4
330
E8CF
100
AcDbEntity
  8
0
  6
Continuous
 62
     7
100
AcDbLine
 10
28286.69033983247
 20
-60749.55866431881
 30
0.0
 11
28289.48562082447
 21
-60748.40489112021
 31
0.0
  0
LWPOLYLINE
  5
E8F5
330
E8CF
100
AcDbEntity
  8
0
  6
Continuous
 62
     7
100
AcDbPolyline
 90
        3
 70
     0
 43
0.0
 10
27999.18488043867
 20
-60288.52166595801
 10
27994.55515764547
 20
-60288.23351360541
 10
27989.88835393287
 20
-60288.7149536846
  0
LINE
  5
E8F6
330
E8CF
100
AcDbEntity
  8
0
  6
Continuous
 62
     7
100
AcDbLine
 10
28003.70395121787
 20
-60289.6297384174
 30
0.0
 11
27999.18488043867
 21
-60288.52166595801
 31
0.0
  0
LINE
  5
E8F7
330
E8CF
100
AcDbEntity
  8
0
  6
Continuous
 62
     7
100
AcDbLine
 10
28006.60050145227
 20
-60290.9098279968
 30
0.0
 11
28003.70395121787
 21
-60289.6297384174
 31
0.0
  0
LINE
  5
E8F8
330
E8CF
100
AcDbEntity
  8
0
  6
Continuous
 62
     7
100
AcDbLine
 10
28018.45298207387
 20
-60303.45689592921
 30
0.0
 11
28435.19405644047
 21
-60528.88327326081
 31
0.0
  0
LINE
  5
E8F9
330
E8CF
100
AcDbEntity
  8
0
  6
Continuous
 62
     7
100
AcDbLine
 10
28460.60495357127
 20
-60538.79908002241
 30
0.0
 11
28001.83458218327
 21
-60290.63793342481
 31
0.0
  0
LINE
  5
E8FA
330
E8CF
100
AcDbEntity
  8
0
  6
Continuous
 62
     7
100
AcDbLine
 10
28465.36275226707
 20
-60539.06651399521
 30
0.0
 11
28006.59221991367
 21
-60290.90528032721
 31
0.0
  0
LINE
  5
E8FB
330
E8CF
100
AcDbEntity
  8
0
  6
Continuous
 62
     7
100
AcDbLine
 10
28469.33138770907
 20
-60558.23890067379
 30
0.0
 11
28294.51396705107
 21
-60744.6713115944
 31
0.0
  0
LWPOLYLINE
  5
E8FC
330
E8CF
100
AcDbEntity
  8
0
  6
Continuous
 62
     7
100
AcDbPolyline
 90
        7
 70
     0
 43
0.0
 10
28469.32806786347
 20
-60558.24049494141
 10
28471.60861822307
 20
-60554.82808183341
 10
28472.56565228767
 20
-60551.0276460372
 10
28472.23495400946
 20
-60547.31099386441
 10
28470.69224305627
 20
-60543.81577289661
 10
28467.92439817027
 20
-60540.7651424426
 10
28465.38057077347
 20
-60539.0762516492
  0
ARC
  5
E8FD
330
E8CF
100
AcDbEntity
  8
0
  6
Continuous
 62
     7
100
AcDbCircle
 10
21754.72141570387
 20
-42323.26814492881
 30
0.0
 40
19238.363531667
100
AcDbArc
 50
288.2769573882525
 51
288.5265032557919
  0
ARC
  5
E8FE
330
E8CF
100
AcDbEntity
  8
0
  6
Continuous
 62
     7
100
AcDbCircle
 10
21772.47030813347
 20
-42367.53486433402
 30
0.0
 40
19190.7639830876
100
AcDbArc
 50
288.0181391723473
 51
288.268087261331
  0
ARC
  5
E8FF
330
E8CF
100
AcDbEntity
  8
0
  6
Continuous
 62
     7
100
AcDbCircle
 10
23306.66194890667
 20
-47033.5353245516
 30
0.0
 40
14257.9670764338
100
AcDbArc
 50
287.9287273082788
 51
288.2649892482817
  0
ARC
  5
E900
330
E8CF
100
AcDbEntity
  8
0
  6
Continuous
 62
     7
100
AcDbCircle
 10
23307.35658248607
 20
-47047.48251584301
 30
0.0
 40
14244.505361039
100
AcDbArc
 50
288.2799183826737
 51
288.6163895826704
  0
ARC
  5
E901
330
E8CF
100
AcDbEntity
  8
0
  6
Continuous
 62
     7
100
AcDbCircle
 10
34681.42686267647
 20
-48465.4846919826
 30
0.0
 40
13805.002707961
100
AcDbArc
 50
241.297272973663
 51
241.8336930820484
  0
ARC
  5
E902
330
E8CF
100
AcDbEntity
  8
0
  6
Continuous
 62
     7
100
AcDbCircle
 10
32736.09145054407
 20
-52076.05910615101
 30
0.0
 40
9681.477504208
100
AcDbArc
 50
241.1722256197692
 51
242.0074955618209
  0
ARC
  5
E903
330
E8CF
100
AcDbEntity
  8
0
  6
Continuous
 62
     7
100
AcDbCircle
 10
28398.24289307887
 20
-60237.23386024641
 30
0.0
 40
439.0912832126
100
AcDbArc
 50
241.9895647468211
 51
242.3188804976782
  0
ARC
  5
E904
330
E8CF
100
AcDbEntity
  8
0
  6
Continuous
 62
     7
100
AcDbCircle
 10
27924.21473052407
 20
-60602.05960301081
 30
0.0
 40
111.5719756414
100
AcDbArc
 50
256.2914000211604
 51
257.1391908864431
  0
ARC
  5
E905
330
E8CF
100
AcDbEntity
  8
0
  6
Continuous
 62
     7
100
AcDbCircle
 10
27923.86130818447
 20
-60603.51089136821
 30
0.0
 40
110.0782738946
100
AcDbArc
 50
254.7427184708897
 51
256.2910994415028
  0
ARC
  5
E906
330
E8CF
100
AcDbEntity
  8
0
  6
Continuous
 62
     7
100
AcDbCircle
 10
27872.62057244087
 20
-60657.51021033761
 30
0.0
 40
73.2036689576
100
AcDbArc
 50
282.3468289394229
 51
284.5238779963695
  0
ARC
  5
E907
330
E8CF
100
AcDbEntity
  8
0
  6
Continuous
 62
     7
100
AcDbCircle
 10
27873.53683661267
 20
-60660.9072076732
 30
0.0
 40
69.6854536796
100
AcDbArc
 50
284.495041123932
 51
288.2639099286855
  0
ARC
  5
E908
330
E8CF
100
AcDbEntity
  8
0
  6
Continuous
 62
     7
100
AcDbCircle
 10
28409.86966079767
 20
-60493.47736213741
 30
0.0
 40
60.5130427556
100
AcDbArc
 50
288.2100854525012
 51
290.7637706956879
  0
ARC
  5
E909
330
E8CF
100
AcDbEntity
  8
0
  6
Continuous
 62
     7
100
AcDbCircle
 10
28154.91130233967
 20
-60605.64617049401
 30
0.0
 40
41.81222802439999
100
AcDbArc
 50
328.6408675342027
 51
332.5957519902567
  0
ARC
  5
E90A
330
E8CF
100
AcDbEntity
  8
0
  6
Continuous
 62
     7
100
AcDbCircle
 10
27914.87646741727
 20
-60741.42616647201
 30
0.0
 40
36.14431440300001
100
AcDbArc
 50
116.1050306482138
 51
118.2496546550232
  0
ARC
  5
E90B
330
E8CF
100
AcDbEntity
  8
0
  6
Continuous
 62
     7
100
AcDbCircle
 10
27899.57273614407
 20
-60698.2540548424
 30
0.0
 40
13.6400060134
100
AcDbArc
 50
216.2928720391473
 51
219.0776960318981
  0
ARC
  5
E90C
330
E8CF
100
AcDbEntity
  8
0
  6
Continuous
 62
     7
100
AcDbCircle
 10
27898.35387221987
 20
-60699.1365706768
 30
0.0
 40
12.1352310718
100
AcDbArc
 50
210.5917353165927
 51
216.340803320614
  0
SPLINE
  5
E90D
330
E8CF
100
AcDbEntity
  8
0
  6
Continuous
 62
     7
100
AcDbSpline
210
0.0
220
0.0
230
1.0
 70
     8
 71
     3
 72
    11
 73
     7
 74
     0
 42
0.0000000001
 43
0.0000000001
 40
0.0
 40
0.0
 40
0.0
 40
0.0
 40
0.2356180023
 40
0.4938700542000001
 40
0.7553307617
 40
1.0
 40
1.0
 40
1.0
 40
1.0
 10
27904.93796362487
 20
-60706.565195363
 30
0.0
 10
27908.59021798807
 20
-60705.3592736618
 30
0.0
 10
27916.49639138247
 20
-60703.579650984
 30
0.0
 10
27928.81473945207
 20
-60702.55451379561
 30
0.0
 10
27941.31209711987
 20
-60703.0922813418
 30
0.0
 10
27949.48375808927
 20
-60704.53917786501
 30
0.0
 10
27953.34067459587
 20
-60705.57638231041
 30
0.0
  0
SPLINE
  5
E90E
330
E8CF
100
AcDbEntity
  8
0
  6
Continuous
 62
     7
100
AcDbSpline
210
0.0
220
0.0
230
1.0
 70
     8
 71
     3
 72
     9
 73
     5
 74
     0
 42
0.0000000001
 43
0.0000000001
 40
0.0
 40
0.0
 40
0.0
 40
0.0
 40
0.2377964903
 40
1.0
 40
1.0
 40
1.0
 40
1.0
 10
27898.97231789627
 20
-60708.9689717122
 30
0.0
 10
27899.43025143027
 20
-60708.74438154481
 30
0.0
 10
27901.37486654507
 20
-60707.83853437942
 30
0.0
 10
27903.38556904867
 20
-60707.07777365621
 30
0.0
 10
27904.93796362487
 20
-60706.565195363
 30
0.0
  0
SPLINE
  5
E90F
330
E8CF
100
AcDbEntity
  8
0
  6
Continuous
 62
     7
100
AcDbSpline
210
0.0
220
0.0
230
1.0
 70
     8
 71
     3
 72
    16
 73
    12
 74
     0
 42
0.0000000001
 43
0.0000000001
 40
0.0
 40
0.0
 40
0.0
 40
0.0
 40
0.1350440786
 40
0.2826343606
 40
0.4346227100000001
 40
0.5823313528
 40
0.7175798263999999
 40
0.833708464
 40
0.8833894762999999
 40
0.9273172351999999
 40
1.0
 40
1.0
 40
1.0
 40
1.0
 10
27903.58315544607
 20
-60686.0744085924
 30
0.0
 10
27906.86283061907
 20
-60684.99150716522
 30
0.0
 10
27913.92111847887
 20
-60683.302095514
 30
0.0
 10
27924.98958008107
 20
-60682.06373243601
 30
0.0
 10
27936.45250946647
 20
-60682.05552138681
 30
0.0
 10
27947.53509324987
 20
-60683.27834876601
 30
0.0
 10
27957.49102372807
 20
-60685.6471731932
 30
0.0
 10
27964.66945678047
 20
-60688.56891714681
 30
0.0
 10
27969.21777728927
 20
-60691.45322784721
 30
0.0
 10
27972.44352051967
 20
-60694.21832196721
 30
0.0
 10
27974.19333371327
 20
-60696.8192115626
 30
0.0
 10
27974.69276467387
 20
-60698.60976787761
 30
0.0
  0
SPLINE
  5
E910
330
E8CF
100
AcDbEntity
  8
0
  6
Continuous
 62
     7
100
AcDbSpline
210
0.0
220
0.0
230
1.0
 70
     8
 71
     3
 72
    10
 73
     6
 74
     0
 42
0.0000000001
 43
0.0000000001
 40
0.0
 40
0.0
 40
0.0
 40
0.0
 40
0.4996027185000001
 40
0.7496468428
 40
1.0
 40
1.0
 40
1.0
 40
1.0
 10
27955.95599627947
 20
-60505.71442236461
 30
0.0
 10
27939.36539170467
 20
-60513.2123223118
 30
0.0
 10
27914.31546548727
 20
-60524.13166205641
 30
0.0
 10
27880.43586564247
 20
-60537.5616313506
 30
0.0
 10
27863.28214018707
 20
-60543.7634002218
 30
0.0
 10
27854.63583304387
 20
-60546.67450640721
 30
0.0
  0
SPLINE
  5
E911
330
E8CF
100
AcDbEntity
  8
0
  6
Continuous
 62
     7
100
AcDbSpline
210
0.0
220
0.0
230
1.0
 70
     8
 71
     3
 72
     9
 73
     5
 74
     0
 42
0.0000000001
 43
0.0000000001
 40
0.0
 40
0.0
 40
0.0
 40
0.0
 40
0.2496336986
 40
1.0
 40
1.0
 40
1.0
 40
1.0
 10
27695.74464248667
 20
-60599.1380852692
 30
0.0
 10
27691.57976010167
 20
-60600.48633375881
 30
0.0
 10
27674.83678597307
 20
-60605.70499034581
 30
0.0
 10
27657.91764016687
 20
-60610.34411193602
 30
0.0
 10
27645.17293859827
 20
-60613.61891055061
 30
0.0
  0
SPLINE
  5
E912
330
E8CF
100
AcDbEntity
  8
0
  6
Continuous
 62
     7
100
AcDbSpline
210
0.0
220
0.0
230
1.0
 70
     8
 71
     3
 72
    10
 73
     6
 74
     0
 42
0.0000000001
 43
0.0000000001
 40
0.0
 40
0.0
 40
0.0
 40
0.0
 40
0.2494519594
 40
0.4992722027000001
 40
1.0
 40
1.0
 40
1.0
 40
1.0
 10
28067.89201156967
 20
-60557.74058227601
 30
0.0
 10
28061.13624832507
 20
-60554.02522040081
 30
0.0
 10
28047.81027731087
 20
-60546.2317276578
 30
0.0
 10
28021.70637042427
 20
-60529.67600267201
 30
0.0
 10
28002.61602021227
 20
-60516.4797705738
 30
0.0
 10
27990.02383691147
 20
-60507.4822366044
 30
0.0
  0
SPLINE
  5
E913
330
E8CF
100
AcDbEntity
  8
0
  6
Continuous
 62
     7
100
AcDbSpline
210
0.0
220
0.0
230
1.0
 70
     8
 71
     3
 72
    10
 73
     6
 74
     0
 42
0.0000000001
 43
0.0000000001
 40
0.0
 40
0.0
 40
0.0
 40
0.0
 40
0.218346751
 40
0.4800182285
 40
1.0
 40
1.0
 40
1.0
 40
1.0
 10
27859.75690899367
 20
-60737.1904361458
 30
0.0
 10
27860.55222367027
 20
-60737.62054775521
 30
0.0
 10
27862.44419958727
 20
-60738.30560219961
 30
0.0
 10
27866.55701228387
 20
-60738.88298150681
 30
0.0
 10
27869.86845812687
 20
-60738.49649801321
 30
0.0
 10
27871.91306708207
 20
-60737.8212313172
 30
0.0
  0
SPLINE
  5
E914
330
E8CF
100
AcDbEntity
  8
0
  6
Continuous
 62
     7
100
AcDbSpline
210
0.0
220
0.0
230
1.0
 70
     8
 71
     3
 72
     9
 73
     5
 74
     0
 42
0.0000000001
 43
0.0000000001
 40
0.0
 40
0.0
 40
0.0
 40
0.0
 40
0.5881807669
 40
1.0
 40
1.0
 40
1.0
 40
1.0
 10
27402.47912613907
 20
-60483.8918751474
 30
0.0
 10
27401.67812812487
 20
-60484.15641176121
 30
0.0
 10
27400.35837519367
 20
-60484.6796571208
 30
0.0
 10
27399.21377088947
 20
-60485.7544315974
 30
0.0
 10
27399.04919105207
 20
-60486.3216559272
 30
0.0
  0
SPLINE
  5
E915
330
E8CF
100
AcDbEntity
  8
0
  6
Continuous
 62
     7
100
AcDbSpline
210
0.0
220
0.0
230
1.0
 70
     8
 71
     3
 72
    11
 73
     7
 74
     0
 42
0.0000000001
 43
0.0000000001
 40
0.0
 40
0.0
 40
0.0
 40
0.0
 40
0.2025469606
 40
0.4230791396
 40
0.6874560734000001
 40
1.0
 40
1.0
 40
1.0
 40
1.0
 10
27399.04919105207
 20
-60486.3216559272
 30
0.0
 10
27398.98184896087
 20
-60486.55375041141
 30
0.0
 10
27398.96949326187
 20
-60487.0862797988
 30
0.0
 10
27399.37133106427
 20
-60487.82927005381
 30
0.0
 10
27400.07140653207
 20
-60488.48609049461
 30
0.0
 10
27400.65852234987
 20
-60488.85190103661
 30
0.0
 10
27400.98653760587
 20
-60489.0292895482
 30
0.0
  0
SPLINE
  5
E916
330
E8CF
100
AcDbEntity
  8
0
  6
Continuous
 62
     7
100
AcDbSpline
210
0.0
220
0.0
230
1.0
 70
     8
 71
     3
 72
    10
 73
     6
 74
     0
 42
0.0000000001
 43
0.0000000001
 40
0.0
 40
0.0
 40
0.0
 40
0.0
 40
0.218346751
 40
0.4800182285
 40
1.0
 40
1.0
 40
1.0
 40
1.0
 10
28001.83458218347
 20
-60290.63793342481
 30
0.0
 10
28001.03926750667
 20
-60290.20782181541
 30
0.0
 10
27999.14729158967
 20
-60289.52276737101
 30
0.0
 10
27995.03447889307
 20
-60288.94538806381
 30
0.0
 10
27991.72303305007
 20
-60289.33187155741
 30
0.0
 10
27989.67842409487
 20
-60290.00713825341
 30
0.0
  0
SPLINE
  5
E917
330
E8CF
100
AcDbEntity
  8
0
  6
Continuous
 62
     7
100
AcDbSpline
210
0.0
220
0.0
230
1.0
 70
     8
 71
     3
 72
    14
 73
    10
 74
     0
 42
0.0000000001
 43
0.0000000001
 40
0.0
 40
0.0
 40
0.0
 40
0.0
 40
0.3199979599
 40
0.4449916119
 40
0.5472683881
 40
0.6389685728
 40
0.7388071884000001
 40
0.8585067323
 40
1.0
 40
1.0
 40
1.0
 40
1.0
 10
28459.11236503807
 20
-60543.936494423
 30
0.0
 10
28459.91329034347
 20
-60543.67210646081
 30
0.0
 10
28461.02093624767
 20
-60543.21934882101
 30
0.0
 10
28462.14203662627
 20
-60542.2933971644
 30
0.0
 10
28462.60032302207
 20
-60541.55597232261
 30
0.0
 10
28462.62304653967
 20
-60540.74326654501
 30
0.0
 10
28462.22017440167
 20
-60539.99885285601
 30
0.0
 10
28461.52023772747
 20
-60539.34251412581
 30
0.0
 10
28460.93296270987
 20
-60538.9765482696
 30
0.0
 10
28460.60495357127
 20
-60538.79908002241
 30
0.0
  0
SPLINE
  5
E918
330
E8CF
100
AcDbEntity
  8
0
  6
Continuous
 62
     7
100
AcDbSpline
210
0.0
220
0.0
230
1.0
 70
     8
 71
     3
 72
    15
 73
    11
 74
     0
 42
0.0000000001
 43
0.0000000001
 40
0.0
 40
0.0
 40
0.0
 40
0.0
 40
0.132363686
 40
0.2425741262
 40
0.3346403217
 40
0.4278144385
 40
0.5407547428
 40
0.6766714366
 40
0.8314521476999999
 40
1.0
 40
1.0
 40
1.0
 40
1.0
 10
27431.75967855027
 20
-60497.9040506246
 30
0.0
 10
27431.10966304727
 20
-60497.2916503106
 30
0.0
 10
27429.99043015007
 20
-60496.08755502181
 30
0.0
 10
27428.83671574247
 20
-60494.1044850472
 30
0.0
 10
27428.68427081508
 20
-60492.001238179
 30
0.0
 10
27429.85662848167
 20
-60490.2286524016
 30
0.0
 10
27431.85186756927
 20
-60489.00519715301
 30
0.0
 10
27434.43352667887
 20
-60488.10502807041
 30
0.0
 10
27437.47717056007
 20
-60487.4910627636
 30
0.0
 10
27439.64718706687
 20
-60487.24878825801
 30
0.0
 10
27440.78066505227
 20
-60487.1569323998
 30
0.0
  0
SPLINE
  5
E919
330
E8CF
100
AcDbEntity
  8
0
  6
Continuous
 62
     7
100
AcDbSpline
210
0.0
220
0.0
230
1.0
 70
     8
 71
     3
 72
    16
 73
    12
 74
     0
 42
0.0000000001
 43
0.0000000001
 40
0.0
 40
0.0
 40
0.0
 40
0.0
 40
0.1410810291
 40
0.2610578545
 40
0.3609458094
 40
0.4067384716
 40
0.452705586
 40
0.5545017020000001
 40
0.6797943627
 40
0.8296847033
 40
1.0
 40
1.0
 40
1.0
 40
1.0
 10
27426.39743473667
 20
-60498.94509630961
 30
0.0
 10
27424.97612331987
 20
-60498.1764450986
 30
0.0
 10
27422.42168753987
 20
-60496.59664551281
 30
0.0
 10
27419.33910498627
 20
-60493.79693132
 30
0.0
 10
27417.79215222207
 20
-60491.0602651714
 30
0.0
 10
27417.52319815507
 20
-60488.85438994981
 30
0.0
 10
27417.87062129227
 20
-60486.635999828
 30
0.0
 10
27419.59607714187
 20
-60483.89484219641
 30
0.0
 10
27422.99374843367
 20
-60481.17343143281
 30
0.0
 10
27427.52013064807
 20
-60478.77563753681
 30
0.0
 10
27430.95905850147
 20
-60477.48022827901
 30
0.0
 10
27432.81137551107
 20
-60476.86863587281
 30
0.0
  0
SPLINE
  5
E91A
330
E8CF
100
AcDbEntity
  8
0
  6
Continuous
 62
     7
100
AcDbSpline
210
0.0
220
0.0
230
1.0
 70
     8
 71
     3
 72
     9
 73
     5
 74
     0
 42
0.0000000001
 43
0.0000000001
 40
0.0
 40
0.0
 40
0.0
 40
0.0
 40
0.5132618617000001
 40
1.0
 40
1.0
 40
1.0
 40
1.0
 10
27888.27363048207
 20
-60729.0207614668
 30
0.0
 10
27881.80104052047
 20
-60730.43841070121
 30
0.0
 10
27868.79706937587
 20
-60731.56660675381
 30
0.0
 10
27855.85838854587
 20
-60729.41275371181
 30
0.0
 10
27849.92588291947
 20
-60727.341734156
 30
0.0
  0
SPLINE
  5
E91B
330
E8CF
100
AcDbEntity
  8
0
  6
Continuous
 62
     7
100
AcDbSpline
210
0.0
220
0.0
230
1.0
 70
     8
 71
     3
 72
     9
 73
     5
 74
     0
 42
0.0000000001
 43
0.0000000001
 40
0.0
 40
0.0
 40
0.0
 40
0.0
 40
0.2647667283
 40
1.0
 40
1.0
 40
1.0
 40
1.0
 10
27849.92588291947
 20
-60727.341734156
 30
0.0
 10
27849.30817928207
 20
-60727.12609570681
 30
0.0
 10
27846.99077551267
 20
-60726.26811477601
 30
0.0
 10
27844.73650390467
 20
-60725.235917327
 30
0.0
 10
27843.13850910327
 20
-60724.3714736414
 30
0.0
  0
SPLINE
  5
E91C
330
E8CF
100
AcDbEntity
  8
0
  6
Continuous
 62
     7
100
AcDbSpline
210
0.0
220
0.0
230
1.0
 70
     8
 71
     3
 72
    17
 73
    13
 74
     0
 42
0.0000000001
 43
0.0000000001
 40
0.0
 40
0.0
 40
0.0
 40
0.0
 40
0.1450662978
 40
0.2698162928
 40
0.3746116205
 40
0.422110191
 40
0.4687694743
 40
0.5684588529
 40
0.6888329126999999
 40
0.7583076394
 40
0.8336700468000001
 40
1.0
 40
1.0
 40
1.0
 40
1.0
 10
28435.19405644047
 20
-60528.88327326081
 30
0.0
 10
28436.54133329467
 20
-60529.61203147921
 30
0.0
 10
28438.97915829167
 20
-60531.10865083321
 30
0.0
 10
28441.96602070787
 20
-60533.73782264781
 30
0.0
 10
28443.57580482847
 20
-60536.27110166601
 30
0.0
 10
28444.03536292087
 20
-60538.34230461981
 30
0.0
 10
28443.95767761507
 20
-60540.4116665362
 30
0.0
 10
28442.71484583207
 20
-60543.05731716641
 30
0.0
 10
28440.47085675807
 20
-60545.18996098101
 30
0.0
 10
28438.17284561467
 20
-60546.79248102041
 30
0.0
 10
28435.31415451467
 20
-60548.4206344218
 30
0.0
 10
28432.96445506387
 20
-60549.4368496824
 30
0.0
 10
28431.32248946407
 20
-60550.06008463942
 30
0.0
  0
SPLINE
  5
E91D
330
E8CF
100
AcDbEntity
  8
0
  6
Continuous
 62
     7
100
AcDbSpline
210
0.0
220
0.0
230
1.0
 70
     8
 71
     3
 72
     9
 73
     5
 74
     0
 42
0.0000000001
 43
0.0000000001
 40
0.0
 40
0.0
 40
0.0
 40
0.0
 40
0.2456517477
 40
1.0
 40
1.0
 40
1.0
 40
1.0
 10
27997.32359818247
 20
-60689.30270458121
 30
0.0
 10
27997.27240185247
 20
-60689.4788699184
 30
0.0
 10
27997.04891493187
 20
-60690.19157249481
 30
0.0
 10
27996.76617039967
 20
-60690.8854003928
 30
0.0
 10
27996.52474197467
 20
-60691.3943956046
 30
0.0
  0
SPLINE
  5
E91E
330
E8CF
100
AcDbEntity
  8
0
  6
Continuous
 62
     7
100
AcDbSpline
210
0.0
220
0.0
230
1.0
 70
     8
 71
     3
 72
     9
 73
     5
 74
     0
 42
0.0000000001
 43
0.0000000001
 40
0.0
 40
0.0
 40
0.0
 40
0.0
 40
0.5123705102000001
 40
1.0
 40
1.0
 40
1.0
 40
1.0
 10
27927.82647037507
 20
-60714.1480121314
 30
0.0
 10
27922.92976654287
 20
-60714.059389897
 30
0.0
 10
27913.37543681207
 20
-60713.438285492
 30
0.0
 10
27903.92470766367
 20
-60711.8703428694
 30
0.0
 10
27899.38067005387
 20
-60710.83264741561
 30
0.0
  0
SPLINE
  5
E91F
330
E8CF
100
AcDbEntity
  8
0
  6
Continuous
 62
     7
100
AcDbSpline
210
0.0
220
0.0
230
1.0
 70
     8
 71
     3
 72
     9
 73
     5
 74
     0
 42
0.0000000001
 43
0.0000000001
 40
0.0
 40
0.0
 40
0.0
 40
0.0
 40
0.4709411352
 40
1.0
 40
1.0
 40
1.0
 40
1.0
 10
27895.13681060027
 20
-60878.84445941421
 30
0.0
 10
27895.87038491567
 20
-60878.60009073241
 30
0.0
 10
27897.31002832607
 20
-60877.68725953841
 30
0.0
 10
27898.25149235767
 20
-60876.29744106961
 30
0.0
 10
27898.63862084987
 20
-60875.51985404181
 30
0.0
  0
SPLINE
  5
E920
330
E8CF
100
AcDbEntity
  8
0
  6
Continuous
 62
     7
100
AcDbSpline
210
0.0
220
0.0
230
1.0
 70
     8
 71
     3
 72
     9
 73
     5
 74
     0
 42
0.0000000001
 43
0.0000000001
 40
0.0
 40
0.0
 40
0.0
 40
0.0
 40
0.2457559495
 40
1.0
 40
1.0
 40
1.0
 40
1.0
 10
27877.62559202607
 20
-60877.47202472001
 30
0.0
 10
27877.29170773327
 20
-60877.29082572541
 30
0.0
 10
27875.98514433187
 20
-60876.4586268594
 30
0.0
 10
27874.92742000547
 20
-60875.25724683141
 30
0.0
 10
27874.32630465807
 20
-60874.2582637012
 30
0.0
  0
SPLINE
  5
E921
330
E8CF
100
AcDbEntity
  8
0
  6
Continuous
 62
     7
100
AcDbSpline
210
0.0
220
0.0
230
1.0
 70
     8
 71
     3
 72
     9
 73
     5
 74
     0
 42
0.0000000001
 43
0.0000000001
 40
0.0
 40
0.0
 40
0.0
 40
0.0
 40
0.2563712475
 40
1.0
 40
1.0
 40
1.0
 40
1.0
 10
27894.89378947747
 20
-60709.7093341232
 30
0.0
 10
27894.29597464567
 20
-60709.54618088001
 30
0.0
 10
27891.96977310107
 20
-60708.88946182721
 30
0.0
 10
27889.66654432587
 20
-60708.1503603996
 30
0.0
 10
27887.97283065707
 20
-60707.5486055712
 30
0.0
  0
SPLINE
  5
E922
330
E8CF
100
AcDbEntity
  8
0
  6
Continuous
 62
     7
100
AcDbSpline
210
0.0
220
0.0
230
1.0
 70
     8
 71
     3
 72
     9
 73
     5
 74
     0
 42
0.0000000001
 43
0.0000000001
 40
0.0
 40
0.0
 40
0.0
 40
0.0
 40
0.261845583
 40
1.0
 40
1.0
 40
1.0
 40
1.0
 10
27887.97283065707
 20
-60707.5486055712
 30
0.0
 10
27887.20404633027
 20
-60707.27546632161
 30
0.0
 10
27884.28318357227
 20
-60706.1908629664
 30
0.0
 10
27881.42359682947
 20
-60704.93590570721
 30
0.0
 10
27879.37342866767
 20
-60703.8934970164
 30
0.0
  0
SPLINE
  5
E923
330
E8CF
100
AcDbEntity
  8
0
  6
Continuous
 62
     7
100
AcDbSpline
210
0.0
220
0.0
230
1.0
 70
     8
 71
     3
 72
     9
 73
     5
 74
     0
 42
0.0000000001
 43
0.0000000001
 40
0.0
 40
0.0
 40
0.0
 40
0.0
 40
0.5493599155
 40
1.0
 40
1.0
 40
1.0
 40
1.0
 10
27879.37342866767
 20
-60703.8934970164
 30
0.0
 10
27876.61389359847
 20
-60702.4904104832
 30
0.0
 10
27871.76444229427
 20
-60699.56137544841
 30
0.0
 10
27867.69004853387
 20
-60695.52027721561
 30
0.0
 10
27866.27249395687
 20
-60693.4133055874
 30
0.0
  0
SPLINE
  5
E924
330
E8CF
100
AcDbEntity
  8
0
  6
Continuous
 62
     7
100
AcDbSpline
210
0.0
220
0.0
230
1.0
 70
     8
 71
     3
 72
     9
 73
     5
 74
     0
 42
0.0000000001
 43
0.0000000001
 40
0.0
 40
0.0
 40
0.0
 40
0.0
 40
0.2496572923
 40
1.0
 40
1.0
 40
1.0
 40
1.0
 10
27708.52042802927
 20
-60617.1576338232
 30
0.0
 10
27705.52070270467
 20
-60618.1593964322
 30
0.0
 10
27693.47316028387
 20
-60622.07558996981
 30
0.0
 10
27681.32052698507
 20
-60625.6633815252
 30
0.0
 10
27672.16744588568
 20
-60628.22616206001
 30
0.0
  0
SPLINE
  5
E925
330
E8CF
100
AcDbEntity
  8
0
  6
Continuous
 62
     7
100
AcDbSpline
210
0.0
220
0.0
230
1.0
 70
     8
 71
     3
 72
    12
 73
     8
 74
     0
 42
0.0000000001
 43
0.0000000001
 40
0.0
 40
0.0
 40
0.0
 40
0.0
 40
0.2362902621
 40
0.3473336447999999
 40
0.4595969438000001
 40
0.7048894522
 40
1.0
 40
1.0
 40
1.0
 40
1.0
 10
27866.27249395687
 20
-60693.4133055874
 30
0.0
 10
27865.17023662087
 20
-60691.77369367301
 30
0.0
 10
27863.92523431907
 20
-60689.02499151461
 30
0.0
 10
27863.67954298027
 20
-60685.1574722758
 30
0.0
 10
27864.36329913267
 20
-60681.26263395001
 30
0.0
 10
27867.14350767507
 20
-60676.3922894962
 30
0.0
 10
27870.54841109667
 20
-60673.34339268401
 30
0.0
 10
27872.53045872547
 20
-60671.8737066912
 30
0.0
  0
SPLINE
  5
E926
330
E8CF
100
AcDbEntity
  8
0
  6
Continuous
 62
     7
100
AcDbSpline
210
0.0
220
0.0
230
1.0
 70
     8
 71
     3
 72
     8
 73
     4
 74
     0
 42
0.0000000001
 43
0.0000000001
 40
0.0
 40
0.0
 40
0.0
 40
0.0
 40
1.0
 40
1.0
 40
1.0
 40
1.0
 10
27566.88807160446
 20
-60708.1722669934
 30
0.0
 10
27566.76752852487
 20
-60708.08081161621
 30
0.0
 10
27566.65530207227
 20
-60707.9767323578
 30
0.0
 10
27566.55703825427
 20
-60707.8616717558
 30
0.0
  0
SPLINE
  5
E927
330
E8CF
100
AcDbEntity
  8
0
  6
Continuous
 62
     7
100
AcDbSpline
210
0.0
220
0.0
230
1.0
 70
     8
 71
     3
 72
     9
 73
     5
 74
     0
 42
0.0000000001
 43
0.0000000001
 40
0.0
 40
0.0
 40
0.0
 40
0.0
 40
0.4632285037
 40
1.0
 40
1.0
 40
1.0
 40
1.0
 10
27872.53045872547
 20
-60671.8737066912
 30
0.0
 10
27874.89543964887
 20
-60670.1206617898
 30
0.0
 10
27880.43266035327
 20
-60666.917354551
 30
0.0
 10
27886.36581797707
 20
-60664.5926265334
 30
0.0
 10
27889.60500589367
 20
-60663.5229747858
 30
0.0
  0
SPLINE
  5
E928
330
E8CF
100
AcDbEntity
  8
0
  6
Continuous
 62
     7
100
AcDbSpline
210
0.0
220
0.0
230
1.0
 70
     8
 71
     3
 72
     9
 73
     5
 74
     0
 42
0.0000000001
 43
0.0000000001
 40
0.0
 40
0.0
 40
0.0
 40
0.0
 40
0.5547758502000001
 40
1.0
 40
1.0
 40
1.0
 40
1.0
 10
28464.44414981567
 20
-60560.41521601481
 30
0.0
 10
28465.43190292947
 20
-60560.24684219601
 30
0.0
 10
28467.19416450827
 20
-60559.79693400421
 30
0.0
 10
28468.78205868667
 20
-60558.82225157461
 30
0.0
 10
28469.33330365187
 20
-60558.23679182861
 30
0.0
  0
SPLINE
  5
E929
330
E8CF
100
AcDbEntity
  8
0
  6
Continuous
 62
     7
100
AcDbSpline
210
0.0
220
0.0
230
1.0
 70
     8
 71
     3
 72
    10
 73
     6
 74
     0
 42
0.0000000001
 43
0.0000000001
 40
0.0
 40
0.0
 40
0.0
 40
0.0
 40
0.4838790036
 40
0.7469404223999999
 40
1.0
 40
1.0
 40
1.0
 40
1.0
 10
27852.93253568287
 20
-60753.03836256601
 30
0.0
 10
27856.29113734107
 20
-60755.32367030921
 30
0.0
 10
27862.72814879047
 20
-60757.0870336992
 30
0.0
 10
27871.12385035627
 20
-60756.50006187121
 30
0.0
 10
27875.31794896887
 20
-60755.19478447601
 30
0.0
 10
27877.24485185967
 20
-60754.2999529088
 30
0.0
  0
SPLINE
  5
E92A
330
E8CF
100
AcDbEntity
  8
0
  6
Continuous
 62
     7
100
AcDbSpline
210
0.0
220
0.0
230
1.0
 70
     8
 71
     3
 72
    12
 73
     8
 74
     0
 42
0.0000000001
 43
0.0000000001
 40
0.0
 40
0.0
 40
0.0
 40
0.0
 40
0.2440325204
 40
0.3778972435
 40
0.5141730788000001
 40
0.7747781506
 40
1.0
 40
1.0
 40
1.0
 40
1.0
 10
27859.75690899367
 20
-60737.1904361458
 30
0.0
 10
27858.27719039127
 20
-60737.67907465461
 30
0.0
 10
27856.19324413307
 20
-60739.1042220994
 30
0.0
 10
27854.11104720866
 20
-60741.6516564582
 30
0.0
 10
27852.47771575527
 20
-60744.642486274
 30
0.0
 10
27851.52578436267
 20
-60748.59373087761
 30
0.0
 10
27852.19105952167
 20
-60751.80604302581
 30
0.0
 10
27852.93253568247
 20
-60753.03836256581
 30
0.0
  0
SPLINE
  5
E92B
330
E8CF
100
AcDbEntity
  8
0
  6
Continuous
 62
     7
100
AcDbSpline
210
0.0
220
0.0
230
1.0
 70
     8
 71
     3
 72
    11
 73
     7
 74
     0
 42
0.0000000001
 43
0.0000000001
 40
0.0
 40
0.0
 40
0.0
 40
0.0
 40
0.2279512233
 40
0.5018072516
 40
0.7746042353
 40
1.0
 40
1.0
 40
1.0
 40
1.0
 10
27871.91306708207
 20
-60737.8212313172
 30
0.0
 10
27873.14904202667
 20
-60738.48980317481
 30
0.0
 10
27875.37741019566
 20
-60740.81072791461
 30
0.0
 10
27877.45678122847
 20
-60745.16148584821
 30
0.0
 10
27878.32067129347
 20
-60749.88866525681
 30
0.0
 10
27877.86405537167
 20
-60753.05609425101
 30
0.0
 10
27877.24485185967
 20
-60754.2999529088
 30
0.0
  0
SPLINE
  5
E92C
330
E8CF
100
AcDbEntity
  8
0
  6
Continuous
 62
     7
100
AcDbSpline
210
0.0
220
0.0
230
1.0
 70
     8
 71
     3
 72
     9
 73
     5
 74
     0
 42
0.0000000001
 43
0.0000000001
 40
0.0
 40
0.0
 40
0.0
 40
0.0
 40
0.5206263737
 40
1.0
 40
1.0
 40
1.0
 40
1.0
 10
28001.83458218347
 20
-60290.63793342481
 30
0.0
 10
28002.63675296188
 20
-60290.37303742881
 30
0.0
 10
28004.28004591447
 20
-60290.10108902981
 30
0.0
 10
28005.90803621927
 20
-60290.535238114
 30
0.0
 10
28006.59222865307
 20
-60290.90525822841
 30
0.0
  0
SPLINE
  5
E92D
330
E8CF
100
AcDbEntity
  8
0
  6
Continuous
 62
     7
100
AcDbSpline
210
0.0
220
0.0
230
1.0
 70
     8
 71
     3
 72
     9
 73
     5
 74
     0
 42
0.0000000001
 43
0.0000000001
 40
0.0
 40
0.0
 40
0.0
 40
0.0
 40
0.531083106
 40
1.0
 40
1.0
 40
1.0
 40
1.0
 10
27989.67842409487
 20
-60290.00713825341
 30
0.0
 10
27989.17497585467
 20
-60289.7348096542
 30
0.0
 10
27988.14321634927
 20
-60289.343818318
 30
0.0
 10
27987.02296494807
 20
-60289.4160129112
 30
0.0
 10
27986.54307561107
 20
-60289.5744999644
 30
0.0
  0
SPLINE
  5
E92E
330
E8CF
100
AcDbEntity
  8
0
  6
Continuous
 62
     7
100
AcDbSpline
210
0.0
220
0.0
230
1.0
 70
     8
 71
     3
 72
     9
 73
     5
 74
     0
 42
0.0000000001
 43
0.0000000001
 40
0.0
 40
0.0
 40
0.0
 40
0.0
 40
0.5310825718
 40
1.0
 40
1.0
 40
1.0
 40
1.0
 10
27402.47912613907
 20
-60483.8918751474
 30
0.0
 10
27401.97563881507
 20
-60483.6195570506
 30
0.0
 10
27400.94381219547
 20
-60483.228590246
 30
0.0
 10
27399.82350838427
 20
-60483.30080216441
 30
0.0
 10
27399.34359338787
 20
-60483.45929770041
 30
0.0
  0
SPLINE
  5
E92F
330
E8CF
100
AcDbEntity
  8
0
  6
Continuous
 62
     7
100
AcDbSpline
210
0.0
220
0.0
230
1.0
 70
     8
 71
     3
 72
     9
 73
     5
 74
     0
 42
0.0000000001
 43
0.0000000001
 40
0.0
 40
0.0
 40
0.0
 40
0.0
 40
0.2348373536
 40
1.0
 40
1.0
 40
1.0
 40
1.0
 10
27889.60500589367
 20
-60663.5229747858
 30
0.0
 10
27891.37355603487
 20
-60662.93908805181
 30
0.0
 10
27898.98021821067
 20
-60660.68331400281
 30
0.0
 10
27906.82386648727
 20
-60659.2708273426
 30
0.0
 10
27912.85049747567
 20
-60658.5606115772
 30
0.0
  0
SPLINE
  5
E930
330
E8CF
100
AcDbEntity
  8
0
  6
Continuous
 62
     7
100
AcDbSpline
210
0.0
220
0.0
230
1.0
 70
     8
 71
     3
 72
    10
 73
     6
 74
     0
 42
0.0000000001
 43
0.0000000001
 40
0.0
 40
0.0
 40
0.0
 40
0.0
 40
0.2497434306
 40
0.4996452293
 40
1.0
 40
1.0
 40
1.0
 40
1.0
 10
28051.36385232907
 20
-60574.1743091804
 30
0.0
 10
28044.40573759207
 20
-60570.45968718541
 30
0.0
 10
28030.68314844587
 20
-60562.65520366221
 30
0.0
 10
28003.81757326347
 20
-60546.0435204032
 30
0.0
 10
27984.18740768027
 20
-60532.75371005461
 30
0.0
 10
27971.24614885647
 20
-60523.6848345528
 30
0.0
  0
SPLINE
  5
E931
330
E8CF
100
AcDbEntity
  8
0
  6
Continuous
 62
     7
100
AcDbSpline
210
0.0
220
0.0
230
1.0
 70
     8
 71
     3
 72
     9
 73
     5
 74
     0
 42
0.0000000001
 43
0.0000000001
 40
0.0
 40
0.0
 40
0.0
 40
0.0
 40
0.5100774421000001
 40
1.0
 40
1.0
 40
1.0
 40
1.0
 10
27912.85049747567
 20
-60658.5606115772
 30
0.0
 10
27921.49965613347
 20
-60657.5419658598
 30
0.0
 10
27938.64785505047
 20
-60657.03667300341
 30
0.0
 10
27955.68372185647
 20
-60659.2530792038
 30
0.0
 10
27963.81753048427
 20
-60661.20534176961
 30
0.0
  0
SPLINE
  5
E932
330
E8CF
100
AcDbEntity
  8
0
  6
Continuous
 62
     7
100
AcDbSpline
210
0.0
220
0.0
230
1.0
 70
     8
 71
     3
 72
    10
 73
     6
 74
     0
 42
0.0000000001
 43
0.0000000001
 40
0.0
 40
0.0
 40
0.0
 40
0.0
 40
0.4993582789000001
 40
0.7494602854000001
 40
1.0
 40
1.0
 40
1.0
 40
1.0
 10
27971.24614885647
 20
-60523.6848345528
 30
0.0
 10
27954.28299448907
 20
-60531.21548618721
 30
0.0
 10
27928.66198101287
 20
-60542.16872272481
 30
0.0
 10
27893.99391862687
 20
-60555.5756378938
 30
0.0
 10
27876.43425946927
 20
-60561.74768825821
 30
0.0
 10
27867.58229306207
 20
-60564.6377007116
 30
0.0
  0
SPLINE
  5
E933
330
E8CF
100
AcDbEntity
  8
0
  6
Continuous
 62
     7
100
AcDbSpline
210
0.0
220
0.0
230
1.0
 70
     8
 71
     3
 72
    11
 73
     7
 74
     0
 42
0.0000000001
 43
0.0000000001
 40
0.0
 40
0.0
 40
0.0
 40
0.0
 40
0.3053664701
 40
0.575811141
 40
0.8071697794
 40
1.0
 40
1.0
 40
1.0
 40
1.0
 10
27963.81753048427
 20
-60661.20534176961
 30
0.0
 10
27967.42961246107
 20
-60662.072850517
 30
0.0
 10
27974.17014577147
 20
-60664.037885379
 30
0.0
 10
27983.21162650847
 20
-60667.9532427684
 30
0.0
 10
27990.36362502827
 20
-60672.53010406641
 30
0.0
 10
27994.01707213547
 20
-60676.2939908444
 30
0.0
 10
27995.31899722007
 20
-60678.2453264596
 30
0.0
  0
SPLINE
  5
E934
330
E8CF
100
AcDbEntity
  8
0
  6
Continuous
 62
     7
100
AcDbSpline
210
0.0
220
0.0
230
1.0
 70
     8
 71
     3
 72
    10
 73
     6
 74
     0
 42
0.0000000001
 43
0.0000000001
 40
0.0
 40
0.0
 40
0.0
 40
0.0
 40
0.5148617236000001
 40
0.7563107929
 40
1.0
 40
1.0
 40
1.0
 40
1.0
 10
27995.31899722007
 20
-60678.2453264596
 30
0.0
 10
27996.42045575627
 20
-60679.89710171821
 30
0.0
 10
27997.66525375327
 20
-60682.65857029861
 30
0.0
 10
27997.91226302087
 20
-60686.5379745476
 30
0.0
 10
27997.58569712467
 20
-60688.4003163514
 30
0.0
 10
27997.32359818247
 20
-60689.30270458121
 30
0.0
  0
SPLINE
  5
E935
330
E8CF
100
AcDbEntity
  8
0
  6
Continuous
 62
     7
100
AcDbSpline
210
0.0
220
0.0
230
1.0
 70
     8
 71
     3
 72
     9
 73
     5
 74
     0
 42
0.0000000001
 43
0.0000000001
 40
0.0
 40
0.0
 40
0.0
 40
0.0
 40
0.2211463661
 40
1.0
 40
1.0
 40
1.0
 40
1.0
 10
27391.88560021287
 20
-60503.4571256806
 30
0.0
 10
27392.01483272027
 20
-60503.60865254881
 30
0.0
 10
27392.66430964307
 20
-60504.23903560221
 30
0.0
 10
27393.50116161747
 20
-60504.64264206301
 30
0.0
 10
27394.16216429507
 20
-60504.87721596861
 30
0.0
  0
SPLINE
  5
E936
330
E8CF
100
AcDbEntity
  8
0
  6
Continuous
 62
     7
100
AcDbSpline
210
0.0
220
0.0
230
1.0
 70
     8
 71
     3
 72
    14
 73
    10
 74
     0
 42
0.0000000001
 43
0.0000000001
 40
0.0
 40
0.0
 40
0.0
 40
0.0
 40
0.1003892324
 40
0.1947819535
 40
0.2918446086
 40
0.3994157384000001
 40
0.5225802772
 40
0.6637963048
 40
1.0
 40
1.0
 40
1.0
 40
1.0
 10
27887.90767788207
 20
-60705.31239912521
 30
0.0
 10
27887.42300453767
 20
-60704.4902382562
 30
0.0
 10
27886.67743427247
 20
-60702.758781111
 30
0.0
 10
27886.47967311127
 20
-60699.93574329421
 30
0.0
 10
27887.28051314547
 20
-60697.15388522481
 30
0.0
 10
27889.00448309247
 20
-60694.51599063061
 30
0.0
 10
27891.56765088547
 20
-60692.0476220202
 30
0.0
 10
27896.30977575407
 20
-60688.83372172541
 30
0.0
 10
27900.54807499687
 20
-60687.076548371
 30
0.0
 10
27903.58315544607
 20
-60686.0744085924
 30
0.0
  0
SPLINE
  5
E937
330
E8CF
100
AcDbEntity
  8
0
  6
Continuous
 62
     7
100
AcDbSpline
210
0.0
220
0.0
230
1.0
 70
     8
 71
     3
 72
     9
 73
     5
 74
     0
 42
0.0000000001
 43
0.0000000001
 40
0.0
 40
0.0
 40
0.0
 40
0.0
 40
0.4546700262
 40
1.0
 40
1.0
 40
1.0
 40
1.0
 10
27966.21562643787
 20
-60300.74624742821
 30
0.0
 10
27967.97463778527
 20
-60301.69773618601
 30
0.0
 10
27971.21998321027
 20
-60304.88338294142
 30
0.0
 10
27973.31427028667
 20
-60308.79950427521
 30
0.0
 10
27974.18491597847
 20
-60311.03454395521
 30
0.0
  0
SPLINE
  5
E938
330
E8CF
100
AcDbEntity
  8
0
  6
Continuous
 62
     7
100
AcDbSpline
210
0.0
220
0.0
230
1.0
 70
     8
 71
     3
 72
     9
 73
     5
 74
     0
 42
0.0000000001
 43
0.0000000001
 40
0.0
 40
0.0
 40
0.0
 40
0.0
 40
0.2314177616
 40
1.0
 40
1.0
 40
1.0
 40
1.0
 10
28018.45298207387
 20
-60303.45689592921
 30
0.0
 10
28017.42541041407
 20
-60303.7961852668
 30
0.0
 10
28013.17385386547
 20
-60305.82415864901
 30
0.0
 10
28009.91758298167
 20
-60309.61722661961
 30
0.0
 10
28008.25275661106
 20
-60312.80235819481
 30
0.0
  0
SPLINE
  5
E939
330
E8CF
100
AcDbEntity
  8
0
  6
Continuous
 62
     7
100
AcDbSpline
210
0.0
220
0.0
230
1.0
 70
     8
 71
     3
 72
     9
 73
     5
 74
     0
 42
0.0000000001
 43
0.0000000001
 40
0.0
 40
0.0
 40
0.0
 40
0.0
 40
0.2314176165
 40
1.0
 40
1.0
 40
1.0
 40
1.0
 10
28435.19405644047
 20
-60528.88327326081
 30
0.0
 10
28434.16648587107
 20
-60529.22256344121
 30
0.0
 10
28429.91493157407
 20
-60531.25054030561
 30
0.0
 10
28426.65866135066
 20
-60535.04360562361
 30
0.0
 10
28424.99383097687
 20
-60538.22873552561
 30
0.0
  0
SPLINE
  5
E93A
330
E8CF
100
AcDbEntity
  8
0
  6
Continuous
 62
     7
100
AcDbSpline
210
0.0
220
0.0
230
1.0
 70
     8
 71
     3
 72
     9
 73
     5
 74
     0
 42
0.0000000001
 43
0.0000000001
 40
0.0
 40
0.0
 40
0.0
 40
0.0
 40
0.5313065324
 40
1.0
 40
1.0
 40
1.0
 40
1.0
 10
28428.78011566587
 20
-60550.95973369761
 30
0.0
 10
28427.97467470467
 20
-60550.5240491702
 30
0.0
 10
28426.32490116647
 20
-60549.8982471536
 30
0.0
 10
28424.53349712208
 20
-60550.01328827041
 30
0.0
 10
28423.76629086146
 20
-60550.26617823581
 30
0.0
  0
SPLINE
  5
E93B
330
E8CF
100
AcDbEntity
  8
0
  6
Continuous
 62
     7
100
AcDbSpline
210
0.0
220
0.0
230
1.0
 70
     8
 71
     3
 72
     9
 73
     5
 74
     0
 42
0.0000000001
 43
0.0000000001
 40
0.0
 40
0.0
 40
0.0
 40
0.0
 40
0.531312892
 40
1.0
 40
1.0
 40
1.0
 40
1.0
 10
27895.37586473927
 20
-60727.0821221424
 30
0.0
 10
27894.56995377887
 20
-60726.6461867974
 30
0.0
 10
27892.91913297807
 20
-60726.0201158568
 30
0.0
 10
27891.12664908127
 20
-60726.1360184628
 30
0.0
 10
27890.35916944727
 20
-60726.3895138338
 30
0.0
  0
SPLINE
  5
E93C
330
E8CF
100
AcDbEntity
  8
0
  6
Continuous
 62
     7
100
AcDbSpline
210
0.0
220
0.0
230
1.0
 70
     8
 71
     3
 72
     9
 73
     5
 74
     0
 42
0.0000000001
 43
0.0000000001
 40
0.0
 40
0.0
 40
0.0
 40
0.0
 40
0.5206993585000001
 40
1.0
 40
1.0
 40
1.0
 40
1.0
 10
27843.13850910327
 20
-60724.3714736414
 30
0.0
 10
27844.42223159887
 20
-60723.9476069932
 30
0.0
 10
27847.05136539107
 20
-60723.51249201322
 30
0.0
 10
27849.65687507527
 20
-60724.2065217674
 30
0.0
 10
27850.75090201947
 20
-60724.79952496601
 30
0.0
  0
SPLINE
  5
E93D
330
E8CF
100
AcDbEntity
  8
0
  6
Continuous
 62
     7
100
AcDbSpline
210
0.0
220
0.0
230
1.0
 70
     8
 71
     3
 72
     9
 73
     5
 74
     0
 42
0.0000000001
 43
0.0000000001
 40
0.0
 40
0.0
 40
0.0
 40
0.0
 40
0.5206940746000001
 40
1.0
 40
1.0
 40
1.0
 40
1.0
 10
27426.39743473667
 20
-60498.94509630961
 30
0.0
 10
27427.67995337507
 20
-60498.52162383781
 30
0.0
 10
27430.30642765327
 20
-60498.08657641941
 30
0.0
 10
27432.90976290267
 20
-60498.7781603018
 30
0.0
 10
27434.00332565007
 20
-60499.36962716241
 30
0.0
  0
SPLINE
  5
E93E
330
E8CF
100
AcDbEntity
  8
0
  6
Continuous
 62
     7
100
AcDbSpline
210
0.0
220
0.0
230
1.0
 70
     8
 71
     3
 72
    11
 73
     7
 74
     0
 42
0.0000000001
 43
0.0000000001
 40
0.0
 40
0.0
 40
0.0
 40
0.0
 40
0.2600007069
 40
0.5170255291000001
 40
0.7651497935
 40
1.0
 40
1.0
 40
1.0
 40
1.0
 10
27990.02383771387
 20
-60507.48223725241
 30
0.0
 10
27988.85422539607
 20
-60509.330205433
 30
0.0
 10
27986.34716131287
 20
-60512.901882903
 30
0.0
 10
27981.82424577207
 20
-60517.52578786801
 30
0.0
 10
27976.78224312167
 20
-60521.21424533101
 30
0.0
 10
27973.11304824827
 20
-60523.03901508601
 30
0.0
 10
27971.24614887727
 20
-60523.68483455401
 30
0.0
  0
SPLINE
  5
E93F
330
E8CF
100
AcDbEntity
  8
0
  6
Continuous
 62
     7
100
AcDbSpline
210
0.0
220
0.0
230
1.0
 70
     8
 71
     3
 72
    11
 73
     7
 74
     0
 42
0.0000000001
 43
0.0000000001
 40
0.0
 40
0.0
 40
0.0
 40
0.0
 40
0.2724589576
 40
0.5347522879
 40
0.7790546115000002
 40
1.0
 40
1.0
 40
1.0
 40
1.0
 10
27955.95599495106
 20
-60505.71442306601
 30
0.0
 10
27956.93748742267
 20
-60507.651894
 30
0.0
 10
27958.96272488306
 20
-60511.4116081604
 30
0.0
 10
27962.63380725307
 20
-60516.45050192101
 30
0.0
 10
27966.69619934427
 20
-60520.60888716541
 30
0.0
 10
27969.69807746747
 20
-60522.84489654261
 30
0.0
 10
27971.24614887727
 20
-60523.68483455401
 30
0.0
  0
SPLINE
  5
E940
330
E8CF
100
AcDbEntity
  8
0
  6
Continuous
 62
     7
100
AcDbSpline
210
0.0
220
0.0
230
1.0
 70
     8
 71
     3
 72
     9
 73
     5
 74
     0
 42
0.0000000001
 43
0.0000000001
 40
0.0
 40
0.0
 40
0.0
 40
0.0
 40
0.278718098
 40
1.0
 40
1.0
 40
1.0
 40
1.0
 10
27897.77396070807
 20
-60710.4532900098
 30
0.0
 10
27897.92451828087
 20
-60710.36946481862
 30
0.0
 10
27898.48033002607
 20
-60710.1026798962
 30
0.0
 10
27899.14214261087
 20
-60710.01959484121
 30
0.0
 10
27899.57576126287
 20
-60710.12369559301
 30
0.0
  0
SPLINE
  5
E941
330
E8CF
100
AcDbEntity
  8
0
  6
Continuous
 62
     7
100
AcDbSpline
210
0.0
220
0.0
230
1.0
 70
     8
 71
     3
 72
    11
 73
     7
 74
     0
 42
0.0000000001
 43
0.0000000001
 40
0.0
 40
0.0
 40
0.0
 40
0.0
 40
0.2471233656
 40
0.5218051805
 40
0.7822469343
 40
1.0
 40
1.0
 40
1.0
 40
1.0
 10
27974.18491597887
 20
-60311.034543955
 30
0.0
 10
27976.74274470187
 20
-60309.41994446581
 30
0.0
 10
27982.58948615767
 20
-60306.65572624101
 30
0.0
 10
27992.26482563867
 20
-60305.28274802241
 30
0.0
 10
28001.46139154827
 20
-60307.48566387621
 30
0.0
 10
28006.35687957827
 20
-60310.92898918081
 30
0.0
 10
28008.25275661106
 20
-60312.80235819481
 30
0.0
  0
SPLINE
  5
E942
330
E8CF
100
AcDbEntity
  8
0
  6
Continuous
 62
     7
100
AcDbSpline
210
0.0
220
0.0
230
1.0
 70
     8
 71
     3
 72
    11
 73
     7
 74
     0
 42
0.0000000001
 43
0.0000000001
 40
0.0
 40
0.0
 40
0.0
 40
0.0
 40
0.2277556402
 40
0.4839703046000001
 40
0.7484671365000001
 40
1.0
 40
1.0
 40
1.0
 40
1.0
 10
27990.02383691147
 20
-60507.4822366044
 30
0.0
 10
27987.46991885767
 20
-60508.02252572981
 30
0.0
 10
27981.93841227067
 20
-60508.6788496246
 30
0.0
 10
27973.34532748007
 20
-60508.6738059502
 30
0.0
 10
27964.52773920387
 20
-60507.74619972401
 30
0.0
 10
27958.72809368307
 20
-60506.5062408078
 30
0.0
 10
27955.95599627947
 20
-60505.71442236461
 30
0.0
  0
SPLINE
  5
E943
330
E8CF
100
AcDbEntity
  8
0
  6
Continuous
 62
     7
100
AcDbSpline
210
0.0
220
0.0
230
1.0
 70
     8
 71
     3
 72
    15
 73
    11
 74
     0
 42
0.0000000001
 43
0.0000000001
 40
0.0
 40
0.0
 40
0.0
 40
0.0
 40
0.1614073283
 40
0.3075209992
 40
0.4352733035
 40
0.5433295027
 40
0.6370721814
 40
0.7338695576000001
 40
0.8527317630999998
 40
1.0
 40
1.0
 40
1.0
 40
1.0
 10
28424.99383097767
 20
-60538.22873552661
 30
0.0
 10
28425.77681952727
 20
-60538.3956523392
 30
0.0
 10
28427.25931648007
 20
-60538.76165365362
 30
0.0
 10
28429.30142806167
 20
-60539.4771774296
 30
0.0
 10
28430.98924159347
 20
-60540.35615032801
 30
0.0
 10
28432.25021703667
 20
-60541.43511099541
 30
0.0
 10
28432.91623438208
 20
-60542.83491782181
 30
0.0
 10
28432.68354644747
 20
-60544.42679244081
 30
0.0
 10
28431.68498683647
 20
-60545.95990966141
 30
0.0
 10
28430.72665988767
 20
-60546.87722466501
 30
0.0
 10
28430.16707975026
 20
-60547.34672521361
 30
0.0
  0
ENDBLK
  5
E944
330
E8CF
100
AcDbEntity
  8
0
 62
     3
100
AcDbBlockEnd
  0
BLOCK
  5
E946
330
E945
100
AcDbEntity
  8
0
100
AcDbBlockBegin
  2
block 3
 70
     0
 10
0.0
 20
0.0
 30
0.0
  3
block 3
  1

  0
SPLINE
  5
E947
330
E945
100
AcDbEntity
  8
Layer 1
370
     0
100
AcDbSpline
210
0.0
220
0.0
230
1.0
 70
    11
 71
     3
 72
    17
 73
    13
 74
     0
 42
0.0000000001
 43
0.0000000001
 40
0.0
 40
0.0
 40
0.0
 40
0.0
 40
1.0
 40
1.0
 40
1.0
 40
2.0
 40
2.0
 40
2.0
 40
3.0
 40
3.0
 40
3.0
 40
4.0
 40
4.0
 40
4.0
 40
4.0
 10
92.91032466980508
 20
232.0802162493044
 30
0.0
 10
93.45137727269296
 20
232.0802162493044
 30
0.0
 10
93.89011047216937
 20
232.5149875863592
 30
0.0
 10
93.89011047216937
 20
233.0513893072738
 30
0.0
 10
93.89011047216937
 20
233.5874465184127
 30
0.0
 10
93.45137727269296
 20
234.0225623652433
 30
0.0
 10
92.91032466980508
 20
234.0225623652433
 30
0.0
 10
92.36927206691721
 20
234.0225623652433
 30
0.0
 10
91.93019435766499
 20
233.5874465184127
 30
0.0
 10
91.93019435766499
 20
233.0513893072738
 30
0.0
 10
91.93019435766499
 20
232.5149875863592
 30
0.0
 10
92.36927206691721
 20
232.0802162493044
 30
0.0
 10
92.91032466980508
 20
232.0802162493044
 30
0.0
  0
ENDBLK
  5
E948
330
E945
100
AcDbEntity
  8
0
100
AcDbBlockEnd
  0
BLOCK
  5
E94A
330
E949
100
AcDbEntity
  8
0
100
AcDbBlockBegin
  2
block 4
 70
     0
 10
0.0
 20
0.0
 30
0.0
  3
block 4
  1

  0
SPLINE
  5
E94B
330
E949
100
AcDbEntity
  8
Layer 1
370
     0
100
AcDbSpline
210
0.0
220
0.0
230
1.0
 70
    11
 71
     3
 72
    17
 73
    13
 74
     0
 42
0.0000000001
 43
0.0000000001
 40
0.0
 40
0.0
 40
0.0
 40
0.0
 40
1.0
 40
1.0
 40
1.0
 40
2.0
 40
2.0
 40
2.0
 40
3.0
 40
3.0
 40
3.0
 40
4.0
 40
4.0
 40
4.0
 40
4.0
 10
106.8159450051537
 20
232.0802162493044
 30
0.0
 10
107.3568253531537
 20
232.0802162493044
 30
0.0
 10
107.7953862977422
 20
232.5149875863592
 30
0.0
 10
107.7953862977422
 20
233.0513893072738
 30
0.0
 10
107.7953862977422
 20
233.5874465184127
 30
0.0
 10
107.3568253531537
 20
234.0225623652433
 30
0.0
 10
106.8159450051537
 20
234.0225623652433
 30
0.0
 10
106.2747201473779
 20
234.0225623652433
 30
0.0
 10
105.8354701832378
 20
233.5874465184127
 30
0.0
 10
105.8354701832378
 20
233.0513893072738
 30
0.0
 10
105.8354701832378
 20
232.5149875863592
 30
0.0
 10
106.2747201473779
 20
232.0802162493044
 30
0.0
 10
106.8159450051537
 20
232.0802162493044
 30
0.0
  0
ENDBLK
  5
E94C
330
E949
100
AcDbEntity
  8
0
100
AcDbBlockEnd
  0
BLOCK
  5
E94E
330
E94D
100
AcDbEntity
  8
0
 62
     3
100
AcDbBlockBegin
  2
121
 70
     0
 10
0.0
 20
0.0
 30
0.0
  3
121
  1

  0
HATCH
  5
E94F
330
E94D
100
AcDbEntity
  8
轮廓线.
 62
     7
100
AcDbHatch
 10
0.0
 20
0.0
 30
0.0
210
0.0
220
0.0
230
1.0
  2
SOLID
 70
     1
 71
     1
 91
        9
 92
       16
 93
        1
 72
     4
 94
        3
 73
     0
 74
     0
 95
       17
 96
       13
 40
0.0
 40
0.0
 40
0.0
 40
0.0
 40
1.0
 40
1.0
 40
1.0
 40
2.0
 40
2.0
 40
2.0
 40
3.0
 40
3.0
 40
3.0
 40
4.0
 40
4.0
 40
4.0
 40
4.0
 10
2599.208589596989
 20
-32003.85491738428
 10
2599.749469944989
 20
-32003.85491738428
 10
2600.188030889578
 20
-32003.42014604723
 10
2600.188030889578
 20
-32002.88374432631
 10
2600.188030889578
 20
-32002.34768711518
 10
2599.749469944989
 20
-32001.91257126834
 10
2599.208589596989
 20
-32001.91257126834
 10
2598.667364739213
 20
-32001.91257126834
 10
2598.228114775073
 20
-32002.34768711518
 10
2598.228114775073
 20
-32002.88374432631
 10
2598.228114775073
 20
-32003.42014604723
 10
2598.667364739213
 20
-32003.85491738428
 10
2599.208589596989
 20
-32003.85491738428
 97
        1
330
E958
 92
        1
 93
        1
 72
     4
 94
        3
 73
     0
 74
     0
 95
       32
 96
       28
 40
0.0
 40
0.0
 40
0.0
 40
0.0
 40
1.0
 40
1.0
 40
1.0
 40
2.0
 40
2.0
 40
2.0
 40
3.0
 40
3.0
 40
3.0
 40
4.0
 40
4.0
 40
4.0
 40
5.0
 40
5.0
 40
5.0
 40
6.0
 40
6.0
 40
6.0
 40
7.0
 40
7.0
 40
7.0
 40
8.0
 40
8.0
 40
8.0
 40
9.0
 40
9.0
 40
9.0
 40
9.0
 10
2600.178384615853
 20
-32001.43611424841
 10
2600.178384615853
 20
-32001.43611424841
 10
2600.178384615853
 20
-32001.71757873524
 10
2600.178384615853
 20
-32001.71757873524
 10
2599.913112088487
 20
-32001.50122659605
 10
2599.578593096188
 20
-32001.36583425416
 10
2599.208589596981
 20
-32001.36583425416
 10
2598.361784568073
 20
-32001.36583425416
 10
2597.675865604471
 20
-32002.0455520418
 10
2597.675865604471
 20
-32002.88374432631
 10
2597.675865604471
 20
-32003.72297014015
 10
2598.361784568073
 20
-32004.40234341802
 10
2599.208589596981
 20
-32004.40234341802
 10
2599.578593096188
 20
-32004.40234341802
 10
2599.913112088487
 20
-32004.26695107613
 10
2600.178384615853
 20
-32004.05059893693
 10
2600.178384615853
 20
-32004.05059893693
 10
2600.178384615853
 20
-32004.33206342376
 10
2600.178384615853
 20
-32004.33206342376
 10
2600.178384615853
 20
-32004.33206342376
 10
2600.743380648159
 20
-32004.33206342376
 10
2600.743380648159
 20
-32004.33206342376
 10
2600.743380648159
 20
-32004.33206342376
 10
2600.743380648159
 20
-32001.43611424841
 10
2600.743380648159
 20
-32001.43611424841
 10
2600.743380648159
 20
-32001.43611424841
 10
2600.178384615853
 20
-32001.43611424841
 10
2600.178384615853
 20
-32001.43611424841
 97
        1
330
E957
 92
       16
 93
        1
 72
     4
 94
        3
 73
     0
 74
     0
 95
       17
 96
       13
 40
0.0
 40
0.0
 40
0.0
 40
0.0
 40
1.0
 40
1.0
 40
1.0
 40
2.0
 40
2.0
 40
2.0
 40
3.0
 40
3.0
 40
3.0
 40
4.0
 40
4.0
 40
4.0
 40
4.0
 10
2585.30296926164
 20
-32003.85491738428
 10
2585.844021864528
 20
-32003.85491738428
 10
2586.282755064005
 20
-32003.42014604723
 10
2586.282755064005
 20
-32002.88374432631
 10
2586.282755064005
 20
-32002.34768711518
 10
2585.844021864528
 20
-32001.91257126834
 10
2585.30296926164
 20
-32001.91257126834
 10
2584.761916658753
 20
-32001.91257126834
 10
2584.3228389495
 20
-32002.34768711518
 10
2584.3228389495
 20
-32002.88374432631
 10
2584.3228389495
 20
-32003.42014604723
 10
2584.761916658753
 20
-32003.85491738428
 10
2585.30296926164
 20
-32003.85491738428
 97
        1
330
E956
 92
       16
 93
        1
 72
     4
 94
        3
 73
     0
 74
     0
 95
       17
 96
       13
 40
0.0
 40
0.0
 40
0.0
 40
0.0
 40
1.0
 40
1.0
 40
1.0
 40
2.0
 40
2.0
 40
2.0
 40
3.0
 40
3.0
 40
3.0
 40
4.0
 40
4.0
 40
4.0
 40
4.0
 10
2590.941388507201
 20
-32003.85491738428
 10
2591.482268855225
 20
-32003.85491738428
 10
2591.921518819351
 20
-32003.42014604723
 10
2591.921518819351
 20
-32002.88374432631
 10
2591.921518819351
 20
-32002.34768711517
 10
2591.482268855225
 20
-32001.91257126834
 10
2590.941388507201
 20
-32001.91257126834
 10
2590.399991394561
 20
-32001.91257126834
 10
2589.961258195066
 20
-32002.34768711517
 10
2589.961258195066
 20
-32002.88374432631
 10
2589.961258195066
 20
-32003.42014604723
 10
2590.399991394561
 20
-32003.85491738428
 10
2590.941388507201
 20
-32003.85491738428
 97
        1
330
E955
 92
        1
 93
        1
 72
     4
 94
        3
 73
     0
 74
     0
 95
       50
 96
       46
 40
0.0
 40
0.0
 40
0.0
 40
0.0
 40
1.0
 40
1.0
 40
1.0
 40
2.0
 40
2.0
 40
2.0
 40
3.0
 40
3.0
 40
3.0
 40
4.0
 40
4.0
 40
4.0
 40
5.0
 40
5.0
 40
5.0
 40
6.0
 40
6.0
 40
6.0
 40
7.0
 40
7.0
 40
7.0
 40
8.0
 40
8.0
 40
8.0
 40
9.0
 40
9.0
 40
9.0
 40
10.0
 40
10.0
 40
10.0
 40
11.0
 40
11.0
 40
11.0
 40
12.0
 40
12.0
 40
12.0
 40
13.0
 40
13.0
 40
13.0
 40
14.0
 40
14.0
 40
14.0
 40
15.0
 40
15.0
 40
15.0
 40
15.0
 10
2595.129249341788
 20
-32001.75271873237
 10
2594.67863055505
 20
-32001.17704289701
 10
2593.831136506576
 20
-32001.373757979
 10
2593.670594951067
 20
-32001.63145129129
 10
2593.670594951067
 20
-32001.63145129129
 10
2593.670594951067
 20
-32001.43611424841
 10
2593.670594951067
 20
-32001.43611424841
 10
2593.670594951067
 20
-32001.43611424841
 10
2593.105598918761
 20
-32001.43611424841
 10
2593.105598918761
 20
-32001.43611424841
 10
2593.105598918761
 20
-32001.43611424841
 10
2593.105598918761
 20
-32004.33206342376
 10
2593.105598918761
 20
-32004.33206342376
 10
2593.105598918761
 20
-32004.33206342376
 10
2593.670594951067
 20
-32004.33206342376
 10
2593.670594951067
 20
-32004.33206342376
 10
2593.670594951067
 20
-32004.33206342376
 10
2593.670594951067
 20
-32002.38799475894
 10
2593.670594951067
 20
-32002.38799475894
 10
2593.670594951067
 20
-32001.75995343767
 10
2594.853641521144
 20
-32001.75995343767
 10
2594.853641521144
 20
-32002.38420515141
 10
2594.853641521144
 20
-32002.38420515141
 10
2594.853641521144
 20
-32004.33240793353
 10
2594.853641521144
 20
-32004.33240793353
 10
2594.853641521144
 20
-32004.33240793353
 10
2595.419326573015
 20
-32004.33240793353
 10
2595.419326573015
 20
-32004.33240793353
 10
2595.419326573015
 20
-32004.33240793353
 10
2595.419326573015
 20
-32002.38420515141
 10
2595.419326573015
 20
-32002.38420515141
 10
2595.419326573015
 20
-32001.75995343767
 10
2596.564821577531
 20
-32001.75271873237
 10
2596.565166087314
 20
-32002.3814490732
 10
2596.565166087314
 20
-32002.3814490732
 10
2596.565166087314
 20
-32004.33240793353
 10
2596.565166087314
 20
-32004.33240793353
 10
2596.565166087314
 20
-32004.33240793353
 10
2597.13016211962
 20
-32004.33240793353
 10
2597.13016211962
 20
-32004.33240793353
 10
2597.13016211962
 20
-32004.33240793353
 10
2597.13016211962
 20
-32002.3814490732
 10
2597.13016211962
 20
-32002.3814490732
 10
2597.092266044276
 20
-32001.41165405433
 10
2595.751433996864
 20
-32001.02580310545
 10
2595.129249341788
 20
-32001.75271873237
 97
        1
330
E954
 92
        1
 93
        1
 72
     4
 94
        3
 73
     0
 74
     0
 95
       29
 96
       25
 40
0.0
 40
0.0
 40
0.0
 40
0.0
 40
1.0
 40
1.0
 40
1.0
 40
2.0
 40
2.0
 40
2.0
 40
3.0
 40
3.0
 40
3.0
 40
4.0
 40
4.0
 40
4.0
 40
5.0
 40
5.0
 40
5.0
 40
6.0
 40
6.0
 40
6.0
 40
7.0
 40
7.0
 40
7.0
 40
8.0
 40
8.0
 40
8.0
 40
8.0
 10
2588.269026176351
 20
-32001.65591148537
 10
2588.269026176351
 20
-32001.65591148537
 10
2588.269026176351
 20
-32001.43611424841
 10
2588.269026176351
 20
-32001.43611424841
 10
2588.269026176351
 20
-32001.43611424841
 10
2587.703857889153
 20
-32001.43611424841
 10
2587.703857889153
 20
-32001.43611424841
 10
2587.703857889153
 20
-32001.43611424841
 10
2587.703857889153
 20
-32004.33206342376
 10
2587.703857889153
 20
-32004.33206342376
 10
2587.703857889153
 20
-32004.33206342376
 10
2588.269026176351
 20
-32004.33206342376
 10
2588.269026176351
 20
-32004.33206342376
 10
2588.269026176351
 20
-32004.33206342376
 10
2588.269026176351
 20
-32002.41831161922
 10
2588.269026176351
 20
-32002.41831161922
 10
2588.269026176351
 20
-32002.1423592888
 10
2588.589937032508
 20
-32001.8505595087
 10
2589.063465719331
 20
-32001.93358636466
 10
2589.063465719331
 20
-32001.93358636466
 10
2589.063465719331
 20
-32001.373757979
 10
2589.063465719331
 20
-32001.373757979
 10
2588.620081637886
 20
-32001.373757979
 10
2588.45230537707
 20
-32001.46677561847
 10
2588.269026176351
 20
-32001.65591148537
 97
        1
330
E953
 92
        1
 93
        1
 72
     4
 94
        3
 73
     0
 74
     0
 95
       32
 96
       28
 40
0.0
 40
0.0
 40
0.0
 40
0.0
 40
1.0
 40
1.0
 40
1.0
 40
2.0
 40
2.0
 40
2.0
 40
3.0
 40
3.0
 40
3.0
 40
4.0
 40
4.0
 40
4.0
 40
5.0
 40
5.0
 40
5.0
 40
6.0
 40
6.0
 40
6.0
 40
7.0
 40
7.0
 40
7.0
 40
8.0
 40
8.0
 40
8.0
 40
9.0
 40
9.0
 40
9.0
 40
9.0
 10
2586.272764280513
 20
-32001.43611424841
 10
2586.272764280513
 20
-32001.43611424841
 10
2586.272764280513
 20
-32001.71757873524
 10
2586.272764280513
 20
-32001.71757873524
 10
2586.007836262916
 20
-32001.50122659605
 10
2585.672972760849
 20
-32001.36583425416
 10
2585.302969261642
 20
-32001.36583425416
 10
2584.456508742516
 20
-32001.36583425416
 10
2583.770417524009
 20
-32002.0455520418
 10
2583.770417524009
 20
-32002.88374432631
 10
2583.770417524009
 20
-32003.72297014015
 10
2584.456508742516
 20
-32004.40234341802
 10
2585.302969261642
 20
-32004.40234341802
 10
2585.672972760849
 20
-32004.40234341802
 10
2586.007836262916
 20
-32004.26695107613
 10
2586.272764280513
 20
-32004.05059893693
 10
2586.272764280513
 20
-32004.05059893693
 10
2586.272764280513
 20
-32004.33206342376
 10
2586.272764280513
 20
-32004.33206342376
 10
2586.272764280513
 20
-32004.33206342376
 10
2586.837932567682
 20
-32004.33206342376
 10
2586.837932567682
 20
-32004.33206342376
 10
2586.837932567682
 20
-32004.33206342376
 10
2586.837932567682
 20
-32001.43611424841
 10
2586.837932567682
 20
-32001.43611424841
 10
2586.837932567682
 20
-32001.43611424841
 10
2586.272764280513
 20
-32001.43611424841
 10
2586.272764280513
 20
-32001.43611424841
 97
        1
330
E952
 92
        1
 93
        1
 72
     4
 94
        3
 73
     0
 74
     0
 95
       35
 96
       31
 40
0.0
 40
0.0
 40
0.0
 40
0.0
 40
1.0
 40
1.0
 40
1.0
 40
2.0
 40
2.0
 40
2.0
 40
3.0
 40
3.0
 40
3.0
 40
4.0
 40
4.0
 40
4.0
 40
5.0
 40
5.0
 40
5.0
 40
6.0
 40
6.0
 40
6.0
 40
7.0
 40
7.0
 40
7.0
 40
8.0
 40
8.0
 40
8.0
 40
9.0
 40
9.0
 40
9.0
 40
10.0
 40
10.0
 40
10.0
 40
10.0
 10
2582.671603594108
 20
-32003.31886017314
 10
2582.510028509265
 20
-32003.63615367665
 10
2582.181538438033
 20
-32003.85491738428
 10
2581.799132586895
 20
-32003.85491738428
 10
2581.257907729118
 20
-32003.85491738428
 10
2580.818830019869
 20
-32003.42014604723
 10
2580.818830019869
 20
-32002.88374432631
 10
2580.818830019869
 20
-32002.34768711517
 10
2581.257907729118
 20
-32001.91257126834
 10
2581.799132586895
 20
-32001.91257126834
 10
2582.181538438033
 20
-32001.91257126834
 10
2582.517607724339
 20
-32002.1323685053
 10
2582.679527318937
 20
-32002.44897298926
 10
2582.679527318937
 20
-32002.44897298926
 10
2583.265366192691
 20
-32002.44897298926
 10
2583.265366192691
 20
-32002.44897298926
 10
2583.079330913753
 20
-32001.81783108
 10
2582.495731353558
 20
-32001.36583425416
 10
2581.799132586895
 20
-32001.36583425416
 10
2580.952672067784
 20
-32001.36583425416
 10
2580.266925359045
 20
-32002.0455520418
 10
2580.266925359045
 20
-32002.88374432631
 10
2580.266925359045
 20
-32003.72297014015
 10
2580.952672067784
 20
-32004.40234341802
 10
2581.799132586895
 20
-32004.40234341802
 10
2582.495731353558
 20
-32004.40234341802
 10
2583.075541306231
 20
-32003.94965757263
 10
2583.261576585153
 20
-32003.31886017314
 10
2583.261576585153
 20
-32003.31886017314
 10
2582.671603594108
 20
-32003.31886017314
 10
2582.671603594108
 20
-32003.31886017314
 97
        1
330
E951
 92
        1
 93
        1
 72
     4
 94
        3
 73
     0
 74
     0
 95
       17
 96
       13
 40
0.0
 40
0.0
 40
0.0
 40
0.0
 40
1.0
 40
1.0
 40
1.0
 40
2.0
 40
2.0
 40
2.0
 40
3.0
 40
3.0
 40
3.0
 40
4.0
 40
4.0
 40
4.0
 40
4.0
 10
2590.941388507201
 20
-32004.40234341802
 10
2591.787504516558
 20
-32004.40234341802
 10
2592.473423480175
 20
-32003.72297014015
 10
2592.473423480175
 20
-32002.88374432631
 10
2592.473423480175
 20
-32002.0455520418
 10
2591.787504516558
 20
-32001.36583425416
 10
2590.941388507201
 20
-32001.36583425416
 10
2590.095272497858
 20
-32001.36583425416
 10
2589.40918127935
 20
-32002.0455520418
 10
2589.40918127935
 20
-32002.88374432631
 10
2589.40918127935
 20
-32003.72297014015
 10
2590.095272497858
 20
-32004.40234341802
 10
2590.941388507201
 20
-32004.40234341802
 97
        1
330
E950
 75
     0
 76
     1
 98
        1
 10
-875.4376178839452
 20
-29768.58613146539
450
        0
451
        0
460
0.0
461
0.0
452
        0
462
0.0
453
        0
470

1001
ACAD
1010
0.0
1020
0.0
1030
0.0
  0
SPLINE
  5
E950
102
{ACAD_REACTORS
330
E94F
102
}
330
E94D
100
AcDbEntity
  8
Layer 1
 62
     7
370
     0
100
AcDbSpline
210
0.0
220
0.0
230
1.0
 70
    11
 71
     3
 72
    17
 73
    13
 74
     0
 42
0.0000000001
 43
0.0000000001
 40
0.0
 40
0.0
 40
0.0
 40
0.0
 40
1.0
 40
1.0
 40
1.0
 40
2.0
 40
2.0
 40
2.0
 40
3.0
 40
3.0
 40
3.0
 40
4.0
 40
4.0
 40
4.0
 40
4.0
 10
2590.941388507201
 20
-32004.40234341802
 30
0.0
 10
2591.787504516558
 20
-32004.40234341802
 30
0.0
 10
2592.473423480175
 20
-32003.72297014015
 30
0.0
 10
2592.473423480175
 20
-32002.88374432631
 30
0.0
 10
2592.473423480175
 20
-32002.0455520418
 30
0.0
 10
2591.787504516558
 20
-32001.36583425416
 30
0.0
 10
2590.941388507201
 20
-32001.36583425416
 30
0.0
 10
2590.095272497858
 20
-32001.36583425416
 30
0.0
 10
2589.40918127935
 20
-32002.0455520418
 30
0.0
 10
2589.40918127935
 20
-32002.88374432631
 30
0.0
 10
2589.40918127935
 20
-32003.72297014015
 30
0.0
 10
2590.095272497858
 20
-32004.40234341802
 30
0.0
 10
2590.941388507201
 20
-32004.40234341802
 30
0.0
  0
SPLINE
  5
E951
102
{ACAD_REACTORS
330
E94F
102
}
330
E94D
100
AcDbEntity
  8
Layer 1
 62
     7
370
     0
100
AcDbSpline
210
0.0
220
0.0
230
1.0
 70
    11
 71
     3
 72
    35
 73
    31
 74
     0
 42
0.0000000001
 43
0.0000000001
 40
0.0
 40
0.0
 40
0.0
 40
0.0
 40
1.0
 40
1.0
 40
1.0
 40
2.0
 40
2.0
 40
2.0
 40
3.0
 40
3.0
 40
3.0
 40
4.0
 40
4.0
 40
4.0
 40
5.0
 40
5.0
 40
5.0
 40
6.0
 40
6.0
 40
6.0
 40
7.0
 40
7.0
 40
7.0
 40
8.0
 40
8.0
 40
8.0
 40
9.0
 40
9.0
 40
9.0
 40
10.0
 40
10.0
 40
10.0
 40
10.0
 10
2582.671603594108
 20
-32003.31886017314
 30
0.0
 10
2582.510028509265
 20
-32003.63615367665
 30
0.0
 10
2582.181538438033
 20
-32003.85491738428
 30
0.0
 10
2581.799132586895
 20
-32003.85491738428
 30
0.0
 10
2581.257907729118
 20
-32003.85491738428
 30
0.0
 10
2580.818830019869
 20
-32003.42014604723
 30
0.0
 10
2580.818830019869
 20
-32002.88374432631
 30
0.0
 10
2580.818830019869
 20
-32002.34768711517
 30
0.0
 10
2581.257907729118
 20
-32001.91257126834
 30
0.0
 10
2581.799132586895
 20
-32001.91257126834
 30
0.0
 10
2582.181538438033
 20
-32001.91257126834
 30
0.0
 10
2582.517607724339
 20
-32002.1323685053
 30
0.0
 10
2582.679527318937
 20
-32002.44897298926
 30
0.0
 10
2582.679527318937
 20
-32002.44897298926
 30
0.0
 10
2583.265366192691
 20
-32002.44897298926
 30
0.0
 10
2583.265366192691
 20
-32002.44897298926
 30
0.0
 10
2583.079330913753
 20
-32001.81783108
 30
0.0
 10
2582.495731353558
 20
-32001.36583425416
 30
0.0
 10
2581.799132586895
 20
-32001.36583425416
 30
0.0
 10
2580.952672067784
 20
-32001.36583425416
 30
0.0
 10
2580.266925359045
 20
-32002.0455520418
 30
0.0
 10
2580.266925359045
 20
-32002.88374432631
 30
0.0
 10
2580.266925359045
 20
-32003.72297014015
 30
0.0
 10
2580.952672067784
 20
-32004.40234341802
 30
0.0
 10
2581.799132586895
 20
-32004.40234341802
 30
0.0
 10
2582.495731353558
 20
-32004.40234341802
 30
0.0
 10
2583.075541306231
 20
-32003.94965757263
 30
0.0
 10
2583.261576585153
 20
-32003.31886017314
 30
0.0
 10
2583.261576585153
 20
-32003.31886017314
 30
0.0
 10
2582.671603594108
 20
-32003.31886017314
 30
0.0
 10
2582.671603594108
 20
-32003.31886017314
 30
0.0
  0
SPLINE
  5
E952
102
{ACAD_REACTORS
330
E94F
102
}
330
E94D
100
AcDbEntity
  8
Layer 1
 62
     7
370
     0
100
AcDbSpline
210
0.0
220
0.0
230
1.0
 70
    11
 71
     3
 72
    32
 73
    28
 74
     0
 42
0.0000000001
 43
0.0000000001
 40
0.0
 40
0.0
 40
0.0
 40
0.0
 40
1.0
 40
1.0
 40
1.0
 40
2.0
 40
2.0
 40
2.0
 40
3.0
 40
3.0
 40
3.0
 40
4.0
 40
4.0
 40
4.0
 40
5.0
 40
5.0
 40
5.0
 40
6.0
 40
6.0
 40
6.0
 40
7.0
 40
7.0
 40
7.0
 40
8.0
 40
8.0
 40
8.0
 40
9.0
 40
9.0
 40
9.0
 40
9.0
 10
2586.272764280513
 20
-32001.43611424841
 30
0.0
 10
2586.272764280513
 20
-32001.43611424841
 30
0.0
 10
2586.272764280513
 20
-32001.71757873524
 30
0.0
 10
2586.272764280513
 20
-32001.71757873524
 30
0.0
 10
2586.007836262916
 20
-32001.50122659605
 30
0.0
 10
2585.672972760849
 20
-32001.36583425416
 30
0.0
 10
2585.302969261642
 20
-32001.36583425416
 30
0.0
 10
2584.456508742516
 20
-32001.36583425416
 30
0.0
 10
2583.770417524009
 20
-32002.0455520418
 30
0.0
 10
2583.770417524009
 20
-32002.88374432631
 30
0.0
 10
2583.770417524009
 20
-32003.72297014015
 30
0.0
 10
2584.456508742516
 20
-32004.40234341802
 30
0.0
 10
2585.302969261642
 20
-32004.40234341802
 30
0.0
 10
2585.672972760849
 20
-32004.40234341802
 30
0.0
 10
2586.007836262916
 20
-32004.26695107613
 30
0.0
 10
2586.272764280513
 20
-32004.05059893693
 30
0.0
 10
2586.272764280513
 20
-32004.05059893693
 30
0.0
 10
2586.272764280513
 20
-32004.33206342376
 30
0.0
 10
2586.272764280513
 20
-32004.33206342376
 30
0.0
 10
2586.272764280513
 20
-32004.33206342376
 30
0.0
 10
2586.837932567682
 20
-32004.33206342376
 30
0.0
 10
2586.837932567682
 20
-32004.33206342376
 30
0.0
 10
2586.837932567682
 20
-32004.33206342376
 30
0.0
 10
2586.837932567682
 20
-32001.43611424841
 30
0.0
 10
2586.837932567682
 20
-32001.43611424841
 30
0.0
 10
2586.837932567682
 20
-32001.43611424841
 30
0.0
 10
2586.272764280513
 20
-32001.43611424841
 30
0.0
 10
2586.272764280513
 20
-32001.43611424841
 30
0.0
  0
SPLINE
  5
E953
102
{ACAD_REACTORS
330
E94F
102
}
330
E94D
100
AcDbEntity
  8
Layer 1
 62
     7
370
     0
100
AcDbSpline
210
0.0
220
0.0
230
1.0
 70
    11
 71
     3
 72
    29
 73
    25
 74
     0
 42
0.0000000001
 43
0.0000000001
 40
0.0
 40
0.0
 40
0.0
 40
0.0
 40
1.0
 40
1.0
 40
1.0
 40
2.0
 40
2.0
 40
2.0
 40
3.0
 40
3.0
 40
3.0
 40
4.0
 40
4.0
 40
4.0
 40
5.0
 40
5.0
 40
5.0
 40
6.0
 40
6.0
 40
6.0
 40
7.0
 40
7.0
 40
7.0
 40
8.0
 40
8.0
 40
8.0
 40
8.0
 10
2588.269026176351
 20
-32001.65591148537
 30
0.0
 10
2588.269026176351
 20
-32001.65591148537
 30
0.0
 10
2588.269026176351
 20
-32001.43611424841
 30
0.0
 10
2588.269026176351
 20
-32001.43611424841
 30
0.0
 10
2588.269026176351
 20
-32001.43611424841
 30
0.0
 10
2587.703857889153
 20
-32001.43611424841
 30
0.0
 10
2587.703857889153
 20
-32001.43611424841
 30
0.0
 10
2587.703857889153
 20
-32001.43611424841
 30
0.0
 10
2587.703857889153
 20
-32004.33206342376
 30
0.0
 10
2587.703857889153
 20
-32004.33206342376
 30
0.0
 10
2587.703857889153
 20
-32004.33206342376
 30
0.0
 10
2588.269026176351
 20
-32004.33206342376
 30
0.0
 10
2588.269026176351
 20
-32004.33206342376
 30
0.0
 10
2588.269026176351
 20
-32004.33206342376
 30
0.0
 10
2588.269026176351
 20
-32002.41831161922
 30
0.0
 10
2588.269026176351
 20
-32002.41831161922
 30
0.0
 10
2588.269026176351
 20
-32002.1423592888
 30
0.0
 10
2588.589937032508
 20
-32001.8505595087
 30
0.0
 10
2589.063465719331
 20
-32001.93358636466
 30
0.0
 10
2589.063465719331
 20
-32001.93358636466
 30
0.0
 10
2589.063465719331
 20
-32001.373757979
 30
0.0
 10
2589.063465719331
 20
-32001.373757979
 30
0.0
 10
2588.620081637886
 20
-32001.373757979
 30
0.0
 10
2588.45230537707
 20
-32001.46677561847
 30
0.0
 10
2588.269026176351
 20
-32001.65591148537
 30
0.0
  0
SPLINE
  5
E954
102
{ACAD_REACTORS
330
E94F
102
}
330
E94D
100
AcDbEntity
  8
Layer 1
 62
     7
370
     0
100
AcDbSpline
210
0.0
220
0.0
230
1.0
 70
    11
 71
     3
 72
    50
 73
    46
 74
     0
 42
0.0000000001
 43
0.0000000001
 40
0.0
 40
0.0
 40
0.0
 40
0.0
 40
1.0
 40
1.0
 40
1.0
 40
2.0
 40
2.0
 40
2.0
 40
3.0
 40
3.0
 40
3.0
 40
4.0
 40
4.0
 40
4.0
 40
5.0
 40
5.0
 40
5.0
 40
6.0
 40
6.0
 40
6.0
 40
7.0
 40
7.0
 40
7.0
 40
8.0
 40
8.0
 40
8.0
 40
9.0
 40
9.0
 40
9.0
 40
10.0
 40
10.0
 40
10.0
 40
11.0
 40
11.0
 40
11.0
 40
12.0
 40
12.0
 40
12.0
 40
13.0
 40
13.0
 40
13.0
 40
14.0
 40
14.0
 40
14.0
 40
15.0
 40
15.0
 40
15.0
 40
15.0
 10
2595.129249341788
 20
-32001.75271873237
 30
0.0
 10
2594.67863055505
 20
-32001.17704289701
 30
0.0
 10
2593.831136506576
 20
-32001.373757979
 30
0.0
 10
2593.670594951067
 20
-32001.63145129129
 30
0.0
 10
2593.670594951067
 20
-32001.63145129129
 30
0.0
 10
2593.670594951067
 20
-32001.43611424841
 30
0.0
 10
2593.670594951067
 20
-32001.43611424841
 30
0.0
 10
2593.670594951067
 20
-32001.43611424841
 30
0.0
 10
2593.105598918761
 20
-32001.43611424841
 30
0.0
 10
2593.105598918761
 20
-32001.43611424841
 30
0.0
 10
2593.105598918761
 20
-32001.43611424841
 30
0.0
 10
2593.105598918761
 20
-32004.33206342376
 30
0.0
 10
2593.105598918761
 20
-32004.33206342376
 30
0.0
 10
2593.105598918761
 20
-32004.33206342376
 30
0.0
 10
2593.670594951067
 20
-32004.33206342376
 30
0.0
 10
2593.670594951067
 20
-32004.33206342376
 30
0.0
 10
2593.670594951067
 20
-32004.33206342376
 30
0.0
 10
2593.670594951067
 20
-32002.38799475894
 30
0.0
 10
2593.670594951067
 20
-32002.38799475894
 30
0.0
 10
2593.670594951067
 20
-32001.75995343767
 30
0.0
 10
2594.853641521144
 20
-32001.75995343767
 30
0.0
 10
2594.853641521144
 20
-32002.38420515141
 30
0.0
 10
2594.853641521144
 20
-32002.38420515141
 30
0.0
 10
2594.853641521144
 20
-32004.33240793353
 30
0.0
 10
2594.853641521144
 20
-32004.33240793353
 30
0.0
 10
2594.853641521144
 20
-32004.33240793353
 30
0.0
 10
2595.419326573015
 20
-32004.33240793353
 30
0.0
 10
2595.419326573015
 20
-32004.33240793353
 30
0.0
 10
2595.419326573015
 20
-32004.33240793353
 30
0.0
 10
2595.419326573015
 20
-32002.38420515141
 30
0.0
 10
2595.419326573015
 20
-32002.38420515141
 30
0.0
 10
2595.419326573015
 20
-32001.75995343767
 30
0.0
 10
2596.564821577531
 20
-32001.75271873237
 30
0.0
 10
2596.565166087314
 20
-32002.3814490732
 30
0.0
 10
2596.565166087314
 20
-32002.3814490732
 30
0.0
 10
2596.565166087314
 20
-32004.33240793353
 30
0.0
 10
2596.565166087314
 20
-32004.33240793353
 30
0.0
 10
2596.565166087314
 20
-32004.33240793353
 30
0.0
 10
2597.13016211962
 20
-32004.33240793353
 30
0.0
 10
2597.13016211962
 20
-32004.33240793353
 30
0.0
 10
2597.13016211962
 20
-32004.33240793353
 30
0.0
 10
2597.13016211962
 20
-32002.3814490732
 30
0.0
 10
2597.13016211962
 20
-32002.3814490732
 30
0.0
 10
2597.092266044276
 20
-32001.41165405433
 30
0.0
 10
2595.751433996864
 20
-32001.02580310545
 30
0.0
 10
2595.129249341788
 20
-32001.75271873237
 30
0.0
  0
SPLINE
  5
E955
102
{ACAD_REACTORS
330
E94F
102
}
330
E94D
100
AcDbEntity
  8
Layer 1
 62
     7
370
     0
100
AcDbSpline
210
0.0
220
0.0
230
1.0
 70
    11
 71
     3
 72
    17
 73
    13
 74
     0
 42
0.0000000001
 43
0.0000000001
 40
0.0
 40
0.0
 40
0.0
 40
0.0
 40
1.0
 40
1.0
 40
1.0
 40
2.0
 40
2.0
 40
2.0
 40
3.0
 40
3.0
 40
3.0
 40
4.0
 40
4.0
 40
4.0
 40
4.0
 10
2590.941388507201
 20
-32003.85491738428
 30
0.0
 10
2591.482268855225
 20
-32003.85491738428
 30
0.0
 10
2591.921518819351
 20
-32003.42014604723
 30
0.0
 10
2591.921518819351
 20
-32002.88374432631
 30
0.0
 10
2591.921518819351
 20
-32002.34768711517
 30
0.0
 10
2591.482268855225
 20
-32001.91257126834
 30
0.0
 10
2590.941388507201
 20
-32001.91257126834
 30
0.0
 10
2590.399991394561
 20
-32001.91257126834
 30
0.0
 10
2589.961258195066
 20
-32002.34768711517
 30
0.0
 10
2589.961258195066
 20
-32002.88374432631
 30
0.0
 10
2589.961258195066
 20
-32003.42014604723
 30
0.0
 10
2590.399991394561
 20
-32003.85491738428
 30
0.0
 10
2590.941388507201
 20
-32003.85491738428
 30
0.0
  0
INSERT
  5
E956
102
{ACAD_REACTORS
330
E94F
102
}
330
E94D
100
AcDbEntity
  8
Layer 1
 62
     7
100
AcDbBlockReference
  2
block 3
 10
2492.392644591835
 20
-32235.93513363359
 30
0.0
  0
SPLINE
  5
E957
102
{ACAD_REACTORS
330
E94F
102
}
330
E94D
100
AcDbEntity
  8
Layer 1
 62
     7
370
     0
100
AcDbSpline
210
0.0
220
0.0
230
1.0
 70
    11
 71
     3
 72
    32
 73
    28
 74
     0
 42
0.0000000001
 43
0.0000000001
 40
0.0
 40
0.0
 40
0.0
 40
0.0
 40
1.0
 40
1.0
 40
1.0
 40
2.0
 40
2.0
 40
2.0
 40
3.0
 40
3.0
 40
3.0
 40
4.0
 40
4.0
 40
4.0
 40
5.0
 40
5.0
 40
5.0
 40
6.0
 40
6.0
 40
6.0
 40
7.0
 40
7.0
 40
7.0
 40
8.0
 40
8.0
 40
8.0
 40
9.0
 40
9.0
 40
9.0
 40
9.0
 10
2600.178384615853
 20
-32001.43611424841
 30
0.0
 10
2600.178384615853
 20
-32001.43611424841
 30
0.0
 10
2600.178384615853
 20
-32001.71757873524
 30
0.0
 10
2600.178384615853
 20
-32001.71757873524
 30
0.0
 10
2599.913112088487
 20
-32001.50122659605
 30
0.0
 10
2599.578593096188
 20
-32001.36583425416
 30
0.0
 10
2599.208589596981
 20
-32001.36583425416
 30
0.0
 10
2598.361784568073
 20
-32001.36583425416
 30
0.0
 10
2597.675865604471
 20
-32002.0455520418
 30
0.0
 10
2597.675865604471
 20
-32002.88374432631
 30
0.0
 10
2597.675865604471
 20
-32003.72297014015
 30
0.0
 10
2598.361784568073
 20
-32004.40234341802
 30
0.0
 10
2599.208589596981
 20
-32004.40234341802
 30
0.0
 10
2599.578593096188
 20
-32004.40234341802
 30
0.0
 10
2599.913112088487
 20
-32004.26695107613
 30
0.0
 10
2600.178384615853
 20
-32004.05059893693
 30
0.0
 10
2600.178384615853
 20
-32004.05059893693
 30
0.0
 10
2600.178384615853
 20
-32004.33206342376
 30
0.0
 10
2600.178384615853
 20
-32004.33206342376
 30
0.0
 10
2600.178384615853
 20
-32004.33206342376
 30
0.0
 10
2600.743380648159
 20
-32004.33206342376
 30
0.0
 10
2600.743380648159
 20
-32004.33206342376
 30
0.0
 10
2600.743380648159
 20
-32004.33206342376
 30
0.0
 10
2600.743380648159
 20
-32001.43611424841
 30
0.0
 10
2600.743380648159
 20
-32001.43611424841
 30
0.0
 10
2600.743380648159
 20
-32001.43611424841
 30
0.0
 10
2600.178384615853
 20
-32001.43611424841
 30
0.0
 10
2600.178384615853
 20
-32001.43611424841
 30
0.0
  0
INSERT
  5
E958
102
{ACAD_REACTORS
330
E94F
102
}
330
E94D
100
AcDbEntity
  8
Layer 1
 62
     7
100
AcDbBlockReference
  2
block 4
 10
2492.392644591835
 20
-32235.93513363359
 30
0.0
  0
ENDBLK
  5
E959
330
E94D
100
AcDbEntity
  8
0
 62
     3
100
AcDbBlockEnd
  0
BLOCK
  5
10337
330
10334
100
AcDbEntity
  8
0
100
AcDbBlockBegin
  2
A$C701F5D03
 70
     0
 10
0.0
 20
0.0
 30
0.0
  3
A$C701F5D03
  1

  0
LINE
  5
10338
330
10334
100
AcDbEntity
  8
0
  6
Continuous
 62
     7
100
AcDbLine
 10
-207.7841804512427
 20
-74.55995131286909
 30
0.0
 11
-194.4822159289615
 21
-172.7008163648679
 31
0.0
  0
LWPOLYLINE
  5
10339
330
10334
100
AcDbEntity
  8
0
  6
Continuous
 62
     7
100
AcDbPolyline
 90
        7
 70
     0
 43
0.0
 10
-207.7817134142533
 20
-74.57799191056802
 10
-207.4168145878648
 20
-76.09016239346783
 10
-205.6823704780545
 20
-79.0827742957681
 10
-202.6922162186529
 20
-81.76520979326779
 10
-198.5607294637593
 20
-84.03471653316774
 10
-193.4458688111626
 20
-85.80420800596767
 10
-187.5433733325626
 20
-87.00561856876811
  0
LWPOLYLINE
  5
1033A
330
10334
100
AcDbEntity
  8
0
  6
Continuous
 62
     7
100
AcDbPolyline
 90
        5
 70
     0
 43
0.0
 10
-203.4982970739656
 20
-62.43201060736828
 10
-205.7626528411638
 20
-65.42430760136813
 10
-207.4566980263626
 20
-69.38496443956683
 10
-207.8890770347498
 20
-73.39532203996714
 10
-207.7813857929432
 20
-74.57898911196753
  0
LWPOLYLINE
  5
1033B
330
10334
100
AcDbEntity
  8
0
  6
Continuous
 62
     7
100
AcDbPolyline
 90
       14
 70
     0
 43
0.0
 10
-160.8445590183546
 20
-28.47949396946933
 10
-167.5669119686645
 20
-35.82644888536743
 10
-173.9465669493656
 20
-42.51408019346854
 10
-178.5764194656513
 20
-48.69159238826796
 10
-180.6059154211543
 20
-54.32462633046816
 10
-180.2788031562522
 20
-59.62613104596676
 10
-177.7287911443563
 20
-64.74376703946837
 10
-173.0618266677484
 20
-69.41583166566852
 10
-166.5006123976491
 20
-73.41168413716878
 10
-158.227862119762
 20
-76.63077161906767
 10
-147.8026163343456
 20
-79.10039252506795
 10
-135.2102327628527
 20
-81.04309315896898
 10
-121.3775588952558
 20
-83.10120042466769
 10
101.4415281551482
 20
-116.7700238133693
  0
LINE
  5
1033C
330
10334
100
AcDbEntity
  8
0
  6
Continuous
 62
     7
100
AcDbLine
 10
-45.31017786765005
 20
108.9583067680323
 30
0.0
 11
-203.4944810377492
 21
-62.42762514886817
 31
0.0
  0
LINE
  5
1033D
330
10334
100
AcDbEntity
  8
0
  6
Continuous
 62
     7
100
AcDbLine
 10
-41.69181968685006
 20
112.1402242602307
 30
0.0
 11
-45.31469906284473
 21
108.9532413371307
 31
0.0
  0
LWPOLYLINE
  5
1033E
330
10334
100
AcDbEntity
  8
0
  6
Continuous
 62
     7
100
AcDbPolyline
 90
        6
 70
     0
 43
0.0
 10
-174.2321071780461
 20
-185.2151103426677
 10
-180.924737594265
 20
-183.7527235280686
 10
-186.5479794188577
 20
-181.5728199917685
 10
-190.8216076047538
 20
-178.7848429462683
 10
-193.5328173456655
 20
-175.5282128871677
 10
-194.4825699990615
 20
-172.6920742867678
  0
LINE
  5
1033F
330
10334
100
AcDbEntity
  8
0
  6
Continuous
 62
     7
100
AcDbLine
 10
162.6744634257338
 20
-236.1231216994674
 30
0.0
 11
-174.2321071780461
 21
-185.2151103426677
 31
0.0
  0
LINE
  5
10340
330
10334
100
AcDbEntity
  8
0
  6
Continuous
 62
     7
100
AcDbLine
 10
17.79311790484644
 20
-63.87922050826819
 30
0.0
 11
39.20995139595471
 21
-42.27011620696794
 31
0.0
  0
LWPOLYLINE
  5
10341
330
10334
100
AcDbEntity
  8
0
  6
Continuous
 62
     7
100
AcDbPolyline
 90
        3
 70
     0
 43
0.0
 10
17.79311633814359
 20
-63.87922024756699
 10
-2.025476767565123
 20
-83.76681007776642
 10
-11.5425436461519
 20
-93.27293036026821
  0
LWPOLYLINE
  5
10342
330
10334
100
AcDbEntity
  8
0
  6
Continuous
 62
     7
100
AcDbPolyline
 90
        6
 70
     0
 43
0.0
 10
39.20978244654543
 20
-42.267862162269
 10
40.18501476873644
 20
-41.57271172946638
 10
41.02800570464751
 20
-41.36609325136669
 10
41.77730621685623
 20
-41.26704504536792
 10
42.43068360604229
 20
-41.07708815666774
 10
43.11757307764492
 20
-40.41690234096677
  0
LWPOLYLINE
  5
10343
330
10334
100
AcDbEntity
  8
0
  6
Continuous
 62
     7
100
AcDbPolyline
 90
        9
 70
     0
 43
0.0
 10
156.4104921913531
 20
-138.9785060696667
 10
162.8802938578446
 20
-139.6466031332675
 10
169.6586314164451
 20
-139.6742252103686
 10
176.485520656046
 20
-139.060572991968
 10
183.0994581115374
 20
-137.8293540588674
 10
189.2472094859404
 20
-136.027774570568
 10
194.6933003618469
 20
-133.7247696284685
 10
199.2288620654435
 20
-131.0084176602686
 10
202.6795553739357
 20
-127.9827310070686
  0
LINE
  5
10344
330
10334
100
AcDbEntity
  8
0
  6
Continuous
 62
     7
100
AcDbLine
 10
-118.247293809356
 20
-79.40315113086763
 30
0.0
 11
-128.1682741625554
 21
-77.98614942246786
 31
0.0
  0
LINE
  5
10345
330
10334
100
AcDbEntity
  8
0
  6
Continuous
 62
     7
100
AcDbLine
 10
-187.5433733325626
 20
-87.00561856876811
 30
0.0
 11
156.4104921913531
 21
-138.9785060696667
 31
0.0
  0
LINE
  5
10346
330
10334
100
AcDbEntity
  8
0
  6
Continuous
 62
     7
100
AcDbLine
 10
-27.03643950354308
 20
-93.09529446936721
 30
0.0
 11
-118.247293809356
 21
-79.40315113086763
 31
0.0
  0
LWPOLYLINE
  5
10347
330
10334
100
AcDbEntity
  8
0
  6
Continuous
 62
     7
100
AcDbPolyline
 90
       13
 70
     0
 43
0.0
 10
101.4415281551482
 20
-116.7700238133693
 10
115.2027870768506
 20
-118.8813054192687
 10
127.8408401803462
 20
-120.7545916051676
 10
139.6989534978347
 20
-121.6629754693676
 10
151.1598788617411
 20
-121.4367407417667
 10
162.5950547263492
 20
-120.1687845545675
 10
173.6954381500545
 20
-117.8871742604679
 10
183.9252382119448
 20
-114.7054673429666
 10
192.7779350926575
 20
-110.7929197613666
 10
200.3928393234382
 20
-106.0005270297679
 10
206.9244705288438
 20
-100.0991007860684
 10
212.9551728022343
 20
-93.3442843010671
 10
219.7919494724483
 20
-85.99893742696805
  0
LWPOLYLINE
  5
10348
330
10334
100
AcDbEntity
  8
0
  6
Continuous
 62
     7
100
AcDbPolyline
 90
        6
 70
     0
 43
0.0
 10
-128.1682741625554
 20
-77.98614942246786
 10
-132.609085299453
 20
-77.30134951106811
 10
-136.3413224097457
 20
-76.5990397232672
 10
-139.1549789409619
 20
-75.9242976391688
 10
-140.942601320552
 20
-75.39714999796706
 10
-141.3890764261596
 20
-75.24535379096779
  0
LINE
  5
10349
330
10334
100
AcDbEntity
  8
0
  6
Continuous
 62
     7
100
AcDbLine
 10
-26.98806254874217
 20
-93.10290422376784
 30
0.0
 11
-27.03643950354308
 21
-93.09529446936721
 31
0.0
  0
LINE
  5
1034A
330
10334
100
AcDbEntity
  8
0
  6
Continuous
 62
     7
100
AcDbLine
 10
17.79448068364581
 20
-99.90651037166754
 30
0.0
 11
18.28342603084456
 21
-99.94331822776803
 31
0.0
  0
LINE
  5
1034B
330
10334
100
AcDbEntity
  8
0
  6
Continuous
 62
     7
100
AcDbLine
 10
205.0444002068543
 20
-59.13166724086841
 30
0.0
 11
214.4838721732376
 21
-59.38823863526704
 31
0.0
  0
LINE
  5
1034C
330
10334
100
AcDbEntity
  8
0
  6
Continuous
 62
     7
100
AcDbLine
 10
199.6175376491446
 20
-58.95274123556737
 30
0.0
 11
205.0444002068543
 21
-59.13166724086841
 31
0.0
  0
LINE
  5
1034D
330
10334
100
AcDbEntity
  8
0
  6
Continuous
 62
     7
100
AcDbLine
 10
194.5893282439501
 20
-58.75294168096662
 30
0.0
 11
199.6175376491446
 21
-58.95274123556737
 31
0.0
  0
LWPOLYLINE
  5
1034E
330
10334
100
AcDbEntity
  8
0
  6
Continuous
 62
     7
100
AcDbPolyline
 90
        3
 70
     0
 43
0.0
 10
163.131240859846
 20
-57.10297730486854
 10
184.353602726449
 20
-58.25131062436776
 10
194.5862034762394
 20
-58.74973474406942
  0
LWPOLYLINE
  5
1034F
330
10334
100
AcDbEntity
  8
0
  6
Continuous
 62
     7
100
AcDbPolyline
 90
        3
 70
     0
 43
0.0
 10
221.8642766163394
 20
-69.86273540146794
 10
221.4314023489424
 20
-69.82383758266769
 10
220.4542738594464
 20
-69.63850648836888
  0
LINE
  5
10350
330
10334
100
AcDbEntity
  8
0
  6
Continuous
 62
     7
100
AcDbLine
 10
163.1315941573411
 20
-57.10010147846697
 30
0.0
 11
157.5956145423406
 21
-56.29562487946896
 31
0.0
  0
LWPOLYLINE
  5
10351
330
10334
100
AcDbEntity
  8
0
  6
Continuous
 62
     7
100
AcDbPolyline
 90
        3
 70
     0
 43
0.0
 10
157.5956145423406
 20
-56.29562487946896
 10
140.7181660642381
 20
-53.78537663316819
 10
137.4133390495553
 20
-53.28657620846934
  0
LINE
  5
10352
330
10334
100
AcDbEntity
  8
0
  6
Continuous
 62
     7
100
AcDbLine
 10
39.20995139595471
 20
-42.27011620696794
 30
0.0
 11
107.1605914299434
 21
-52.59983222726805
 31
0.0
  0
LINE
  5
10353
330
10334
100
AcDbEntity
  8
0
  6
Continuous
 62
     7
100
AcDbLine
 10
107.1600443405477
 20
-52.59217425766838
 30
0.0
 11
152.4716983057442
 21
-59.43896191656676
 31
0.0
  0
LINE
  5
10354
330
10334
100
AcDbEntity
  8
0
  6
Continuous
 62
     7
100
AcDbLine
 10
220.4548733151459
 20
-69.65476390106778
 30
0.0
 11
152.4724201445351
 21
-59.44646163216749
 31
0.0
  0
LINE
  5
10355
330
10334
100
AcDbEntity
  8
0
  6
Continuous
 62
     7
100
AcDbLine
 10
137.4133390495553
 20
-53.28657620846934
 30
0.0
 11
124.7385098757513
 21
-51.34684318466679
 31
0.0
  0
LINE
  5
10356
330
10334
100
AcDbEntity
  8
0
  6
Continuous
 62
     7
100
AcDbLine
 10
124.7385098757513
 20
-51.34684318466679
 30
0.0
 11
117.8194815341558
 21
-50.2532491253678
 31
0.0
  0
LINE
  5
10357
330
10334
100
AcDbEntity
  8
0
  6
Continuous
 62
     7
100
AcDbLine
 10
96.29652158563841
 20
-44.94959257566733
 30
0.0
 11
117.81864200774
 21
-50.2560514855686
 31
0.0
  0
LINE
  5
10358
330
10334
100
AcDbEntity
  8
0
  6
Continuous
 62
     7
100
AcDbLine
 10
85.84809697105084
 20
-42.31894578386709
 30
0.0
 11
96.29652158563841
 21
-44.94959257566733
 31
0.0
  0
LINE
  5
10359
330
10334
100
AcDbEntity
  8
0
  6
Continuous
 62
     7
100
AcDbLine
 10
80.73190664654248
 20
-40.98951568476695
 30
0.0
 11
85.849938007741
 21
-42.32195874356693
 31
0.0
  0
LINE
  5
1035A
330
10334
100
AcDbEntity
  8
0
  6
Continuous
 62
     7
100
AcDbLine
 10
75.20414300654374
 20
-39.51415020296918
 30
0.0
 11
80.73190664654248
 21
-40.98951568476695
 31
0.0
  0
LWPOLYLINE
  5
1035B
330
10334
100
AcDbEntity
  8
0
  6
Continuous
 62
     7
100
AcDbPolyline
 90
        9
 70
     0
 43
0.0
 10
75.20414300654374
 20
-39.51415020296918
 10
65.52010893734404
 20
-36.87450567536871
 10
62.11551561305532
 20
-35.97485858636719
 10
58.63543263194151
 20
-35.48014382866677
 10
54.83901021853672
 20
-35.51981219166919
 10
51.10850871473667
 20
-36.08898542786846
 10
47.76948549525696
 20
-37.16125438336894
 10
45.0113306560379
 20
-38.64039275356845
 10
43.11755014074151
 20
-40.41693775836757
  0
LWPOLYLINE
  5
1035C
330
10334
100
AcDbEntity
  8
0
  6
Continuous
 62
     7
100
AcDbPolyline
 90
        4
 70
     0
 43
0.0
 10
234.3265064934385
 20
-55.68355176416662
 10
218.1480569225387
 20
-74.07433568766646
 10
212.7635779787379
 20
-80.07292130716814
 10
207.5325688755547
 20
-85.77860097226766
  0
LWPOLYLINE
  5
1035D
330
10334
100
AcDbEntity
  8
0
  6
Continuous
 62
     7
100
AcDbPolyline
 90
        3
 70
     0
 43
0.0
 10
309.2179297530383
 20
23.95701444823135
 10
309.4085342435574
 20
24.16704497763203
 10
309.3282686628518
 20
24.08200802783176
  0
LINE
  5
1035E
330
10334
100
AcDbEntity
  8
0
  6
Continuous
 62
     7
100
AcDbLine
 10
234.3356206966564
 20
-55.67238569156689
 30
0.0
 11
243.4684982037579
 21
-45.66520205736742
 31
0.0
  0
LINE
  5
1035F
330
10334
100
AcDbEntity
  8
0
  6
Continuous
 62
     7
100
AcDbLine
 10
251.835413413035
 20
-36.6038469383675
 30
0.0
 11
242.6968461596407
 21
-46.50584127756883
 31
0.0
  0
LINE
  5
10360
330
10334
100
AcDbEntity
  8
0
  6
Continuous
 62
     7
100
AcDbLine
 10
307.111265474945
 20
21.75947814633218
 30
0.0
 11
274.3254731489578
 21
-12.99826079166814
 31
0.0
  0
LWPOLYLINE
  5
10361
330
10334
100
AcDbEntity
  8
0
  6
Continuous
 62
     7
100
AcDbPolyline
 90
       13
 70
     0
 43
0.0
 10
207.5325688755547
 20
-85.77860097226766
 10
197.2396649713337
 20
-96.62564034266688
 10
192.5943950035435
 20
-101.4372637853666
 10
188.9041502936452
 20
-104.4475607217682
 10
183.462989503445
 20
-107.739323053167
 10
176.6141571074549
 20
-110.7440251481675
 10
168.6679668136348
 20
-113.2925096308681
 10
159.489503222052
 20
-115.3388257574679
 10
148.8329100923438
 20
-116.7157402507691
 10
137.1834895982465
 20
-117.0813652375691
 10
125.3440677634498
 20
-116.239070205469
 10
113.7482770239439
 20
-114.4884963940676
 10
-26.98905310835107
 20
-93.10975886406778
  0
LINE
  5
10362
330
10334
100
AcDbEntity
  8
0
  6
Continuous
 62
     7
100
AcDbLine
 10
273.7840166671376
 20
-13.54959987996699
 30
0.0
 11
251.8568936551456
 21
-36.58445465026671
 31
0.0
  0
LINE
  5
10363
330
10334
100
AcDbEntity
  8
0
  6
Continuous
 62
     7
100
AcDbLine
 10
291.2579051545472
 20
4.962048607132601
 30
0.0
 11
291.2018268436368
 21
4.903317875130596
 31
0.0
  0
LINE
  5
10364
330
10334
100
AcDbEntity
  8
0
  6
Continuous
 62
     7
100
AcDbLine
 10
309.3282686628518
 20
24.08200802783176
 30
0.0
 11
307.111265474945
 21
21.75947814633218
 31
0.0
  0
LINE
  5
10365
330
10334
100
AcDbEntity
  8
0
  6
Continuous
 62
     7
100
AcDbLine
 10
274.3254323961446
 20
-12.99830379096784
 30
0.0
 11
273.7916446515446
 21
-13.54675548046725
 31
0.0
  0
LINE
  5
10366
330
10334
100
AcDbEntity
  8
0
  6
Continuous
 62
     7
100
AcDbLine
 10
202.6795553739357
 20
-127.9827310070686
 30
0.0
 11
360.8638584645523
 21
43.40320082363177
 31
0.0
  0
LWPOLYLINE
  5
10367
330
10334
100
AcDbEntity
  8
0
  6
Continuous
 62
     7
100
AcDbPolyline
 90
        3
 70
     0
 43
0.0
 10
219.7919494724483
 20
-85.99893742696805
 10
320.1226922693459
 20
22.7140362977334
 10
330.9435720532492
 20
34.48720170993329
  0
LWPOLYLINE
  5
10368
330
10334
100
AcDbEntity
  8
0
  6
Continuous
 62
     7
100
AcDbPolyline
 90
        7
 70
     0
 43
0.0
 10
225.4504250438476
 20
-65.78865866386696
 10
225.639878454851
 20
-64.030495151168
 10
224.8717594390473
 20
-62.33675087536903
 10
223.1682777455426
 20
-60.9478616715678
 10
220.7034151629486
 20
-59.96549437996873
 10
217.7775201058539
 20
-59.49979946796884
 10
214.4838721732376
 20
-59.38823863526704
  0
LWPOLYLINE
  5
10369
330
10334
100
AcDbEntity
  8
0
  6
Continuous
 62
     7
100
AcDbPolyline
 90
       10
 70
     0
 43
0.0
 10
330.9435720532492
 20
34.48720170993329
 10
334.398048150746
 20
39.71311443313243
 10
335.7494768424367
 20
44.97027054543287
 10
335.0377578536572
 20
50.16820817463304
 10
332.2594175253471
 20
55.06253498373189
 10
327.5148957505444
 20
59.50112420403093
 10
320.963544993836
 20
63.32906895703127
 10
312.8428928160574
 20
66.41187422153234
 10
303.3036075432465
 20
68.66049027663212
 10
50.22245569074584
 20
106.9346246983332
  0
LWPOLYLINE
  5
1036A
330
10334
100
AcDbEntity
  8
0
  6
Continuous
 62
     7
100
AcDbPolyline
 90
        4
 70
     0
 43
0.0
 10
360.8638584645523
 20
43.40320082363177
 10
363.097590961057
 20
46.58014355043269
 10
364.0260647149407
 20
49.82750757773101
 10
364.0439959730429
 20
50.78279628523159
  0
LINE
  5
1036B
330
10334
100
AcDbEntity
  8
0
  6
Continuous
 62
     7
100
AcDbLine
 10
50.22245569074584
 20
106.9346246983332
 30
0.0
 11
26.40288712634356
 21
110.4940620794332
 31
0.0
  0
LINE
  5
1036C
330
10334
100
AcDbEntity
  8
0
  6
Continuous
 62
     7
100
AcDbLine
 10
365.5082818225492
 20
-55.49612571306716
 30
0.0
 11
208.9435266084474
 21
-225.1273466368693
 31
0.0
  0
LWPOLYLINE
  5
1036D
330
10334
100
AcDbEntity
  8
0
  6
Continuous
 62
     7
100
AcDbPolyline
 90
        8
 70
     0
 43
0.0
 10
208.9435266084474
 20
-225.1273466368693
 10
204.9045109415456
 20
-228.5219857055672
 10
199.4804526195512
 20
-231.5045901994672
 10
192.9433825024462
 20
-233.9264157026682
 10
185.6200801382365
 20
-235.6667863490693
 10
177.8760554436449
 20
-236.6388407049671
 10
170.0978769907378
 20
-236.7937296701675
 10
162.6744634257338
 20
-236.1231216994674
  0
LWPOLYLINE
  5
1036E
330
10334
100
AcDbEntity
  8
0
  6
Continuous
 62
     7
100
AcDbPolyline
 90
       10
 70
     0
 43
0.0
 10
26.40288712634356
 20
110.4940620794332
 10
15.54841227264842
 20
111.3050778060314
 10
4.403683665441349
 20
111.1084828293315
 10
-6.751575735950609
 20
109.9315057216317
 10
-17.52355284776422
 20
107.8132965557306
 10
-27.53658204585372
 20
104.8302625845317
 10
-36.47444747906411
 20
101.069317972433
 10
-43.93140994965506
 20
96.72328673703304
 10
-49.72864227576065
 20
91.86125398923104
 10
-160.8445590183546
 20
-28.47949396946933
  0
LWPOLYLINE
  5
1036F
330
10334
100
AcDbEntity
  8
0
  6
Continuous
 62
     7
100
AcDbPolyline
 90
        7
 70
     0
 43
0.0
 10
-2.067425573943182
 20
119.9314284231332
 10
-7.932654413161799
 20
120.5067278006318
 10
-15.37002688736538
 20
120.4342399509332
 10
-22.81492521346081
 20
119.5190559754319
 10
-29.89306997145468
 20
117.796049128432
 10
-36.27118194985087
 20
115.3222357340309
 10
-41.69181968685006
 20
112.1402242602307
  0
LINE
  5
10370
330
10334
100
AcDbEntity
  8
0
  6
Continuous
 62
     7
100
AcDbLine
 10
341.8254640110536
 20
67.96786328453163
 30
0.0
 11
-2.068093677749857
 21
119.9316380158307
 31
0.0
  0
LINE
  5
10371
330
10334
100
AcDbEntity
  8
0
  6
Continuous
 62
     7
100
AcDbLine
 10
-2.06809496905771
 20
119.9316382109318
 30
0.0
 11
-2.067409488954581
 21
119.9315344158312
 31
0.0
  0
LWPOLYLINE
  5
10372
330
10334
100
AcDbEntity
  8
0
  6
Continuous
 62
     7
100
AcDbPolyline
 90
        3
 70
     0
 43
0.0
 10
368.6880572243536
 20
-48.1077602385667
 10
367.9560076613561
 20
-51.86244138936672
 10
365.5082818225492
 20
-55.49612571306716
  0
LINE
  5
10373
330
10334
100
AcDbEntity
  8
0
  6
Continuous
 62
     7
100
AcDbLine
 10
364.0427653697552
 20
50.81029964943081
 30
0.0
 11
368.6880630388478
 21
-48.1076446513689
 31
0.0
  0
LWPOLYLINE
  5
10374
330
10334
100
AcDbEntity
  8
0
  6
Continuous
 62
     7
100
AcDbPolyline
 90
        7
 70
     0
 43
0.0
 10
364.0437957854447
 20
50.78232711723103
 10
363.8488459420478
 20
52.52366588093355
 10
362.2533120035368
 20
56.87539125313197
 10
359.033254884358
 20
60.84650143773251
 10
354.2657950514404
 20
64.1373011233336
 10
348.0882152438571
 20
66.59854266413095
 10
341.8236609389424
 20
67.96806390383062
  0
POLYLINE
  5
10375
330
10334
100
AcDbEntity
  8
图层 1
 62
     7
370
     0
100
AcDb2dPolyline
 66
     1
 10
0.0
 20
0.0
 30
0.0
  0
VERTEX
  5
10376
330
10375
100
AcDbEntity
  8
图层 1
 62
     7
370
     0
100
AcDbVertex
100
AcDb2dVertex
 10
148.0486026601575
 20
73.36850938231236
 30
0.0
  0
VERTEX
  5
10377
330
10375
100
AcDbEntity
  8
图层 1
 62
     7
370
     0
100
AcDbVertex
100
AcDb2dVertex
 10
148.7005323407939
 20
74.5389478198349
 30
0.0
  0
VERTEX
  5
10378
330
10375
100
AcDbEntity
  8
图层 1
 62
     7
370
     0
100
AcDbVertex
100
AcDb2dVertex
 10
148.9712338503741
 20
73.22909589736354
 30
0.0
  0
VERTEX
  5
10379
330
10375
100
AcDbEntity
  8
图层 1
 62
     7
370
     0
100
AcDbVertex
100
AcDb2dVertex
 10
148.0486026601575
 20
73.36850938231236
 30
0.0
  0
SEQEND
  5
1037A
330
10375
100
AcDbEntity
  8
图层 1
 62
     7
370
     0
  0
POLYLINE
  5
1037B
330
10334
100
AcDbEntity
  8
图层 1
 62
     7
370
     0
100
AcDb2dPolyline
 66
     1
 10
0.0
 20
0.0
 30
0.0
  0
VERTEX
  5
1037C
330
1037B
100
AcDbEntity
  8
图层 1
 62
     7
370
     0
100
AcDbVertex
100
AcDb2dVertex
 10
149.2722895277547
 20
71.82267429655894
 30
0.0
  0
VERTEX
  5
1037D
330
1037B
100
AcDbEntity
  8
图层 1
 62
     7
370
     0
100
AcDbVertex
100
AcDb2dVertex
 10
150.0043310369947
 20
71.71205972053667
 30
0.0
  0
VERTEX
  5
1037E
330
1037B
100
AcDbEntity
  8
图层 1
 62
     7
370
     0
100
AcDbVertex
100
AcDb2dVertex
 10
149.0334893798135
 20
75.86507212698143
 30
0.0
  0
VERTEX
  5
1037F
330
1037B
100
AcDbEntity
  8
图层 1
 62
     7
370
     0
100
AcDbVertex
100
AcDb2dVertex
 10
148.7371300903614
 20
75.90985327222824
 30
0.0
  0
VERTEX
  5
10380
330
1037B
100
AcDbEntity
  8
图层 1
 62
     7
370
     0
100
AcDbVertex
100
AcDb2dVertex
 10
146.5834297201218
 20
72.21747453533589
 30
0.0
  0
VERTEX
  5
10381
330
1037B
100
AcDbEntity
  8
图层 1
 62
     7
370
     0
100
AcDbVertex
100
AcDb2dVertex
 10
147.3118944793095
 20
72.10740042141242
 30
0.0
  0
VERTEX
  5
10382
330
1037B
100
AcDbEntity
  8
图层 1
 62
     7
370
     0
100
AcDbVertex
100
AcDb2dVertex
 10
147.6592586801998
 20
72.71952448679712
 30
0.0
  0
VERTEX
  5
10383
330
1037B
100
AcDbEntity
  8
图层 1
 62
     7
370
     0
100
AcDbVertex
100
AcDb2dVertex
 10
149.1166991628852
 20
72.49929905008048
 30
0.0
  0
VERTEX
  5
10384
330
1037B
100
AcDbEntity
  8
图层 1
 62
     7
370
     0
100
AcDbVertex
100
AcDb2dVertex
 10
149.2722895277547
 20
71.82267429655894
 30
0.0
  0
SEQEND
  5
10385
330
1037B
100
AcDbEntity
  8
图层 1
 62
     7
370
     0
  0
HATCH
  5
10386
330
10334
100
AcDbEntity
  8
图层 1
 62
     7
100
AcDbHatch
 10
0.0
 20
0.0
 30
0.0
210
0.0
220
0.0
230
1.0
  2
SOLID
 70
     1
 71
     0
 91
        2
 92
        1
 93
        3
 72
     1
 10
148.0486026601575
 20
73.36850938231236
 11
148.7005323408084
 21
74.53894781983365
 72
     1
 10
148.7005323407939
 20
74.5389478198349
 11
148.9712338503595
 21
73.22909589736628
 72
     1
 10
148.9712338503741
 20
73.22909589736354
 11
148.0486026601575
 21
73.36850938231089
 97
        0
 92
        1
 93
        8
 72
     1
 10
149.2722895277547
 20
71.82267429655894
 11
150.0043310369947
 21
71.71205972053837
 72
     1
 10
150.0043310369947
 20
71.71205972053667
 11
149.0334893798281
 21
75.86507212698006
 72
     1
 10
149.0334893798135
 20
75.86507212698143
 11
148.7371300903614
 21
75.90985327222961
 72
     1
 10
148.7371300903614
 20
75.90985327222824
 11
146.5834297201072
 21
72.21747453533351
 72
     1
 10
146.5834297201218
 20
72.21747453533589
 11
147.3118944793095
 21
72.10740042141321
 72
     1
 10
147.3118944793095
 20
72.10740042141242
 11
147.6592586802289
 21
72.71952448679542
 72
     1
 10
147.6592586801998
 20
72.71952448679712
 11
149.1166991628706
 21
72.4992990500807
 72
     1
 10
149.1166991628852
 20
72.49929905008048
 11
149.2722895277402
 21
71.82267429655849
 97
        0
 75
     2
 76
     1
 98
        0
450
        0
451
        0
460
0.0
461
0.0
452
        0
462
0.0
453
        0
470

  0
SPLINE
  5
10387
330
10334
100
AcDbEntity
  8
图层 1
 62
     7
370
     0
100
AcDbSpline
210
0.0
220
0.0
230
1.0
 70
    11
 71
     3
 72
    83
 73
    79
 74
     0
 42
0.0000000001
 43
0.0000000001
 40
0.0
 40
0.0
 40
0.0
 40
0.0
 40
1.0
 40
1.0
 40
1.0
 40
2.0
 40
2.0
 40
2.0
 40
3.0
 40
3.0
 40
3.0
 40
4.0
 40
4.0
 40
4.0
 40
5.0
 40
5.0
 40
5.0
 40
6.0
 40
6.0
 40
6.0
 40
7.0
 40
7.0
 40
7.0
 40
8.0
 40
8.0
 40
8.0
 40
9.0
 40
9.0
 40
9.0
 40
10.0
 40
10.0
 40
10.0
 40
11.0
 40
11.0
 40
11.0
 40
12.0
 40
12.0
 40
12.0
 40
13.0
 40
13.0
 40
13.0
 40
14.0
 40
14.0
 40
14.0
 40
15.0
 40
15.0
 40
15.0
 40
16.0
 40
16.0
 40
16.0
 40
17.0
 40
17.0
 40
17.0
 40
18.0
 40
18.0
 40
18.0
 40
19.0
 40
19.0
 40
19.0
 40
20.0
 40
20.0
 40
20.0
 40
21.0
 40
21.0
 40
21.0
 40
22.0
 40
22.0
 40
22.0
 40
23.0
 40
23.0
 40
23.0
 40
24.0
 40
24.0
 40
24.0
 40
25.0
 40
25.0
 40
25.0
 40
26.0
 40
26.0
 40
26.0
 40
26.0
 10
154.3038419541408
 20
71.06412749326683
 30
0.0
 10
154.3038419541408
 20
71.06412749326683
 30
0.0
 10
154.2776052617846
 20
71.12453610376451
 30
0.0
 10
154.2776052617846
 20
71.12453610376451
 30
0.0
 10
154.2776052617846
 20
71.12453610376451
 30
0.0
 10
153.3368189352622
 20
73.23979868894912
 30
0.0
 10
153.3368189352622
 20
73.23979868894912
 30
0.0
 10
153.3368189352622
 20
73.23979868894912
 30
0.0
 10
154.8957251601241
 20
74.98117975697368
 30
0.0
 10
154.8957251601241
 20
74.98117975697368
 30
0.0
 10
154.8957251601241
 20
74.98117975697368
 30
0.0
 10
154.0700068639853
 20
75.10594929269882
 30
0.0
 10
154.0700068639853
 20
75.10594929269882
 30
0.0
 10
154.0700068639853
 20
75.10594929269882
 30
0.0
 10
152.8924882084538
 20
73.75222045553437
 30
0.0
 10
152.8924882084538
 20
73.75222045553437
 30
0.0
 10
152.8747522105695
 20
73.73399520481962
 30
0.0
 10
152.8554439894069
 20
73.71112963549513
 30
0.0
 10
152.8303948602261
 20
73.68024681675797
 30
0.0
 10
152.8303948602261
 20
73.68024681675797
 30
0.0
 10
152.8256539060094
 20
73.67538846565276
 30
0.0
 10
152.8256539060094
 20
73.67538846565276
 30
0.0
 10
152.8256539060094
 20
73.67538846565276
 30
0.0
 10
152.6413661179685
 20
73.70323513183667
 30
0.0
 10
152.6413661179685
 20
73.70323513183667
 30
0.0
 10
152.6413661179685
 20
73.70323513183667
 30
0.0
 10
152.6355546665145
 20
73.71665640791525
 30
0.0
 10
152.6355546665145
 20
73.71665640791525
 30
0.0
 10
152.6214995524642
 20
73.74700226276309
 30
0.0
 10
152.6088706246082
 20
73.77295156778473
 30
0.0
 10
152.6030077005707
 20
73.78603220100285
 30
0.0
 10
152.6030077005707
 20
73.78603220100285
 30
0.0
 10
151.8594050146785
 20
75.43998060543981
 30
0.0
 10
151.8594050146785
 20
75.43998060543981
 30
0.0
 10
151.8594050146785
 20
75.43998060543981
 30
0.0
 10
150.9890625036933
 20
75.57149304924405
 30
0.0
 10
150.9890625036933
 20
75.57149304924405
 30
0.0
 10
150.9890625036933
 20
75.57149304924405
 30
0.0
 10
152.0274392484862
 20
73.43799993219272
 30
0.0
 10
152.0274392484862
 20
73.43799993219272
 30
0.0
 10
152.0274392484862
 20
73.43799993219272
 30
0.0
 10
150.4422141722461
 20
71.70460259095398
 30
0.0
 10
150.4422141722461
 20
71.70460259095398
 30
0.0
 10
150.4422141722461
 20
71.70460259095398
 30
0.0
 10
150.3971792977099
 20
71.65444078553719
 30
0.0
 10
150.3971792977099
 20
71.65444078553719
 30
0.0
 10
150.3971792977099
 20
71.65444078553719
 30
0.0
 10
151.2755269159242
 20
71.52171873608768
 30
0.0
 10
151.2755269159242
 20
71.52171873608768
 30
0.0
 10
151.2755269159242
 20
71.52171873608768
 30
0.0
 10
151.3169850404374
 20
71.57242100359781
 30
0.0
 10
151.3169850404374
 20
71.57242100359781
 30
0.0
 10
151.3169850404374
 20
71.57242100359781
 30
0.0
 10
152.4662187906069
 20
72.95916850829144
 30
0.0
 10
152.4662187906069
 20
72.95916850829144
 30
0.0
 10
152.4757620041928
 20
72.97044383967023
 30
0.0
 10
152.5055225897522
 20
73.00253105059801
 30
0.0
 10
152.5326216471876
 20
73.03083938267173
 30
0.0
 10
152.5326216471876
 20
73.03083938267173
 30
0.0
 10
152.5426084487844
 20
73.04274452719164
 30
0.0
 10
152.5426084487844
 20
73.04274452719164
 30
0.0
 10
152.5426084487844
 20
73.04274452719164
 30
0.0
 10
152.7250227010954
 20
73.01518096020209
 30
0.0
 10
152.7250227010954
 20
73.01518096020209
 30
0.0
 10
152.7250227010954
 20
73.01518096020209
 30
0.0
 10
152.7316660945216
 20
72.99919503006004
 30
0.0
 10
152.7316660945216
 20
72.99919503006004
 30
0.0
 10
152.7571737900871
 20
72.94203235934856
 30
0.0
 10
152.7715657855005
 20
72.90815139443385
 30
0.0
 10
152.7740911091387
 20
72.90411139116168
 30
0.0
 10
152.7740911091387
 20
72.90411139116168
 30
0.0
 10
153.4534970673849
 20
71.24958497716852
 30
0.0
 10
153.4534970673849
 20
71.24958497716852
 30
0.0
 10
153.4534970673849
 20
71.24958497716852
 30
0.0
 10
153.4782939794386
 20
71.18887129270024
 30
0.0
 10
153.4782939794386
 20
71.18887129270024
 30
0.0
 10
153.4782939794386
 20
71.18887129270024
 30
0.0
 10
154.3038419541408
 20
71.06412749326683
 30
0.0
 10
154.3038419541408
 20
71.06412749326683
 30
0.0
  0
HATCH
  5
10388
330
10334
100
AcDbEntity
  8
图层 1
 62
     7
100
AcDbHatch
 10
0.0
 20
0.0
 30
0.0
210
0.0
220
0.0
230
1.0
  2
SOLID
 70
     1
 71
     0
 91
        1
 92
        1
 93
        1
 72
     4
 94
        3
 73
     0
 74
     1
 95
       79
 96
       79
 40
0.0
 40
0.0
 40
0.0
 40
1.0
 40
1.0
 40
1.0
 40
2.0
 40
2.0
 40
2.0
 40
3.0
 40
3.0
 40
3.0
 40
4.0
 40
4.0
 40
4.0
 40
5.0
 40
5.0
 40
5.0
 40
6.0
 40
6.0
 40
6.0
 40
7.0
 40
7.0
 40
7.0
 40
8.0
 40
8.0
 40
8.0
 40
9.0
 40
9.0
 40
9.0
 40
10.0
 40
10.0
 40
10.0
 40
11.0
 40
11.0
 40
11.0
 40
12.0
 40
12.0
 40
12.0
 40
13.0
 40
13.0
 40
13.0
 40
14.0
 40
14.0
 40
14.0
 40
15.0
 40
15.0
 40
15.0
 40
16.0
 40
16.0
 40
16.0
 40
17.0
 40
17.0
 40
17.0
 40
18.0
 40
18.0
 40
18.0
 40
19.0
 40
19.0
 40
19.0
 40
20.0
 40
20.0
 40
20.0
 40
21.0
 40
21.0
 40
21.0
 40
22.0
 40
22.0
 40
22.0
 40
23.0
 40
23.0
 40
23.0
 40
24.0
 40
24.0
 40
24.0
 40
25.0
 40
25.0
 40
25.0
 40
26.0
 10
150.9890625036933
 20
75.57149304924405
 10
152.0274392484862
 20
73.43799993219272
 10
152.0274392484862
 20
73.43799993219272
 10
152.0274392484862
 20
73.43799993219272
 10
150.4422141722461
 20
71.70460259095398
 10
150.4422141722461
 20
71.70460259095398
 10
150.4422141722461
 20
71.70460259095398
 10
150.3971792977099
 20
71.65444078553719
 10
150.3971792977099
 20
71.65444078553719
 10
150.3971792977099
 20
71.65444078553719
 10
151.2755269159242
 20
71.52171873608768
 10
151.2755269159242
 20
71.52171873608768
 10
151.2755269159242
 20
71.52171873608768
 10
151.3169850404374
 20
71.57242100359781
 10
151.3169850404374
 20
71.57242100359781
 10
151.3169850404374
 20
71.57242100359781
 10
152.4662187906069
 20
72.95916850829144
 10
152.4662187906069
 20
72.95916850829144
 10
152.4757620041928
 20
72.97044383967023
 10
152.5055225897522
 20
73.00253105059801
 10
152.5326216471876
 20
73.03083938267173
 10
152.5326216471876
 20
73.03083938267173
 10
152.5426084487844
 20
73.04274452719164
 10
152.5426084487844
 20
73.04274452719164
 10
152.5426084487844
 20
73.04274452719164
 10
152.7250227010954
 20
73.01518096020209
 10
152.7250227010954
 20
73.01518096020209
 10
152.7250227010954
 20
73.01518096020209
 10
152.7316660945216
 20
72.99919503006004
 10
152.7316660945216
 20
72.99919503006004
 10
152.7571737900871
 20
72.94203235934856
 10
152.7715657855005
 20
72.90815139443385
 10
152.7740911091387
 20
72.90411139116168
 10
152.7740911091387
 20
72.90411139116168
 10
153.4534970673849
 20
71.24958497716852
 10
153.4534970673849
 20
71.24958497716852
 10
153.4534970673849
 20
71.24958497716852
 10
153.4782939794386
 20
71.18887129270024
 10
153.4782939794386
 20
71.18887129270024
 10
153.4782939794386
 20
71.18887129270024
 10
154.3038419541408
 20
71.06412749326683
 10
154.3038419541408
 20
71.06412749326683
 10
154.3038419541408
 20
71.06412749326683
 10
154.2776052617846
 20
71.12453610376451
 10
154.2776052617846
 20
71.12453610376451
 10
154.2776052617846
 20
71.12453610376451
 10
153.3368189352622
 20
73.23979868894912
 10
153.3368189352622
 20
73.23979868894912
 10
153.3368189352622
 20
73.23979868894912
 10
154.8957251601241
 20
74.98117975697368
 10
154.8957251601241
 20
74.98117975697368
 10
154.8957251601241
 20
74.98117975697368
 10
154.0700068639853
 20
75.10594929269882
 10
154.0700068639853
 20
75.10594929269882
 10
154.0700068639853
 20
75.10594929269882
 10
152.8924882084538
 20
73.75222045553437
 10
152.8924882084538
 20
73.75222045553437
 10
152.8747522105695
 20
73.73399520481962
 10
152.8554439894069
 20
73.71112963549513
 10
152.8303948602261
 20
73.68024681675797
 10
152.8303948602261
 20
73.68024681675797
 10
152.8256539060094
 20
73.67538846565276
 10
152.8256539060094
 20
73.67538846565276
 10
152.8256539060094
 20
73.67538846565276
 10
152.6413661179685
 20
73.70323513183667
 10
152.6413661179685
 20
73.70323513183667
 10
152.6413661179685
 20
73.70323513183667
 10
152.6355546665145
 20
73.71665640791525
 10
152.6355546665145
 20
73.71665640791525
 10
152.6214995524642
 20
73.74700226276309
 10
152.6088706246082
 20
73.77295156778473
 10
152.6030077005707
 20
73.78603220100285
 10
152.6030077005707
 20
73.78603220100285
 10
151.8594050146785
 20
75.43998060543981
 10
151.8594050146785
 20
75.43998060543981
 10
151.8594050146785
 20
75.43998060543981
 10
150.9890625036933
 20
75.57149304924405
 10
150.9890625036933
 20
75.57149304924405
 10
150.9890625036933
 20
75.57149304924405
 97
        0
 75
     2
 76
     1
 98
        0
450
        0
451
        0
460
0.0
461
0.0
452
        0
462
0.0
453
        0
470

  0
POLYLINE
  5
10389
330
10334
100
AcDbEntity
  8
图层 1
 62
     7
370
     0
100
AcDb2dPolyline
 66
     1
 10
0.0
 20
0.0
 30
0.0
  0
VERTEX
  5
1038A
330
10389
100
AcDbEntity
  8
图层 1
 62
     7
370
     0
100
AcDbVertex
100
AcDb2dVertex
 10
154.8925560986681
 20
70.97342818685047
 30
0.0
  0
VERTEX
  5
1038B
330
10389
100
AcDbEntity
  8
图层 1
 62
     7
370
     0
100
AcDbVertex
100
AcDb2dVertex
 10
157.4524872023903
 20
70.58661174255485
 30
0.0
  0
VERTEX
  5
1038C
330
10389
100
AcDbEntity
  8
图层 1
 62
     7
370
     0
100
AcDbVertex
100
AcDb2dVertex
 10
157.5553551549965
 20
71.26738650114475
 30
0.0
  0
VERTEX
  5
1038D
330
10389
100
AcDbEntity
  8
图层 1
 62
     7
370
     0
100
AcDbVertex
100
AcDb2dVertex
 10
155.6876103457325
 20
71.54961066136729
 30
0.0
  0
VERTEX
  5
1038E
330
10389
100
AcDbEntity
  8
图层 1
 62
     7
370
     0
100
AcDbVertex
100
AcDb2dVertex
 10
155.8325571331079
 20
72.50886095918303
 30
0.0
  0
VERTEX
  5
1038F
330
10389
100
AcDbEntity
  8
图层 1
 62
     7
370
     0
100
AcDbVertex
100
AcDb2dVertex
 10
157.4194419031119
 20
72.26907594178465
 30
0.0
  0
VERTEX
  5
10390
330
10389
100
AcDbEntity
  8
图层 1
 62
     7
370
     0
100
AcDbVertex
100
AcDb2dVertex
 10
157.525912936384
 20
72.97369570067622
 30
0.0
  0
VERTEX
  5
10391
330
10389
100
AcDbEntity
  8
图层 1
 62
     7
370
     0
100
AcDbVertex
100
AcDb2dVertex
 10
155.93902816638
 20
73.2134807180746
 30
0.0
  0
VERTEX
  5
10392
330
10389
100
AcDbEntity
  8
图层 1
 62
     7
370
     0
100
AcDbVertex
100
AcDb2dVertex
 10
156.0705148738925
 20
74.08365290762503
 30
0.0
  0
VERTEX
  5
10393
330
10389
100
AcDbEntity
  8
图层 1
 62
     7
370
     0
100
AcDbVertex
100
AcDb2dVertex
 10
157.9382596831565
 20
73.8014287474025
 30
0.0
  0
VERTEX
  5
10394
330
10389
100
AcDbEntity
  8
图层 1
 62
     7
370
     0
100
AcDbVertex
100
AcDb2dVertex
 10
158.0427490220754
 20
74.49293375612706
 30
0.0
  0
VERTEX
  5
10395
330
10389
100
AcDbEntity
  8
图层 1
 62
     7
370
     0
100
AcDbVertex
100
AcDb2dVertex
 10
155.4828179183532
 20
74.87975020042267
 30
0.0
  0
VERTEX
  5
10396
330
10389
100
AcDbEntity
  8
图层 1
 62
     7
370
     0
100
AcDbVertex
100
AcDb2dVertex
 10
154.8925560986681
 20
70.97342818685047
 30
0.0
  0
SEQEND
  5
10397
330
10389
100
AcDbEntity
  8
图层 1
 62
     7
370
     0
  0
HATCH
  5
10398
330
10334
100
AcDbEntity
  8
图层 1
 62
     7
100
AcDbHatch
 10
0.0
 20
0.0
 30
0.0
210
0.0
220
0.0
230
1.0
  2
SOLID
 70
     1
 71
     0
 91
        1
 92
        1
 93
       12
 72
     1
 10
154.8925560986681
 20
70.97342818685047
 11
157.4524872023903
 21
70.58661174255348
 72
     1
 10
157.4524872023903
 20
70.58661174255485
 11
157.555355155011
 21
71.26738650114418
 72
     1
 10
157.5553551549965
 20
71.26738650114475
 11
155.687610345718
 21
71.54961066136855
 72
     1
 10
155.6876103457325
 20
71.54961066136729
 11
155.8325571331079
 21
72.50886095918554
 72
     1
 10
155.8325571331079
 20
72.50886095918303
 11
157.4194419031264
 21
72.26907594178374
 72
     1
 10
157.4194419031119
 20
72.26907594178465
 11
157.525912936384
 21
72.97369570067485
 72
     1
 10
157.525912936384
 20
72.97369570067622
 11
155.9390281663654
 21
73.21348071807552
 72
     1
 10
155.93902816638
 20
73.2134807180746
 11
156.0705148738925
 21
74.08365290762503
 72
     1
 10
156.0705148738925
 20
74.08365290762503
 11
157.938259683171
 21
73.80142874740124
 72
     1
 10
157.9382596831565
 20
73.8014287474025
 11
158.0427490220754
 21
74.49293375612751
 72
     1
 10
158.0427490220754
 20
74.49293375612706
 11
155.4828179183532
 21
74.87975020042404
 72
     1
 10
155.4828179183532
 20
74.87975020042267
 11
154.8925560986681
 21
70.97342818684944
 97
        0
 75
     2
 76
     1
 98
        0
450
        0
451
        0
460
0.0
461
0.0
452
        0
462
0.0
453
        0
470

  0
POLYLINE
  5
10399
330
10334
100
AcDbEntity
  8
图层 1
 62
     7
370
     0
100
AcDb2dPolyline
 66
     1
 10
0.0
 20
0.0
 30
0.0
  0
VERTEX
  5
1039A
330
10399
100
AcDbEntity
  8
图层 1
 62
     7
370
     0
100
AcDbVertex
100
AcDb2dVertex
 10
160.6854642558755
 20
69.87284129216004
 30
0.0
  0
VERTEX
  5
1039B
330
10399
100
AcDbEntity
  8
图层 1
 62
     7
370
     0
100
AcDbVertex
100
AcDb2dVertex
 10
160.6854642558755
 20
69.87284129216004
 30
0.0
  0
VERTEX
  5
1039C
330
10399
100
AcDbEntity
  8
图层 1
 62
     7
370
     0
100
AcDbVertex
100
AcDb2dVertex
 10
160.9673462237115
 20
69.83024773159468
 30
0.0
  0
VERTEX
  5
1039D
330
10399
100
AcDbEntity
  8
图层 1
 62
     7
370
     0
100
AcDbVertex
100
AcDb2dVertex
 10
161.5909365394327
 20
73.95713599795181
 30
0.0
  0
VERTEX
  5
1039E
330
10399
100
AcDbEntity
  8
图层 1
 62
     7
370
     0
100
AcDbVertex
100
AcDb2dVertex
 10
160.8990908878477
 20
74.06167680944327
 30
0.0
  0
VERTEX
  5
1039F
330
10399
100
AcDbEntity
  8
图层 1
 62
     7
370
     0
100
AcDbVertex
100
AcDb2dVertex
 10
160.5265580847044
 20
71.59627409976292
 30
0.0
  0
VERTEX
  5
103A0
330
10399
100
AcDbEntity
  8
图层 1
 62
     7
370
     0
100
AcDbVertex
100
AcDb2dVertex
 10
158.9493517845549
 20
74.36273643601362
 30
0.0
  0
VERTEX
  5
103A1
330
10399
100
AcDbEntity
  8
图层 1
 62
     7
370
     0
100
AcDbVertex
100
AcDb2dVertex
 10
158.6278658937226
 20
74.41532115401514
 30
0.0
  0
VERTEX
  5
103A2
330
10399
100
AcDbEntity
  8
图层 1
 62
     7
370
     0
100
AcDbVertex
100
AcDb2dVertex
 10
158.0360084240383
 20
70.49843921173942
 30
0.0
  0
VERTEX
  5
103A3
330
10399
100
AcDbEntity
  8
图层 1
 62
     7
370
     0
100
AcDbVertex
100
AcDb2dVertex
 10
158.7241070041491
 20
70.39446459863302
 30
0.0
  0
VERTEX
  5
103A4
330
10399
100
AcDbEntity
  8
图层 1
 62
     7
370
     0
100
AcDbVertex
100
AcDb2dVertex
 10
159.0723962217453
 20
72.69942452057239
 30
0.0
  0
VERTEX
  5
103A5
330
10399
100
AcDbEntity
  8
图层 1
 62
     7
370
     0
100
AcDbVertex
100
AcDb2dVertex
 10
160.6854642558755
 20
69.87284129216004
 30
0.0
  0
SEQEND
  5
103A6
330
10399
100
AcDbEntity
  8
图层 1
 62
     7
370
     0
  0
HATCH
  5
103A7
330
10334
100
AcDbEntity
  8
图层 1
 62
     7
100
AcDbHatch
 10
0.0
 20
0.0
 30
0.0
210
0.0
220
0.0
230
1.0
  2
SOLID
 70
     1
 71
     0
 91
        1
 92
        1
 93
       10
 72
     1
 10
160.6854642558755
 20
69.87284129216004
 11
160.967346223726
 21
69.83024773159354
 72
     1
 10
160.9673462237115
 20
69.83024773159468
 11
161.5909365394327
 21
73.95713599795101
 72
     1
 10
161.5909365394327
 20
73.95713599795181
 11
160.8990908878477
 21
74.06167680944441
 72
     1
 10
160.8990908878477
 20
74.06167680944327
 11
160.5265580847044
 21
71.59627409976588
 72
     1
 10
160.5265580847044
 20
71.59627409976292
 11
158.9493517845549
 21
74.36273643601282
 72
     1
 10
158.9493517845549
 20
74.36273643601362
 11
158.6278658937372
 21
74.41532115401435
 72
     1
 10
158.6278658937226
 20
74.41532115401514
 11
158.0360084240237
 21
70.49843921173851
 72
     1
 10
158.0360084240383
 20
70.49843921173942
 11
158.7241070041491
 21
70.39446459863495
 72
     1
 10
158.7241070041491
 20
70.39446459863302
 11
159.0723962217598
 21
72.69942452057216
 72
     1
 10
159.0723962217453
 20
72.69942452057239
 11
160.6854642558464
 21
69.87284129216027
 97
        0
 75
     2
 76
     1
 98
        0
450
        0
451
        0
460
0.0
461
0.0
452
        0
462
0.0
453
        0
470

  0
POLYLINE
  5
103A8
330
10334
100
AcDbEntity
  8
图层 1
 62
     7
370
     0
100
AcDb2dPolyline
 66
     1
 10
0.0
 20
0.0
 30
0.0
  0
VERTEX
  5
103A9
330
103A8
100
AcDbEntity
  8
图层 1
 62
     7
370
     0
100
AcDbVertex
100
AcDb2dVertex
 10
164.6622091251338
 20
72.78541147608212
 30
0.0
  0
VERTEX
  5
103AA
330
103A8
100
AcDbEntity
  8
图层 1
 62
     7
370
     0
100
AcDbVertex
100
AcDb2dVertex
 10
164.7666984640527
 20
73.47691648480668
 30
0.0
  0
VERTEX
  5
103AB
330
103A8
100
AcDbEntity
  8
图层 1
 62
     7
370
     0
100
AcDbVertex
100
AcDb2dVertex
 10
162.1560115739703
 20
73.87140234363233
 30
0.0
  0
VERTEX
  5
103AC
330
103A8
100
AcDbEntity
  8
图层 1
 62
     7
370
     0
100
AcDbVertex
100
AcDb2dVertex
 10
162.0515222350514
 20
73.17989733490776
 30
0.0
  0
VERTEX
  5
103AD
330
103A8
100
AcDbEntity
  8
图层 1
 62
     7
370
     0
100
AcDbVertex
100
AcDb2dVertex
 10
163.0111131757439
 20
73.03489907495077
 30
0.0
  0
VERTEX
  5
103AE
330
103A8
100
AcDbEntity
  8
图层 1
 62
     7
370
     0
100
AcDbVertex
100
AcDb2dVertex
 10
162.5253406949778
 20
69.82008207010313
 30
0.0
  0
VERTEX
  5
103AF
330
103A8
100
AcDbEntity
  8
图层 1
 62
     7
370
     0
100
AcDbVertex
100
AcDb2dVertex
 10
163.2173566679848
 20
69.71551552231995
 30
0.0
  0
VERTEX
  5
103B0
330
103A8
100
AcDbEntity
  8
图层 1
 62
     7
370
     0
100
AcDbVertex
100
AcDb2dVertex
 10
163.703129148751
 20
72.93033252716759
 30
0.0
  0
VERTEX
  5
103B1
330
103A8
100
AcDbEntity
  8
图层 1
 62
     7
370
     0
100
AcDbVertex
100
AcDb2dVertex
 10
164.6622091251338
 20
72.78541147608212
 30
0.0
  0
SEQEND
  5
103B2
330
103A8
100
AcDbEntity
  8
图层 1
 62
     7
370
     0
  0
HATCH
  5
103B3
330
10334
100
AcDbEntity
  8
图层 1
 62
     7
100
AcDbHatch
 10
0.0
 20
0.0
 30
0.0
210
0.0
220
0.0
230
1.0
  2
SOLID
 70
     1
 71
     0
 91
        1
 92
        1
 93
        8
 72
     1
 10
164.6622091251338
 20
72.78541147608212
 11
164.7666984640527
 21
73.47691648480713
 72
     1
 10
164.7666984640527
 20
73.47691648480668
 11
162.1560115739703
 21
73.87140234363482
 72
     1
 10
162.1560115739703
 20
73.87140234363233
 11
162.0515222350514
 21
73.17989733490731
 72
     1
 10
162.0515222350514
 20
73.17989733490776
 11
163.0111131757294
 21
73.03489907494963
 72
     1
 10
163.0111131757439
 20
73.03489907495077
 11
162.5253406949632
 21
69.82008207010256
 72
     1
 10
162.5253406949778
 20
69.82008207010313
 11
163.2173566679994
 21
69.71551552232018
 72
     1
 10
163.2173566679848
 20
69.71551552231995
 11
163.7031291487656
 21
72.93033252716816
 72
     1
 10
163.703129148751
 20
72.93033252716759
 11
164.6622091251338
 21
72.78541147608052
 97
        0
 75
     2
 76
     1
 98
        0
450
        0
451
        0
460
0.0
461
0.0
452
        0
462
0.0
453
        0
470

  0
ENDBLK
  5
103B4
330
10334
100
AcDbEntity
  8
0
100
AcDbBlockEnd
  0
BLOCK
  5
12957
330
12956
100
AcDbEntity
  8
0
 62
     3
100
AcDbBlockBegin
  2
a
 70
     0
 10
0.0
 20
0.0
 30
0.0
  3
a
  1

  0
HATCH
  5
12958
330
12956
100
AcDbEntity
  8
轮廓线.
100
AcDbHatch
 10
0.0
 20
0.0
 30
0.0
210
0.0
220
0.0
230
1.0
  2
SOLID
 70
     1
 71
     1
 91
        6
 92
        1
 93
        8
 72
     1
 10
46647.8998231575
 20
-16092.41189546918
 11
46647.8998231575
 21
-16088.30419057579
 72
     1
 10
46647.8998231575
 20
-16088.30419057579
 11
46632.39745742964
 21
-16088.30419057579
 72
     1
 10
46632.39745742964
 20
-16088.30419057579
 11
46632.39745742964
 21
-16092.41189546918
 72
     1
 10
46632.39745742964
 20
-16092.41189546918
 11
46638.09599363107
 21
-16092.41189546918
 72
     1
 10
46638.09599363107
 20
-16092.41189546918
 11
46638.09599363107
 21
-16111.50267502176
 72
     1
 10
46638.09599363107
 20
-16111.50267502176
 11
46642.20369852451
 21
-16111.50267502176
 72
     1
 10
46642.20369852451
 20
-16111.50267502176
 11
46642.20369852451
 21
-16092.41189546918
 72
     1
 10
46642.20369852451
 20
-16092.41189546918
 11
46647.8998231575
 21
-16092.41189546918
 97
        1
330
12988
 92
        1
 93
       10
 72
     1
 10
46627.36772953959
 20
-16112.81054896728
 11
46629.04055417427
 21
-16112.81054896728
 72
     1
 10
46629.04055417427
 20
-16112.81054896728
 11
46629.04055417427
 21
-16088.3025828635
 72
     1
 10
46629.04055417427
 20
-16088.3025828635
 11
46624.93204542473
 21
-16088.3025828635
 72
     1
 10
46624.93204542473
 20
-16088.3025828635
 11
46624.93204542473
 21
-16102.9432148055
 72
     1
 10
46624.93204542473
 20
-16102.9432148055
 11
46613.3476745404
 21
-16088.26640933705
 72
     1
 10
46613.3476745404
 20
-16088.26640933705
 11
46611.43690848726
 21
-16088.24229365274
 72
     1
 10
46611.43690848726
 20
-16088.24229365274
 11
46611.43690848726
 21
-16111.50267502176
 72
     1
 10
46611.43690848726
 20
-16111.50267502176
 11
46615.52210540864
 21
-16111.50267502176
 72
     1
 10
46615.52210540864
 20
-16111.50267502176
 11
46615.52210540864
 21
-16097.81541646597
 72
     1
 10
46615.52210540864
 20
-16097.81541646597
 11
46627.36772953959
 21
-16112.81054896728
 97
        1
330
1297A
 92
        1
 93
       12
 72
     1
 10
46592.76976112232
 20
-16111.50267502176
 11
46607.97068079638
 21
-16111.50267502176
 72
     1
 10
46607.97068079638
 20
-16111.50267502176
 11
46607.97068079638
 21
-16107.45927861982
 72
     1
 10
46607.97068079638
 20
-16107.45927861982
 11
46596.87907372803
 21
-16107.45927861982
 72
     1
 10
46596.87907372803
 20
-16107.45927861982
 11
46596.87907372803
 21
-16101.76315398681
 72
     1
 10
46596.87907372803
 20
-16101.76315398681
 11
46606.30267929853
 21
-16101.76315398681
 72
     1
 10
46606.30267929853
 20
-16101.76315398681
 11
46606.30267929853
 21
-16097.57908275977
 72
     1
 10
46606.30267929853
 20
-16097.57908275977
 11
46596.87907372803
 21
-16097.57908275977
 72
     1
 10
46596.87907372803
 20
-16097.57908275977
 11
46596.87907372803
 21
-16092.41189546918
 72
     1
 10
46596.87907372803
 20
-16092.41189546918
 11
46607.97068079638
 21
-16092.41189546918
 72
     1
 10
46607.97068079638
 20
-16092.41189546918
 11
46607.97068079638
 21
-16088.30419057579
 72
     1
 10
46607.97068079638
 20
-16088.30419057579
 11
46592.76976112232
 21
-16088.30419057579
 72
     1
 10
46592.76976112232
 20
-16088.30419057579
 11
46592.76976112232
 21
-16111.50267502176
 97
        1
330
1296B
 92
        1
 93
        1
 72
     4
 94
        3
 73
     0
 74
     0
 95
       83
 96
       79
 40
0.0
 40
0.0
 40
0.0
 40
0.0
 40
1.0
 40
1.0
 40
1.0
 40
2.0
 40
2.0
 40
2.0
 40
3.0
 40
3.0
 40
3.0
 40
4.0
 40
4.0
 40
4.0
 40
5.0
 40
5.0
 40
5.0
 40
6.0
 40
6.0
 40
6.0
 40
7.0
 40
7.0
 40
7.0
 40
8.0
 40
8.0
 40
8.0
 40
9.0
 40
9.0
 40
9.0
 40
10.0
 40
10.0
 40
10.0
 40
11.0
 40
11.0
 40
11.0
 40
12.0
 40
12.0
 40
12.0
 40
13.0
 40
13.0
 40
13.0
 40
14.0
 40
14.0
 40
14.0
 40
15.0
 40
15.0
 40
15.0
 40
16.0
 40
16.0
 40
16.0
 40
17.0
 40
17.0
 40
17.0
 40
18.0
 40
18.0
 40
18.0
 40
19.0
 40
19.0
 40
19.0
 40
20.0
 40
20.0
 40
20.0
 40
21.0
 40
21.0
 40
21.0
 40
22.0
 40
22.0
 40
22.0
 40
23.0
 40
23.0
 40
23.0
 40
24.0
 40
24.0
 40
24.0
 40
25.0
 40
25.0
 40
25.0
 40
26.0
 40
26.0
 40
26.0
 40
26.0
 10
46589.2713791857
 20
-16111.4922248919
 10
46589.2713791857
 20
-16111.4922248919
 10
46589.06639586909
 20
-16111.16425158532
 10
46589.06639586909
 20
-16111.16425158532
 10
46589.06639586909
 20
-16111.16425158532
 10
46581.74808953847
 20
-16099.71010539625
 10
46581.74808953847
 20
-16099.71010539625
 10
46581.74808953847
 20
-16099.71010539625
 10
46589.2713791857
 20
-16088.23103966671
 10
46589.2713791857
 20
-16088.23103966671
 10
46589.2713791857
 20
-16088.23103966671
 10
46584.36866056634
 20
-16088.23103966671
 10
46584.36866056634
 20
-16088.23103966671
 10
46584.36866056634
 20
-16088.23103966671
 10
46578.71915958966
 20
-16097.12490403868
 10
46578.71915958966
 20
-16097.12490403868
 10
46578.63314698231
 20
-16097.24628631636
 10
46578.53989966964
 20
-16097.39419584675
 10
46578.4209289604
 20
-16097.59596373878
 10
46578.4209289604
 20
-16097.59596373878
 10
46578.39842098839
 20
-16097.62892184067
 10
46578.39842098839
 20
-16097.62892184067
 10
46578.39842098839
 20
-16097.62892184067
 10
46577.30437277707
 20
-16097.62892184067
 10
46577.30437277707
 20
-16097.62892184067
 10
46577.30437277707
 20
-16097.62892184067
 10
46577.25855297687
 20
-16097.55577093161
 10
46577.25855297687
 20
-16097.55577093161
 10
46577.15003239752
 20
-16097.39178427832
 10
46577.05517737258
 20
-16097.2527171655
 10
46577.00935757238
 20
-16097.18197782487
 10
46577.00935757238
 20
-16097.18197782487
 10
46571.24008203031
 20
-16088.23103966671
 10
46571.24008203031
 20
-16088.23103966671
 10
46571.24008203031
 20
-16088.23103966671
 10
46566.07209088359
 20
-16088.23103966671
 10
46566.07209088359
 20
-16088.23103966671
 10
46566.07209088359
 20
-16088.23103966671
 10
46573.9731929183
 20
-16099.70849768397
 10
46573.9731929183
 20
-16099.70849768397
 10
46573.9731929183
 20
-16099.70849768397
 10
46566.28913204234
 20
-16111.16184001691
 10
46566.28913204234
 20
-16111.16184001691
 10
46566.28913204234
 20
-16111.16184001691
 10
46566.07209088359
 20
-16111.4922248919
 10
46566.07209088359
 20
-16111.4922248919
 10
46566.07209088359
 20
-16111.4922248919
 10
46571.28831339892
 20
-16111.4922248919
 10
46571.28831339892
 20
-16111.4922248919
 10
46571.28831339892
 20
-16111.4922248919
 10
46571.48445429795
 20
-16111.16184001691
 10
46571.48445429795
 20
-16111.16184001691
 10
46571.48445429795
 20
-16111.16184001691
 10
46576.94022594405
 20
-16102.10238127939
 10
46576.94022594405
 20
-16102.10238127939
 10
46576.98604574423
 20
-16102.02842651418
 10
46577.13073985005
 20
-16101.81620849228
 10
46577.26176840146
 20
-16101.62730229857
 10
46577.26176840146
 20
-16101.62730229857
 10
46577.30999977006
 20
-16101.55013210879
 10
46577.30999977006
 20
-16101.55013210879
 10
46577.30999977006
 20
-16101.55013210879
 10
46578.39359785152
 20
-16101.55013210879
 10
46578.39359785152
 20
-16101.55013210879
 10
46578.39359785152
 20
-16101.55013210879
 10
46578.44665235699
 20
-16101.63614471614
 10
46578.44665235699
 20
-16101.63614471614
 10
46578.6444009683
 20
-16101.94643318752
 10
46578.75774468454
 20
-16102.13051624439
 10
46578.77542951974
 20
-16102.15302421643
 10
46578.77542951974
 20
-16102.15302421643
 10
46584.17171581116
 20
-16111.16184001691
 10
46584.17171581116
 20
-16111.16184001691
 10
46584.17171581116
 20
-16111.16184001691
 10
46584.36946442249
 20
-16111.4922248919
 10
46584.36946442249
 20
-16111.4922248919
 10
46584.36946442249
 20
-16111.4922248919
 10
46589.2713791857
 20
-16111.4922248919
 10
46589.2713791857
 20
-16111.4922248919
 97
        1
330
1296A
 92
        1
 93
        8
 72
     1
 10
46559.39445789933
 20
-16111.50267502176
 11
46563.74090806735
 21
-16111.50267502176
 72
     1
 10
46563.74090806735
 20
-16111.50267502176
 11
46554.46119274651
 21
-16088.24229365274
 72
     1
 10
46554.46119274651
 20
-16088.24229365274
 11
46552.70155164833
 21
-16088.24229365274
 72
     1
 10
46552.70155164833
 20
-16088.24229365274
 11
46543.43630573808
 21
-16111.56859122553
 72
     1
 10
46543.43630573808
 20
-16111.56859122553
 11
46547.76265950252
 21
-16111.56859122553
 72
     1
 10
46547.76265950252
 20
-16111.56859122553
 11
46549.24255866276
 21
-16107.70927788047
 72
     1
 10
46549.24255866276
 20
-16107.70927788047
 11
46557.89687390396
 21
-16107.70927788047
 72
     1
 10
46557.89687390396
 20
-16107.70927788047
 11
46559.39445789933
 21
-16111.50267502176
 97
        1
330
1295F
 92
       16
 93
        3
 72
     1
 10
46550.93387198872
 20
-16103.60157298706
 11
46553.69109856105
 21
-16096.2334275755
 72
     1
 10
46553.69109856105
 20
-16096.2334275755
 11
46556.412955463
 21
-16103.60157298706
 72
     1
 10
46556.412955463
 20
-16103.60157298706
 11
46550.93387198872
 21
-16103.60157298706
 97
        1
330
12959
 75
     0
 76
     1
 98
        1
 10
30095.56472364642
 20
-5669.70779920325
450
        0
451
        0
460
0.0
461
0.0
452
        0
462
0.0
453
        0
470

1001
ACAD
1010
0.0
1020
0.0
1030
0.0
  0
POLYLINE
  5
12959
102
{ACAD_REACTORS
330
12958
102
}
330
12956
100
AcDbEntity
  8
图层 1
 62
     7
370
     0
100
AcDb2dPolyline
 66
     1
 10
0.0
 20
0.0
 30
0.0
  0
VERTEX
  5
1295A
330
12959
100
AcDbEntity
  8
图层 1
 62
     7
370
     0
100
AcDbVertex
100
AcDb2dVertex
 10
46550.93387198872
 20
-16103.60157298706
 30
0.0
  0
VERTEX
  5
1295B
330
12959
100
AcDbEntity
  8
图层 1
 62
     7
370
     0
100
AcDbVertex
100
AcDb2dVertex
 10
46553.69109856105
 20
-16096.2334275755
 30
0.0
  0
VERTEX
  5
1295C
330
12959
100
AcDbEntity
  8
图层 1
 62
     7
370
     0
100
AcDbVertex
100
AcDb2dVertex
 10
46556.412955463
 20
-16103.60157298706
 30
0.0
  0
VERTEX
  5
1295D
330
12959
100
AcDbEntity
  8
图层 1
 62
     7
370
     0
100
AcDbVertex
100
AcDb2dVertex
 10
46550.93387198872
 20
-16103.60157298706
 30
0.0
  0
SEQEND
  5
1295E
330
12959
100
AcDbEntity
  8
图层 1
 62
     7
370
     0
  0
POLYLINE
  5
1295F
102
{ACAD_REACTORS
330
12958
102
}
330
12956
100
AcDbEntity
  8
图层 1
 62
     7
370
     0
100
AcDb2dPolyline
 66
     1
 10
0.0
 20
0.0
 30
0.0
  0
VERTEX
  5
12960
330
1295F
100
AcDbEntity
  8
图层 1
 62
     7
370
     0
100
AcDbVertex
100
AcDb2dVertex
 10
46559.39445789933
 20
-16111.50267502176
 30
0.0
  0
VERTEX
  5
12961
330
1295F
100
AcDbEntity
  8
图层 1
 62
     7
370
     0
100
AcDbVertex
100
AcDb2dVertex
 10
46563.74090806735
 20
-16111.50267502176
 30
0.0
  0
VERTEX
  5
12962
330
1295F
100
AcDbEntity
  8
图层 1
 62
     7
370
     0
100
AcDbVertex
100
AcDb2dVertex
 10
46554.46119274651
 20
-16088.24229365274
 30
0.0
  0
VERTEX
  5
12963
330
1295F
100
AcDbEntity
  8
图层 1
 62
     7
370
     0
100
AcDbVertex
100
AcDb2dVertex
 10
46552.70155164833
 20
-16088.24229365274
 30
0.0
  0
VERTEX
  5
12964
330
1295F
100
AcDbEntity
  8
图层 1
 62
     7
370
     0
100
AcDbVertex
100
AcDb2dVertex
 10
46543.43630573808
 20
-16111.56859122553
 30
0.0
  0
VERTEX
  5
12965
330
1295F
100
AcDbEntity
  8
图层 1
 62
     7
370
     0
100
AcDbVertex
100
AcDb2dVertex
 10
46547.76265950252
 20
-16111.56859122553
 30
0.0
  0
VERTEX
  5
12966
330
1295F
100
AcDbEntity
  8
图层 1
 62
     7
370
     0
100
AcDbVertex
100
AcDb2dVertex
 10
46549.24255866276
 20
-16107.70927788047
 30
0.0
  0
VERTEX
  5
12967
330
1295F
100
AcDbEntity
  8
图层 1
 62
     7
370
     0
100
AcDbVertex
100
AcDb2dVertex
 10
46557.89687390396
 20
-16107.70927788047
 30
0.0
  0
VERTEX
  5
12968
330
1295F
100
AcDbEntity
  8
图层 1
 62
     7
370
     0
100
AcDbVertex
100
AcDb2dVertex
 10
46559.39445789933
 20
-16111.50267502176
 30
0.0
  0
SEQEND
  5
12969
330
1295F
100
AcDbEntity
  8
图层 1
 62
     7
370
     0
  0
SPLINE
  5
1296A
102
{ACAD_REACTORS
330
12958
102
}
330
12956
100
AcDbEntity
  8
图层 1
 62
     7
370
     0
100
AcDbSpline
210
0.0
220
0.0
230
1.0
 70
    11
 71
     3
 72
    83
 73
    79
 74
     0
 42
0.0000000001
 43
0.0000000001
 40
0.0
 40
0.0
 40
0.0
 40
0.0
 40
1.0
 40
1.0
 40
1.0
 40
2.0
 40
2.0
 40
2.0
 40
3.0
 40
3.0
 40
3.0
 40
4.0
 40
4.0
 40
4.0
 40
5.0
 40
5.0
 40
5.0
 40
6.0
 40
6.0
 40
6.0
 40
7.0
 40
7.0
 40
7.0
 40
8.0
 40
8.0
 40
8.0
 40
9.0
 40
9.0
 40
9.0
 40
10.0
 40
10.0
 40
10.0
 40
11.0
 40
11.0
 40
11.0
 40
12.0
 40
12.0
 40
12.0
 40
13.0
 40
13.0
 40
13.0
 40
14.0
 40
14.0
 40
14.0
 40
15.0
 40
15.0
 40
15.0
 40
16.0
 40
16.0
 40
16.0
 40
17.0
 40
17.0
 40
17.0
 40
18.0
 40
18.0
 40
18.0
 40
19.0
 40
19.0
 40
19.0
 40
20.0
 40
20.0
 40
20.0
 40
21.0
 40
21.0
 40
21.0
 40
22.0
 40
22.0
 40
22.0
 40
23.0
 40
23.0
 40
23.0
 40
24.0
 40
24.0
 40
24.0
 40
25.0
 40
25.0
 40
25.0
 40
26.0
 40
26.0
 40
26.0
 40
26.0
 10
46589.2713791857
 20
-16111.4922248919
 30
0.0
 10
46589.2713791857
 20
-16111.4922248919
 30
0.0
 10
46589.06639586909
 20
-16111.16425158532
 30
0.0
 10
46589.06639586909
 20
-16111.16425158532
 30
0.0
 10
46589.06639586909
 20
-16111.16425158532
 30
0.0
 10
46581.74808953847
 20
-16099.71010539625
 30
0.0
 10
46581.74808953847
 20
-16099.71010539625
 30
0.0
 10
46581.74808953847
 20
-16099.71010539625
 30
0.0
 10
46589.2713791857
 20
-16088.23103966671
 30
0.0
 10
46589.2713791857
 20
-16088.23103966671
 30
0.0
 10
46589.2713791857
 20
-16088.23103966671
 30
0.0
 10
46584.36866056634
 20
-16088.23103966671
 30
0.0
 10
46584.36866056634
 20
-16088.23103966671
 30
0.0
 10
46584.36866056634
 20
-16088.23103966671
 30
0.0
 10
46578.71915958966
 20
-16097.12490403868
 30
0.0
 10
46578.71915958966
 20
-16097.12490403868
 30
0.0
 10
46578.63314698231
 20
-16097.24628631636
 30
0.0
 10
46578.53989966964
 20
-16097.39419584675
 30
0.0
 10
46578.4209289604
 20
-16097.59596373878
 30
0.0
 10
46578.4209289604
 20
-16097.59596373878
 30
0.0
 10
46578.39842098839
 20
-16097.62892184067
 30
0.0
 10
46578.39842098839
 20
-16097.62892184067
 30
0.0
 10
46578.39842098839
 20
-16097.62892184067
 30
0.0
 10
46577.30437277707
 20
-16097.62892184067
 30
0.0
 10
46577.30437277707
 20
-16097.62892184067
 30
0.0
 10
46577.30437277707
 20
-16097.62892184067
 30
0.0
 10
46577.25855297687
 20
-16097.55577093161
 30
0.0
 10
46577.25855297687
 20
-16097.55577093161
 30
0.0
 10
46577.15003239752
 20
-16097.39178427832
 30
0.0
 10
46577.05517737258
 20
-16097.2527171655
 30
0.0
 10
46577.00935757238
 20
-16097.18197782487
 30
0.0
 10
46577.00935757238
 20
-16097.18197782487
 30
0.0
 10
46571.24008203031
 20
-16088.23103966671
 30
0.0
 10
46571.24008203031
 20
-16088.23103966671
 30
0.0
 10
46571.24008203031
 20
-16088.23103966671
 30
0.0
 10
46566.07209088359
 20
-16088.23103966671
 30
0.0
 10
46566.07209088359
 20
-16088.23103966671
 30
0.0
 10
46566.07209088359
 20
-16088.23103966671
 30
0.0
 10
46573.9731929183
 20
-16099.70849768397
 30
0.0
 10
46573.9731929183
 20
-16099.70849768397
 30
0.0
 10
46573.9731929183
 20
-16099.70849768397
 30
0.0
 10
46566.28913204234
 20
-16111.16184001691
 30
0.0
 10
46566.28913204234
 20
-16111.16184001691
 30
0.0
 10
46566.28913204234
 20
-16111.16184001691
 30
0.0
 10
46566.07209088359
 20
-16111.4922248919
 30
0.0
 10
46566.07209088359
 20
-16111.4922248919
 30
0.0
 10
46566.07209088359
 20
-16111.4922248919
 30
0.0
 10
46571.28831339892
 20
-16111.4922248919
 30
0.0
 10
46571.28831339892
 20
-16111.4922248919
 30
0.0
 10
46571.28831339892
 20
-16111.4922248919
 30
0.0
 10
46571.48445429795
 20
-16111.16184001691
 30
0.0
 10
46571.48445429795
 20
-16111.16184001691
 30
0.0
 10
46571.48445429795
 20
-16111.16184001691
 30
0.0
 10
46576.94022594405
 20
-16102.10238127939
 30
0.0
 10
46576.94022594405
 20
-16102.10238127939
 30
0.0
 10
46576.98604574423
 20
-16102.02842651418
 30
0.0
 10
46577.13073985005
 20
-16101.81620849228
 30
0.0
 10
46577.26176840146
 20
-16101.62730229857
 30
0.0
 10
46577.26176840146
 20
-16101.62730229857
 30
0.0
 10
46577.30999977006
 20
-16101.55013210879
 30
0.0
 10
46577.30999977006
 20
-16101.55013210879
 30
0.0
 10
46577.30999977006
 20
-16101.55013210879
 30
0.0
 10
46578.39359785152
 20
-16101.55013210879
 30
0.0
 10
46578.39359785152
 20
-16101.55013210879
 30
0.0
 10
46578.39359785152
 20
-16101.55013210879
 30
0.0
 10
46578.44665235699
 20
-16101.63614471614
 30
0.0
 10
46578.44665235699
 20
-16101.63614471614
 30
0.0
 10
46578.6444009683
 20
-16101.94643318752
 30
0.0
 10
46578.75774468454
 20
-16102.13051624439
 30
0.0
 10
46578.77542951974
 20
-16102.15302421643
 30
0.0
 10
46578.77542951974
 20
-16102.15302421643
 30
0.0
 10
46584.17171581116
 20
-16111.16184001691
 30
0.0
 10
46584.17171581116
 20
-16111.16184001691
 30
0.0
 10
46584.17171581116
 20
-16111.16184001691
 30
0.0
 10
46584.36946442249
 20
-16111.4922248919
 30
0.0
 10
46584.36946442249
 20
-16111.4922248919
 30
0.0
 10
46584.36946442249
 20
-16111.4922248919
 30
0.0
 10
46589.2713791857
 20
-16111.4922248919
 30
0.0
 10
46589.2713791857
 20
-16111.4922248919
 30
0.0
  0
POLYLINE
  5
1296B
102
{ACAD_REACTORS
330
12958
102
}
330
12956
100
AcDbEntity
  8
图层 1
 62
     7
370
     0
100
AcDb2dPolyline
 66
     1
 10
0.0
 20
0.0
 30
0.0
  0
VERTEX
  5
1296C
330
1296B
100
AcDbEntity
  8
图层 1
 62
     7
370
     0
100
AcDbVertex
100
AcDb2dVertex
 10
46592.76976112232
 20
-16111.50267502176
 30
0.0
  0
VERTEX
  5
1296D
330
1296B
100
AcDbEntity
  8
图层 1
 62
     7
370
     0
100
AcDbVertex
100
AcDb2dVertex
 10
46607.97068079638
 20
-16111.50267502176
 30
0.0
  0
VERTEX
  5
1296E
330
1296B
100
AcDbEntity
  8
图层 1
 62
     7
370
     0
100
AcDbVertex
100
AcDb2dVertex
 10
46607.97068079638
 20
-16107.45927861982
 30
0.0
  0
VERTEX
  5
1296F
330
1296B
100
AcDbEntity
  8
图层 1
 62
     7
370
     0
100
AcDbVertex
100
AcDb2dVertex
 10
46596.87907372803
 20
-16107.45927861982
 30
0.0
  0
VERTEX
  5
12970
330
1296B
100
AcDbEntity
  8
图层 1
 62
     7
370
     0
100
AcDbVertex
100
AcDb2dVertex
 10
46596.87907372803
 20
-16101.76315398681
 30
0.0
  0
VERTEX
  5
12971
330
1296B
100
AcDbEntity
  8
图层 1
 62
     7
370
     0
100
AcDbVertex
100
AcDb2dVertex
 10
46606.30267929853
 20
-16101.76315398681
 30
0.0
  0
VERTEX
  5
12972
330
1296B
100
AcDbEntity
  8
图层 1
 62
     7
370
     0
100
AcDbVertex
100
AcDb2dVertex
 10
46606.30267929853
 20
-16097.57908275977
 30
0.0
  0
VERTEX
  5
12973
330
1296B
100
AcDbEntity
  8
图层 1
 62
     7
370
     0
100
AcDbVertex
100
AcDb2dVertex
 10
46596.87907372803
 20
-16097.57908275977
 30
0.0
  0
VERTEX
  5
12974
330
1296B
100
AcDbEntity
  8
图层 1
 62
     7
370
     0
100
AcDbVertex
100
AcDb2dVertex
 10
46596.87907372803
 20
-16092.41189546918
 30
0.0
  0
VERTEX
  5
12975
330
1296B
100
AcDbEntity
  8
图层 1
 62
     7
370
     0
100
AcDbVertex
100
AcDb2dVertex
 10
46607.97068079638
 20
-16092.41189546918
 30
0.0
  0
VERTEX
  5
12976
330
1296B
100
AcDbEntity
  8
图层 1
 62
     7
370
     0
100
AcDbVertex
100
AcDb2dVertex
 10
46607.97068079638
 20
-16088.30419057579
 30
0.0
  0
VERTEX
  5
12977
330
1296B
100
AcDbEntity
  8
图层 1
 62
     7
370
     0
100
AcDbVertex
100
AcDb2dVertex
 10
46592.76976112232
 20
-16088.30419057579
 30
0.0
  0
VERTEX
  5
12978
330
1296B
100
AcDbEntity
  8
图层 1
 62
     7
370
     0
100
AcDbVertex
100
AcDb2dVertex
 10
46592.76976112232
 20
-16111.50267502176
 30
0.0
  0
SEQEND
  5
12979
330
1296B
100
AcDbEntity
  8
图层 1
 62
     7
370
     0
  0
POLYLINE
  5
1297A
102
{ACAD_REACTORS
330
12958
102
}
330
12956
100
AcDbEntity
  8
图层 1
 62
     7
370
     0
100
AcDb2dPolyline
 66
     1
 10
0.0
 20
0.0
 30
0.0
  0
VERTEX
  5
1297B
330
1297A
100
AcDbEntity
  8
图层 1
 62
     7
370
     0
100
AcDbVertex
100
AcDb2dVertex
 10
46627.36772953959
 20
-16112.81054896728
 30
0.0
  0
VERTEX
  5
1297C
330
1297A
100
AcDbEntity
  8
图层 1
 62
     7
370
     0
100
AcDbVertex
100
AcDb2dVertex
 10
46627.36772953959
 20
-16112.81054896728
 30
0.0
  0
VERTEX
  5
1297D
330
1297A
100
AcDbEntity
  8
图层 1
 62
     7
370
     0
100
AcDbVertex
100
AcDb2dVertex
 10
46629.04055417427
 20
-16112.81054896728
 30
0.0
  0
VERTEX
  5
1297E
330
1297A
100
AcDbEntity
  8
图层 1
 62
     7
370
     0
100
AcDbVertex
100
AcDb2dVertex
 10
46629.04055417427
 20
-16088.3025828635
 30
0.0
  0
VERTEX
  5
1297F
330
1297A
100
AcDbEntity
  8
图层 1
 62
     7
370
     0
100
AcDbVertex
100
AcDb2dVertex
 10
46624.93204542473
 20
-16088.3025828635
 30
0.0
  0
VERTEX
  5
12980
330
1297A
100
AcDbEntity
  8
图层 1
 62
     7
370
     0
100
AcDbVertex
100
AcDb2dVertex
 10
46624.93204542473
 20
-16102.9432148055
 30
0.0
  0
VERTEX
  5
12981
330
1297A
100
AcDbEntity
  8
图层 1
 62
     7
370
     0
100
AcDbVertex
100
AcDb2dVertex
 10
46613.3476745404
 20
-16088.26640933705
 30
0.0
  0
VERTEX
  5
12982
330
1297A
100
AcDbEntity
  8
图层 1
 62
     7
370
     0
100
AcDbVertex
100
AcDb2dVertex
 10
46611.43690848726
 20
-16088.24229365274
 30
0.0
  0
VERTEX
  5
12983
330
1297A
100
AcDbEntity
  8
图层 1
 62
     7
370
     0
100
AcDbVertex
100
AcDb2dVertex
 10
46611.43690848726
 20
-16111.50267502176
 30
0.0
  0
VERTEX
  5
12984
330
1297A
100
AcDbEntity
  8
图层 1
 62
     7
370
     0
100
AcDbVertex
100
AcDb2dVertex
 10
46615.52210540864
 20
-16111.50267502176
 30
0.0
  0
VERTEX
  5
12985
330
1297A
100
AcDbEntity
  8
图层 1
 62
     7
370
     0
100
AcDbVertex
100
AcDb2dVertex
 10
46615.52210540864
 20
-16097.81541646597
 30
0.0
  0
VERTEX
  5
12986
330
1297A
100
AcDbEntity
  8
图层 1
 62
     7
370
     0
100
AcDbVertex
100
AcDb2dVertex
 10
46627.36772953959
 20
-16112.81054896728
 30
0.0
  0
SEQEND
  5
12987
330
1297A
100
AcDbEntity
  8
图层 1
 62
     7
370
     0
  0
POLYLINE
  5
12988
102
{ACAD_REACTORS
330
12958
102
}
330
12956
100
AcDbEntity
  8
图层 1
 62
     7
370
     0
100
AcDb2dPolyline
 66
     1
 10
0.0
 20
0.0
 30
0.0
  0
VERTEX
  5
12989
330
12988
100
AcDbEntity
  8
图层 1
 62
     7
370
     0
100
AcDbVertex
100
AcDb2dVertex
 10
46647.8998231575
 20
-16092.41189546918
 30
0.0
  0
VERTEX
  5
1298A
330
12988
100
AcDbEntity
  8
图层 1
 62
     7
370
     0
100
AcDbVertex
100
AcDb2dVertex
 10
46647.8998231575
 20
-16088.30419057579
 30
0.0
  0
VERTEX
  5
1298B
330
12988
100
AcDbEntity
  8
图层 1
 62
     7
370
     0
100
AcDbVertex
100
AcDb2dVertex
 10
46632.39745742964
 20
-16088.30419057579
 30
0.0
  0
VERTEX
  5
1298C
330
12988
100
AcDbEntity
  8
图层 1
 62
     7
370
     0
100
AcDbVertex
100
AcDb2dVertex
 10
46632.39745742964
 20
-16092.41189546918
 30
0.0
  0
VERTEX
  5
1298D
330
12988
100
AcDbEntity
  8
图层 1
 62
     7
370
     0
100
AcDbVertex
100
AcDb2dVertex
 10
46638.09599363107
 20
-16092.41189546918
 30
0.0
  0
VERTEX
  5
1298E
330
12988
100
AcDbEntity
  8
图层 1
 62
     7
370
     0
100
AcDbVertex
100
AcDb2dVertex
 10
46638.09599363107
 20
-16111.50267502176
 30
0.0
  0
VERTEX
  5
1298F
330
12988
100
AcDbEntity
  8
图层 1
 62
     7
370
     0
100
AcDbVertex
100
AcDb2dVertex
 10
46642.20369852451
 20
-16111.50267502176
 30
0.0
  0
VERTEX
  5
12990
330
12988
100
AcDbEntity
  8
图层 1
 62
     7
370
     0
100
AcDbVertex
100
AcDb2dVertex
 10
46642.20369852451
 20
-16092.41189546918
 30
0.0
  0
VERTEX
  5
12991
330
12988
100
AcDbEntity
  8
图层 1
 62
     7
370
     0
100
AcDbVertex
100
AcDb2dVertex
 10
46647.8998231575
 20
-16092.41189546918
 30
0.0
  0
SEQEND
  5
12992
330
12988
100
AcDbEntity
  8
图层 1
 62
     7
370
     0
  0
ENDBLK
  5
12993
330
12956
100
AcDbEntity
  8
0
 62
     3
100
AcDbBlockEnd
  0
ENDSEC
  0
SECTION
  2
ENTITIES
  0
LINE
  5
120B1
330
1F
100
AcDbEntity
  8
0
  6
Continuous
 62
     7
100
AcDbLine
 10
141535.7809856991
 20
3095.368632135465
 30
0.0
 11
141539.7185016307
 21
2982.612928612365
 31
0.0
  0
LWPOLYLINE
  5
120B4
330
1F
100
AcDbEntity
  8
0
  6
Continuous
 62
     7
100
AcDbPolyline
 90
        3
 70
     0
 43
0.0
 10
141753.4887185134
 20
2927.757328962565
 10
141746.391554018
 20
2927.636767431266
 10
141743.1907532254
 20
2927.612928613067
  0
LWPOLYLINE
  5
120B5
330
1F
100
AcDbEntity
  8
0
  6
Continuous
 62
     7
100
AcDbPolyline
 90
        3
 70
     0
 43
0.0
 10
141760.6280092917
 20
2927.819602010564
 10
141757.1316055194
 20
2927.803691435565
 10
141753.4887185134
 20
2927.757328962565
  0
LINE
  5
120B6
330
1F
100
AcDbEntity
  8
0
  6
Continuous
 62
     7
100
AcDbLine
 10
141795.0448001724
 20
2912.612928612365
 30
0.0
 11
141726.2112184109
 21
2912.612928612365
 31
0.0
  0
LINE
  5
120B7
330
1F
100
AcDbEntity
  8
0
  6
Continuous
 62
     7
100
AcDbLine
 10
141804.1710716767
 20
2927.612928612365
 30
0.0
 11
141778.0653571092
 21
2927.612928612365
 31
0.0
  0
LINE
  5
120B8
330
1F
100
AcDbEntity
  8
0
  6
Continuous
 62
     7
100
AcDbLine
 10
141743.1904808511
 20
2927.612928612365
 30
0.0
 11
141717.0849469066
 21
2927.612928612365
 31
0.0
  0
LINE
  5
120B9
330
1F
100
AcDbEntity
  8
0
  6
Continuous
 62
     7
100
AcDbLine
 10
141778.0649266294
 20
2927.612928614366
 30
0.0
 11
141775.3262994191
 21
2927.630947172666
 31
0.0
  0
LWPOLYLINE
  5
120BA
330
1F
100
AcDbEntity
  8
0
  6
Continuous
 62
     7
100
AcDbPolyline
 90
        3
 70
     0
 43
0.0
 10
141766.5700865497
 20
2927.775322539565
 10
141763.5568861559
 20
2927.808372768664
 10
141760.6280092917
 20
2927.819602010564
  0
LINE
  5
120BB
330
1F
100
AcDbEntity
  8
0
  6
Continuous
 62
     7
100
AcDbLine
 10
141775.3262994191
 20
2927.630947172666
 30
0.0
 11
141766.5700865497
 21
2927.775322539565
 31
0.0
  0
LWPOLYLINE
  5
120BC
330
1F
100
AcDbEntity
  8
06___PRT_ALL_SURFS
  6
Continuous
 62
     7
100
AcDbPolyline
 90
       13
 70
     0
 43
0.0
 10
141640.4933238114
 20
2980.851998356666
 10
141640.8553853964
 20
2980.663000334966
 10
141641.2332371208
 20
2980.468169450967
 10
141641.6266713358
 20
2980.268009598367
 10
141642.0346288374
 20
2980.063464089966
 10
141642.4557749127
 20
2979.855598284965
 10
141642.8888776982
 20
2979.645401878665
 10
141643.3327186708
 20
2979.433826925966
 10
141643.7860260863
 20
2979.221812417966
 10
141644.2472398926
 20
2979.010383036466
 10
141644.716084133
 20
2978.799932085367
 10
141645.1931688471
 20
2978.590443453266
 10
141645.4423969632
 20
2978.482874134567
  0
LINE
  5
120BD
330
1F
100
AcDbEntity
  8
06___PRT_ALL_SURFS
  6
Continuous
 62
     7
100
AcDbLine
 10
141639.8165495235
 20
2981.211022676566
 30
0.0
 11
141640.4933238114
 21
2980.851998356666
 31
0.0
  0
LINE
  5
120BE
330
1F
100
AcDbEntity
  8
06___PRT_ALL_SURFS
  6
Continuous
 62
     7
100
AcDbLine
 10
141639.3243569782
 20
2981.476478541467
 30
0.0
 11
141639.8165495235
 21
2981.211022676566
 31
0.0
  0
LINE
  5
120BF
330
1F
100
AcDbEntity
  8
0
  6
Continuous
 62
     7
100
AcDbLine
 10
141639.3568247933
 20
2981.458867572365
 30
0.0
 11
141639.3243569782
 21
2981.476478541467
 31
0.0
  0
LWPOLYLINE
  5
120C0
330
1F
100
AcDbEntity
  8
06___PRT_ALL_SURFS
  6
Continuous
 62
     7
100
AcDbPolyline
 90
        3
 70
     0
 43
0.0
 10
141637.3088427239
 20
2982.612928612365
 10
141637.5903594561
 20
2982.443881094365
 10
141639.3572391229
 20
2981.459177099267
  0
LINE
  5
120C1
330
1F
100
AcDbEntity
  8
0
  6
Continuous
 62
     7
100
AcDbLine
 10
141657.1396867595
 20
2974.570096031767
 30
0.0
 11
141657.1770491944
 21
2974.557318249365
 31
0.0
  0
LWPOLYLINE
  5
120C2
330
1F
100
AcDbEntity
  8
06___PRT_ALL_SURFS
  6
Continuous
 62
     7
100
AcDbPolyline
 90
        4
 70
     0
 43
0.0
 10
141645.4001283095
 20
2978.501028982566
 10
141647.8009036857
 20
2977.527996866766
 10
141651.1401636107
 20
2976.360769937066
 10
141654.2369006053
 20
2975.414425169566
  0
LWPOLYLINE
  5
120C3
330
1F
100
AcDbEntity
  8
0
  6
Continuous
 62
     7
100
AcDbPolyline
 90
        3
 70
     0
 43
0.0
 10
141695.7054634825
 20
2962.559997772365
 10
141696.2572802699
 20
2961.735668114965
 10
141696.3379069651
 20
2961.572419775464
  0
LINE
  5
120C4
330
1F
100
AcDbEntity
  8
0
  6
Continuous
 62
     7
100
AcDbLine
 10
141693.0335049747
 20
2973.792777774565
 30
0.0
 11
141702.6134895881
 21
2938.666167525465
 31
0.0
  0
LINE
  5
120C5
330
1F
100
AcDbEntity
  8
02___PRT_ALL_AXES
  6
Continuous
 62
     7
100
AcDbLine
 10
141720.7840847251
 20
2922.259030548266
 30
0.0
 11
141721.2286916713
 21
2917.177149898666
 31
0.0
  0
LINE
  5
120C6
330
1F
100
AcDbEntity
  8
06___PRT_ALL_SURFS
  6
Continuous
 62
     7
100
AcDbLine
 10
141829.1006807947
 20
2964.753568037066
 30
0.0
 11
141848.3907846131
 21
2969.765313214066
 31
0.0
  0
LINE
  5
120C7
330
1F
100
AcDbEntity
  8
0
  6
Continuous
 62
     7
100
AcDbLine
 10
141829.0869164662
 20
2964.750401719765
 30
0.0
 11
141829.1002145198
 21
2964.753460272066
 31
0.0
  0
LINE
  5
120C8
330
1F
100
AcDbEntity
  8
0
  6
Continuous
 62
     7
100
AcDbLine
 10
141692.1545044205
 20
2964.753480742468
 30
0.0
 11
141692.1680985227
 21
2964.750356460765
 31
0.0
  0
LINE
  5
120C9
330
1F
100
AcDbEntity
  8
06___PRT_ALL_SURFS
  6
Continuous
 62
     7
100
AcDbLine
 10
141672.8753778912
 20
2969.762269186566
 30
0.0
 11
141692.1540197363
 21
2964.753592695166
 31
0.0
  0
LINE
  5
120CA
330
1F
100
AcDbEntity
  8
06___PRT_ALL_SURFS
  6
Continuous
 62
     7
100
AcDbLine
 10
141654.2369006053
 20
2975.414425169566
 30
0.0
 11
141656.6245523303
 21
2974.721075375765
 31
0.0
  0
LINE
  5
120CB
330
1F
100
AcDbEntity
  8
0
  6
Continuous
 62
     7
100
AcDbLine
 10
141672.8753013075
 20
2969.764445459965
 30
0.0
 11
141672.8756301488
 21
2969.764349002266
 31
0.0
  0
LINE
  5
120CC
330
1F
100
AcDbEntity
  8
06___PRT_ALL_SURFS
  6
Continuous
 62
     7
100
AcDbLine
 10
141667.6659675194
 20
2971.296738134066
 30
0.0
 11
141672.8753013075
 21
2969.764445459965
 31
0.0
  0
LINE
  5
120CD
330
1F
100
AcDbEntity
  8
06___PRT_ALL_SURFS
  6
Continuous
 62
     7
100
AcDbLine
 10
141656.6245523303
 20
2974.721075375765
 30
0.0
 11
141657.1772643882
 21
2974.557253548465
 31
0.0
  0
LINE
  5
120CE
330
1F
100
AcDbEntity
  8
0
  6
Continuous
 62
     7
100
AcDbLine
 10
141657.1770491944
 20
2974.557318249365
 30
0.0
 11
141657.1772643882
 21
2974.557253548465
 31
0.0
  0
LINE
  5
120CF
330
1F
100
AcDbEntity
  8
06___PRT_ALL_SURFS
  6
Continuous
 62
     7
100
AcDbLine
 10
141657.1771433987
 20
2974.557401080965
 30
0.0
 11
141657.6625373797
 21
2974.410738470866
 31
0.0
  0
LINE
  5
120D0
330
1F
100
AcDbEntity
  8
06___PRT_ALL_SURFS
  6
Continuous
 62
     7
100
AcDbLine
 10
141657.6625373797
 20
2974.410738470866
 30
0.0
 11
141667.6659675194
 21
2971.296738134066
 31
0.0
  0
LINE
  5
120D1
330
1F
100
AcDbEntity
  8
0
  6
Continuous
 62
     7
100
AcDbLine
 10
141658.7037138442
 20
2974.089841738165
 30
0.0
 11
141658.6286649717
 21
2974.113321087865
 31
0.0
  0
LWPOLYLINE
  5
120D2
330
1F
100
AcDbEntity
  8
0
  6
Continuous
 62
     7
100
AcDbPolyline
 90
        4
 70
     0
 43
0.0
 10
141692.1689317956
 20
2964.750208385867
 10
141693.1597338848
 20
2964.431782737367
 10
141694.6603590653
 20
2963.568241945464
 10
141695.7054634825
 20
2962.559997772365
  0
LWPOLYLINE
  5
120D3
330
1F
100
AcDbEntity
  8
0
  6
Continuous
 62
     7
100
AcDbPolyline
 90
        5
 70
     0
 43
0.0
 10
141837.6487547947
 20
2981.155020855065
 10
141834.5092731942
 20
2980.576693588766
 10
141831.7123501486
 20
2979.038729372165
 10
141829.5430624759
 20
2976.697885452366
 10
141828.2225151626
 20
2973.792752715966
  0
LWPOLYLINE
  5
120D4
330
1F
100
AcDbEntity
  8
0
  6
Continuous
 62
     7
100
AcDbPolyline
 90
        5
 70
     0
 43
0.0
 10
141683.6072600449
 20
2981.154851952566
 10
141686.7467514673
 20
2980.576563240266
 10
141689.5436817237
 20
2979.038642282067
 10
141691.7129706832
 20
2976.697843330967
 10
141693.0335112278
 20
2973.792754845166
  0
LINE
  5
120D5
330
1F
100
AcDbEntity
  8
06___PRT_ALL_SURFS
  6
Continuous
 62
     7
100
AcDbLine
 10
141730.1224667189
 20
2982.612928612365
 30
0.0
 11
141730.2077771872
 21
2982.496019495566
 31
0.0
  0
LWPOLYLINE
  5
120D6
330
1F
100
AcDbEntity
  8
0
  6
Continuous
 62
     7
100
AcDbPolyline
 90
        4
 70
     0
 43
0.0
 10
141802.73898547
 20
2981.498947187567
 10
141774.6648869769
 20
2981.157834492266
 10
141746.5910829686
 20
2981.157834787466
 10
141718.5170331133
 20
2981.498947187567
  0
LINE
  5
120D7
330
1F
100
AcDbEntity
  8
0
  6
Continuous
 62
     7
100
AcDbLine
 10
141981.5375169527
 20
2982.612928612365
 30
0.0
 11
141539.7185016307
 21
2982.612928612365
 31
0.0
  0
LWPOLYLINE
  5
120D8
330
1F
100
AcDbEntity
  8
0
  6
Continuous
 62
     7
100
AcDbPolyline
 90
        7
 70
     0
 43
0.0
 10
141705.764031041
 20
2981.702935693265
 10
141700.1562438033
 20
2981.759882465766
 10
141695.0311282516
 20
2981.775399360566
 10
141690.5213510255
 20
2981.735478389867
 10
141686.8881455826
 20
2981.624919403767
 10
141684.4570959756
 20
2981.431724017366
 10
141683.6072600449
 20
2981.154851954667
  0
LWPOLYLINE
  5
120D9
330
1F
100
AcDbEntity
  8
06___PRT_ALL_SURFS
  6
Continuous
 62
     7
100
AcDbPolyline
 90
        4
 70
     0
 43
0.0
 10
141730.2077773014
 20
2982.496016965166
 10
141750.2172344036
 20
2982.245619285166
 10
141771.0289321999
 20
2982.245556462565
 10
141791.1173220487
 20
2982.497306604765
  0
LINE
  5
120DA
330
1F
100
AcDbEntity
  8
0
  6
Continuous
 62
     7
100
AcDbLine
 10
141718.5170331133
 20
2981.498947187567
 30
0.0
 11
141705.764031041
 21
2981.702935693265
 31
0.0
  0
LWPOLYLINE
  5
120DB
330
1F
100
AcDbEntity
  8
0
  6
Continuous
 62
     7
100
AcDbPolyline
 90
        8
 70
     0
 43
0.0
 10
141837.6487585385
 20
2981.154851954667
 10
141836.7989335572
 20
2981.431722168767
 10
141834.3678911927
 20
2981.624918588466
 10
141830.7346905107
 20
2981.735477973765
 10
141826.2249159683
 20
2981.775399310667
 10
141821.0998016541
 20
2981.759882660466
 10
141815.4920135457
 20
2981.702936011767
 10
141802.73898547
 20
2981.498947187567
  0
LINE
  5
120DC
330
1F
100
AcDbEntity
  8
02___PRT_ALL_AXES
  6
Continuous
 62
     7
100
AcDbLine
 10
141800.4719338583
 20
2922.259030548266
 30
0.0
 11
141800.027326912
 21
2917.177149898666
 31
0.0
  0
LINE
  5
120DD
330
1F
100
AcDbEntity
  8
06___PRT_ALL_SURFS
  6
Continuous
 62
     7
100
AcDbLine
 10
141791.2012747479
 20
2982.612928612365
 30
0.0
 11
141791.1173221611
 21
2982.497309069666
 31
0.0
  0
LINE
  5
120DE
330
1F
100
AcDbEntity
  8
0
  6
Continuous
 62
     7
100
AcDbLine
 10
141848.3910595931
 20
2969.765407368864
 30
0.0
 11
141848.3907846131
 21
2969.765313214066
 31
0.0
  0
LINE
  5
120DF
330
1F
100
AcDbEntity
  8
0
  6
Continuous
 62
     7
100
AcDbLine
 10
141862.5551191543
 20
2974.090722577465
 30
0.0
 11
141862.5417274277
 21
2974.086537109066
 31
0.0
  0
LINE
  5
120E0
330
1F
100
AcDbEntity
  8
06___PRT_ALL_SURFS
  6
Continuous
 62
     7
100
AcDbLine
 10
141853.6984184476
 20
2971.329928656167
 30
0.0
 11
141863.5328536801
 21
2974.392289689165
 31
0.0
  0
LINE
  5
120E1
330
1F
100
AcDbEntity
  8
0
  6
Continuous
 62
     7
100
AcDbLine
 10
141864.0783990027
 20
2974.557154812865
 30
0.0
 11
141864.0786190613
 21
2974.557220956665
 31
0.0
  0
LINE
  5
120E2
330
1F
100
AcDbEntity
  8
06___PRT_ALL_SURFS
  6
Continuous
 62
     7
100
AcDbLine
 10
141863.5328536801
 20
2974.392289689165
 30
0.0
 11
141864.2778654314
 21
2974.616705381865
 31
0.0
  0
LINE
  5
120E3
330
1F
100
AcDbEntity
  8
06___PRT_ALL_SURFS
  6
Continuous
 62
     7
100
AcDbLine
 10
141848.3906305493
 20
2969.767146188366
 30
0.0
 11
141853.6984184476
 21
2971.329928656167
 31
0.0
  0
LINE
  5
120E4
330
1F
100
AcDbEntity
  8
06___PRT_ALL_SURFS
  6
Continuous
 62
     7
100
AcDbLine
 10
141864.6989525851
 20
2974.740872433665
 30
0.0
 11
141864.2778654314
 21
2974.616705381865
 31
0.0
  0
LWPOLYLINE
  5
120E5
330
1F
100
AcDbEntity
  8
06___PRT_ALL_SURFS
  6
Continuous
 62
     7
100
AcDbPolyline
 90
        5
 70
     0
 43
0.0
 10
141864.6989525851
 20
2974.740872433665
 10
141867.0270240802
 20
2975.416745878767
 10
141870.0940895643
 20
2976.353734740566
 10
141873.4005869181
 20
2977.507223603465
 10
141875.854356251
 20
2978.500216210367
  0
LINE
  5
120E6
330
1F
100
AcDbEntity
  8
0
  6
Continuous
 62
     7
100
AcDbLine
 10
141818.6425289952
 20
2938.666167525465
 30
0.0
 11
141828.2225136839
 21
2973.792778050465
 31
0.0
  0
LWPOLYLINE
  5
120E7
330
1F
100
AcDbEntity
  8
0
  6
Continuous
 62
     7
100
AcDbPolyline
 90
        7
 70
     0
 43
0.0
 10
141824.8332057114
 20
2961.365315484865
 10
141824.8338298325
 20
2961.367183587467
 10
141825.0120658138
 20
2961.761288061866
 10
141825.5747178582
 20
2962.589955589265
 10
141826.6221693763
 20
2963.588900887566
 10
141828.1129866099
 20
2964.439009404465
 10
141829.0860750173
 20
2964.750251995567
  0
LWPOLYLINE
  5
120E8
330
1F
100
AcDbEntity
  8
06___PRT_ALL_SURFS
  6
Continuous
 62
     7
100
AcDbPolyline
 90
        3
 70
     0
 43
0.0
 10
141881.8992598605
 20
2981.459050288366
 10
141883.5149892387
 20
2982.357393690567
 10
141883.9420424659
 20
2982.612928612365
  0
LINE
  5
120E9
330
1F
100
AcDbEntity
  8
0
  6
Continuous
 62
     7
100
AcDbLine
 10
141881.8996629969
 20
2981.458743895666
 30
0.0
 11
141881.9315849256
 21
2981.476058047767
 31
0.0
  0
LWPOLYLINE
  5
120EA
330
1F
100
AcDbEntity
  8
06___PRT_ALL_SURFS
  6
Continuous
 62
     7
100
AcDbPolyline
 90
       13
 70
     0
 43
0.0
 10
141875.8139679972
 20
2978.482871048266
 10
141876.2416897861
 20
2978.668254315466
 10
141876.8238110861
 20
2978.926625062166
 10
141877.3889106561
 20
2979.184116189765
 10
141877.9372389237
 20
2979.440177513465
 10
141878.4703593712
 20
2979.694908093567
 10
141878.9873768377
 20
2979.947267506166
 10
141879.4873873359
 20
2980.196185639267
 10
141879.9694122112
 20
2980.440540343967
 10
141880.4329140077
 20
2980.679430145767
 10
141880.8757898104
 20
2980.911138452266
 10
141881.2962591247
 20
2981.134091862165
 10
141881.9315849256
 20
2981.476058047767
  0
LINE
  5
120EF
330
1F
100
AcDbEntity
  8
0
  6
Continuous
 62
     7
100
AcDbLine
 10
141542.7767214882
 20
3102.612928612365
 30
0.0
 11
141978.4792970951
 21
3102.612928612365
 31
0.0
  0
LINE
  5
120F4
330
1F
100
AcDbEntity
  8
0
  6
Continuous
 62
     7
100
AcDbLine
 10
141985.4750328843
 20
3095.368632135465
 30
0.0
 11
141981.5375169527
 21
2982.612928612365
 31
0.0
  0
LINE
  5
1218B
330
1F
100
AcDbEntity
  8
0
  6
Continuous
 62
     7
100
AcDbLine
 10
142127.7723300776
 20
2982.612928612365
 30
0.0
 11
142127.7723300776
 21
3095.612928612365
 31
0.0
  0
LWPOLYLINE
  5
1218D
330
1F
100
AcDbEntity
  8
06___PRT_ALL_SURFS
  6
Continuous
 62
     7
100
AcDbPolyline
 90
        3
 70
     0
 43
0.0
 10
142213.1655602401
 20
2973.068708105066
 10
142215.5494717723
 20
2970.095459871665
 10
142218.8076792713
 20
2966.606489389566
  0
LINE
  5
1218E
330
1F
100
AcDbEntity
  8
06___PRT_ALL_SURFS
  6
Continuous
 62
     7
100
AcDbLine
 10
142213.1672956076
 20
2973.069347984467
 30
0.0
 11
142213.1671866518
 21
2973.069487549466
 31
0.0
  0
LINE
  5
1218F
330
1F
100
AcDbEntity
  8
0
  6
Continuous
 62
     7
100
AcDbLine
 10
142219.6180833338
 20
2965.712979308366
 30
0.0
 11
142220.919271817
 21
2963.599635680767
 31
0.0
  0
LWPOLYLINE
  5
12190
330
1F
100
AcDbEntity
  8
06___PRT_ALL_SURFS
  6
Continuous
 62
     7
100
AcDbPolyline
 90
        3
 70
     0
 43
0.0
 10
142207.2725663305
 20
2982.612928612365
 10
142207.8131577679
 20
2981.443892185165
 10
142213.1671866518
 20
2973.069487549466
  0
LINE
  5
12191
330
1F
100
AcDbEntity
  8
0
  6
Continuous
 62
     7
100
AcDbLine
 10
142220.919271817
 20
2963.599635680767
 30
0.0
 11
142221.6578116912
 21
2961.242757661065
 31
0.0
  0
LWPOLYLINE
  5
12192
330
1F
100
AcDbEntity
  8
0
  6
Continuous
 62
     7
100
AcDbPolyline
 90
        5
 70
     0
 43
0.0
 10
142218.1978872509
 20
2969.423246124665
 10
142218.3666064374
 20
2968.701695486565
 10
142218.5111888698
 20
2968.050999088966
 10
142218.6285392017
 20
2967.498485378066
 10
142218.7169418956
 20
2967.066324584164
  0
LWPOLYLINE
  5
12193
330
1F
100
AcDbEntity
  8
0
  6
Continuous
 62
     7
100
AcDbPolyline
 90
        3
 70
     0
 43
0.0
 10
142218.7169418956
 20
2967.066324584164
 10
142218.8044138644
 20
2966.623340244667
 10
142218.8076235818
 20
2966.606543802165
  0
LINE
  5
12194
330
1F
100
AcDbEntity
  8
0
  6
Continuous
 62
     7
100
AcDbLine
 10
142225.5329267273
 20
2939.929647039366
 30
0.0
 11
142221.6578116912
 21
2961.242757661065
 31
0.0
  0
LINE
  5
12195
330
1F
100
AcDbEntity
  8
02___PRT_ALL_AXES
  6
Continuous
 62
     7
100
AcDbLine
 10
142242.915617719
 20
2922.405195678864
 30
0.0
 11
142243.3730124572
 21
2917.177149898666
 31
0.0
  0
LINE
  5
12196
330
1F
100
AcDbEntity
  8
0
  6
Continuous
 62
     7
100
AcDbLine
 10
142242.915617719
 20
2922.405195678864
 30
0.0
 11
142243.3730124572
 21
2917.177149898666
 31
0.0
  0
LINE
  5
12197
330
1F
100
AcDbEntity
  8
0
  6
Continuous
 62
     7
100
AcDbLine
 10
142218.8076937449
 20
2966.606503971467
 30
0.0
 11
142219.6180833338
 21
2965.712979308366
 31
0.0
  0
LINE
  5
12198
330
1F
100
AcDbEntity
  8
0
  6
Continuous
 62
     7
100
AcDbLine
 10
142282.7723026758
 20
2927.701423716466
 30
0.0
 11
142268.539028932
 21
2927.612928612365
 31
0.0
  0
LINE
  5
12199
330
1F
100
AcDbEntity
  8
0
  6
Continuous
 62
     7
100
AcDbLine
 10
142317.1906742074
 20
2912.612928612365
 30
0.0
 11
142248.3539859477
 21
2912.612928612365
 31
0.0
  0
LINE
  5
1219A
330
1F
100
AcDbEntity
  8
0
  6
Continuous
 62
     7
100
AcDbLine
 10
142325.1341085629
 20
2927.612928612365
 30
0.0
 11
142297.0056312231
 21
2927.612928612365
 31
0.0
  0
LINE
  5
1219B
330
1F
100
AcDbEntity
  8
0
  6
Continuous
 62
     7
100
AcDbLine
 10
142268.539028932
 20
2927.612928612365
 30
0.0
 11
142240.2909753787
 21
2927.612928612365
 31
0.0
  0
LINE
  5
1219C
330
1F
100
AcDbEntity
  8
0
  6
Continuous
 62
     7
100
AcDbLine
 10
142297.0056312231
 20
2927.612928612365
 30
0.0
 11
142282.7723026758
 21
2927.701423716466
 31
0.0
  0
LINE
  5
1219D
330
1F
100
AcDbEntity
  8
0
  6
Continuous
 62
     7
100
AcDbLine
 10
142229.5022520865
 20
2965.909447023867
 30
0.0
 11
142228.1444353355
 21
2966.380853816765
 31
0.0
  0
LWPOLYLINE
  5
1219E
330
1F
100
AcDbEntity
  8
0
  6
Continuous
 62
     7
100
AcDbPolyline
 90
       10
 70
     0
 43
0.0
 10
142228.1444353355
 20
2966.380853816765
 10
142226.7387079217
 20
2966.891212707466
 10
142225.308144472
 20
2967.435057270766
 10
142223.8779563875
 20
2968.003235709066
 10
142222.4690681281
 20
2968.583289391965
 10
142221.1214850928
 20
2969.145784168966
 10
142219.9027804448
 20
2969.632374104367
 10
142218.9170433344
 20
2969.940697987066
 10
142218.3040106846
 20
2969.922897471066
 10
142218.1978872509
 20
2969.423246124665
  0
LWPOLYLINE
  5
1219F
330
1F
100
AcDbEntity
  8
0
  6
Continuous
 62
     7
100
AcDbPolyline
 90
        6
 70
     0
 43
0.0
 10
142253.1777472856
 20
2976.012689748366
 10
142252.1240330353
 20
2973.825706943566
 10
142250.7608259899
 20
2971.722508757266
 10
142249.2182701208
 20
2969.916128126865
 10
142247.6432285894
 20
2968.493167856366
 10
142246.0805132583
 20
2967.401121831466
  0
LINE
  5
121A0
330
1F
100
AcDbEntity
  8
0
  6
Continuous
 62
     7
100
AcDbLine
 10
142253.1776295818
 20
2976.012758181867
 30
0.0
 11
142253.9287198349
 21
2977.166297793265
 31
0.0
  0
LWPOLYLINE
  5
121A1
330
1F
100
AcDbEntity
  8
0
  6
Continuous
 62
     7
100
AcDbPolyline
 90
        3
 70
     0
 43
0.0
 10
142232.0361889297
 20
2965.081765085866
 10
142230.799412527
 20
2965.477620724465
 10
142229.5022520865
 20
2965.909447023867
  0
LINE
  5
121A2
330
1F
100
AcDbEntity
  8
0
  6
Continuous
 62
     7
100
AcDbLine
 10
142253.9287198349
 20
2977.166297793265
 30
0.0
 11
142254.9662744692
 21
2978.074170376065
 31
0.0
  0
LINE
  5
121A3
330
1F
100
AcDbEntity
  8
06___PRT_ALL_SURFS
  6
Continuous
 62
     7
100
AcDbLine
 10
142434.1233441743
 20
2982.612928612365
 30
0.0
 11
142433.0238015809
 21
2982.496019495566
 31
0.0
  0
LINE
  5
121A4
330
1F
100
AcDbEntity
  8
06___PRT_ALL_SURFS
  6
Continuous
 62
     7
100
AcDbLine
 10
142433.0062257777
 20
2982.218512073265
 30
0.0
 11
142437.8740672913
 21
2982.612928612365
 31
0.0
  0
LINE
  5
121A5
330
1F
100
AcDbEntity
  8
02___PRT_ALL_AXES
  6
Continuous
 62
     7
100
AcDbLine
 10
142322.6307930972
 20
2922.425205826367
 30
0.0
 11
142322.1716476979
 21
2917.177149898666
 31
0.0
  0
LINE
  5
121A6
330
1F
100
AcDbEntity
  8
0
  6
Continuous
 62
     7
100
AcDbLine
 10
142322.6307930972
 20
2922.425205826367
 30
0.0
 11
142322.1716476979
 21
2917.177149898666
 31
0.0
  0
LWPOLYLINE
  5
121A7
330
1F
100
AcDbEntity
  8
0
  6
Continuous
 62
     7
100
AcDbPolyline
 90
        3
 70
     0
 43
0.0
 10
142254.9662744692
 20
2978.074170376065
 10
142256.2111742321
 20
2978.665083699965
 10
142257.5672466784
 20
2978.894049852366
  0
LWPOLYLINE
  5
121A8
330
1F
100
AcDbEntity
  8
0
  6
Continuous
 62
     7
100
AcDbPolyline
 90
        4
 70
     0
 43
0.0
 10
142376.8337988615
 20
2981.498818598866
 10
142373.8271471939
 20
2980.966078499765
 10
142371.1217335188
 20
2979.550772895365
 10
142368.9698776166
 20
2977.384899971865
  0
LINE
  5
121A9
330
1F
100
AcDbEntity
  8
06___PRT_ALL_SURFS
  6
Continuous
 62
     7
100
AcDbLine
 10
142376.5823291075
 20
2981.115267950565
 30
0.0
 11
142433.0062825869
 21
2982.212401380066
 31
0.0
  0
LINE
  5
121AA
330
1F
100
AcDbEntity
  8
0
  6
Continuous
 62
     7
100
AcDbLine
 10
142573.6818377385
 20
2982.612928612365
 30
0.0
 11
142127.7723300776
 21
2982.612928612365
 31
0.0
  0
LWPOLYLINE
  5
121AB
330
1F
100
AcDbEntity
  8
0
  6
Continuous
 62
     7
100
AcDbPolyline
 90
        9
 70
     0
 43
0.0
 10
142376.8337959908
 20
2981.498947187567
 10
142376.2384166941
 20
2981.613719386267
 10
142374.3720259133
 20
2981.702935693265
 10
142371.2904130382
 20
2981.759882465766
 10
142366.9016694493
 20
2981.775399360566
 10
142361.0771258766
 20
2981.735478389867
 10
142353.7422832298
 20
2981.624919403767
 10
142344.8885591154
 20
2981.431724017366
 10
142257.5672425456
 20
2978.894016165265
  0
LWPOLYLINE
  5
121AC
330
1F
100
AcDbEntity
  8
0
  6
Continuous
 62
     7
100
AcDbPolyline
 90
        6
 70
     0
 43
0.0
 10
142246.0805132583
 20
2967.401121831466
 10
142243.6984637924
 20
2966.168515270667
 10
142240.9565365398
 20
2965.216040448966
 10
142238.0130966967
 20
2964.675149378967
 10
142235.0044239022
 20
2964.618696252266
 10
142232.0363352868
 20
2965.082082625766
  0
LINE
  5
121AD
330
1F
100
AcDbEntity
  8
0
  6
Continuous
 62
     7
100
AcDbLine
 10
142376.5822776746
 20
2981.115266950467
 30
0.0
 11
142376.8337959908
 21
2981.498947187567
 31
0.0
  0
LINE
  5
121AE
330
1F
100
AcDbEntity
  8
0
  6
Continuous
 62
     7
100
AcDbLine
 10
142368.9700410062
 20
2977.384781139266
 30
0.0
 11
142337.2650024665
 21
2933.790353147266
 31
0.0
  0
LINE
  5
121AF
330
1F
100
AcDbEntity
  8
06___PRT_ALL_SURFS
  6
Continuous
 62
     7
100
AcDbLine
 10
142433.0238022333
 20
2982.496016965166
 30
0.0
 11
142433.0062825867
 21
2982.212401380767
 31
0.0
  0
LINE
  5
121B2
330
1F
100
AcDbEntity
  8
0
  6
Continuous
 62
     7
100
AcDbLine
 10
142134.7723300776
 20
3102.612928612365
 30
0.0
 11
142570.623617881
 21
3102.612928612365
 31
0.0
  0
LINE
  5
121B8
330
1F
100
AcDbEntity
  8
0
  6
Continuous
 62
     7
100
AcDbLine
 10
142577.6193536701
 20
3095.368632135465
 30
0.0
 11
142573.6818377385
 21
2982.612928612365
 31
0.0
  0
ARC
  5
12253
330
1F
100
AcDbEntity
  8
0
  6
Continuous
 62
     7
100
AcDbCircle
 10
141717.0850631305
 20
2942.612928612365
 30
0.0
 40
15.0
100
AcDbArc
 50
195.2551187033365
 51
269.9995560568805
  0
ARC
  5
12254
330
1F
100
AcDbEntity
  8
0
  6
Continuous
 62
     7
100
AcDbCircle
 10
141714.8070523824
 20
2921.736108520265
 30
0.0
 40
5.9999837296
100
AcDbArc
 50
5.000000001118971
 51
83.77259682620449
  0
ARC
  5
12255
330
1F
100
AcDbEntity
  8
0
  6
Continuous
 62
     7
100
AcDbCircle
 10
141726.2096651617
 20
2917.612928612365
 30
0.0
 40
5.0
100
AcDbArc
 50
184.9999999999769
 51
270.0
  0
ARC
  5
12256
330
1F
100
AcDbEntity
  8
0
  6
Continuous
 62
     7
100
AcDbCircle
 10
141542.7768995545
 20
3095.612928612365
 30
0.0
 40
7.0
100
AcDbArc
 50
90.00145749166589
 51
181.9999491375181
  0
ARC
  5
12257
330
1F
100
AcDbEntity
  8
0
  6
Continuous
 62
     7
100
AcDbCircle
 10
141804.1709825326
 20
2942.612928612365
 30
0.0
 40
15.0
100
AcDbArc
 50
270.0003405047737
 51
344.7449708884661
  0
ARC
  5
12258
330
1F
100
AcDbEntity
  8
0
  6
Continuous
 62
     7
100
AcDbCircle
 10
141806.4489662009
 20
2921.736108520265
 30
0.0
 40
5.9999837296
100
AcDbArc
 50
96.22740317379552
 51
174.999999998881
  0
ARC
  5
12259
330
1F
100
AcDbEntity
  8
0
  6
Continuous
 62
     7
100
AcDbCircle
 10
141795.0463534216
 20
2917.612928612365
 30
0.0
 40
5.0
100
AcDbArc
 50
270.0
 51
355.0000000000232
  0
ARC
  5
1225A
330
1F
100
AcDbEntity
  8
0
  6
Continuous
 62
     7
100
AcDbCircle
 10
141978.4791185656
 20
3095.612928612365
 30
0.0
 40
7.0
100
AcDbArc
 50
358.000050994739
 51
89.99853871554472
  0
ARC
  5
12261
330
1F
100
AcDbEntity
  8
0
  6
Continuous
 62
     7
100
AcDbCircle
 10
142236.9384592753
 20
2921.882228374965
 30
0.0
 40
5.999999159899999
100
AcDbArc
 50
5.000320586133479
 51
80.81390350819493
  0
ARC
  5
12262
330
1F
100
AcDbEntity
  8
0
  6
Continuous
 62
     7
100
AcDbCircle
 10
142248.3539859477
 20
2917.612928612365
 30
0.0
 40
5.0
100
AcDbArc
 50
185.0000000042881
 51
270.0
  0
ARC
  5
12263
330
1F
100
AcDbEntity
  8
0
  6
Continuous
 62
     7
100
AcDbCircle
 10
142240.2909753787
 20
2942.612928612365
 30
0.0
 40
15.0
100
AcDbArc
 50
190.3048464683766
 51
269.9990306100608
  0
ARC
  5
12264
330
1F
100
AcDbEntity
  8
0
  6
Continuous
 62
     7
100
AcDbCircle
 10
142328.6079511144
 20
2921.902237155666
 30
0.0
 40
5.999999123999999
100
AcDbArc
 50
99.52198234275655
 51
174.999666056895
  0
ARC
  5
12265
330
1F
100
AcDbEntity
  8
0
  6
Continuous
 62
     7
100
AcDbCircle
 10
142317.1906742074
 20
2917.612928612365
 30
0.0
 40
5.0
100
AcDbArc
 50
270.0
 51
354.9999999957118
  0
ARC
  5
12266
330
1F
100
AcDbEntity
  8
0
  6
Continuous
 62
     7
100
AcDbCircle
 10
142325.1338065471
 20
2942.612928612365
 30
0.0
 40
15.0
100
AcDbArc
 50
270.0005907413271
 51
323.9729740358377
  0
ARC
  5
12267
330
1F
100
AcDbEntity
  8
0
  6
Continuous
 62
     7
100
AcDbCircle
 10
142134.7724458114
 20
3095.612928612365
 30
0.0
 40
7.0
100
AcDbArc
 50
90.00094729521109
 51
180.0
  0
ARC
  5
12268
330
1F
100
AcDbEntity
  8
0
  6
Continuous
 62
     7
100
AcDbCircle
 10
142570.623617881
 20
3095.612928612365
 30
0.0
 40
7.0
100
AcDbArc
 50
358.0000000000505
 51
90.0
  0
LWPOLYLINE
  5
122F0
330
1F
100
AcDbEntity
  8
0
  6
Continuous
 62
     7
100
AcDbPolyline
 90
        6
 70
     0
 43
0.0
 10
141564.1449025865
 20
2722.825438802198
 10
141556.3032862945
 20
2720.298991158197
 10
141549.2604154493
 20
2716.004450117998
 10
141543.4169056745
 20
2710.180370659598
 10
141539.1015487828
 20
2703.155982939199
 10
141536.5521973491
 20
2695.332226316197
  0
LWPOLYLINE
  5
122F1
330
1F
100
AcDbEntity
  8
0
  6
Continuous
 62
     7
100
AcDbPolyline
 90
        8
 70
     0
 43
0.0
 10
141535.8750584184
 20
2308.710074582599
 10
141536.5300767681
 20
2301.968185865799
 10
141539.0539749355
 20
2294.134842892498
 10
141543.3439586342
 20
2287.100323498599
 10
141549.1623922236
 20
2281.263615906699
 10
141556.1816337817
 20
2276.952429789499
 10
141564.0028812395
 20
2274.404401887099
 10
141570.8581998965
 20
2273.726852482498
  0
LINE
  5
122F2
330
1F
100
AcDbEntity
  8
0
  6
Continuous
 62
     7
100
AcDbLine
 10
141535.8748318931
 20
2688.481166796599
 30
0.0
 11
141535.8748318931
 21
2308.710074582199
 31
0.0
  0
LWPOLYLINE
  5
122F3
330
1F
100
AcDbEntity
  8
0
  6
Continuous
 62
     7
100
AcDbPolyline
 90
        8
 70
     0
 43
0.0
 10
141950.400384321
 20
2273.726933108097
 10
141957.1422730378
 20
2274.381951457799
 10
141964.9756160111
 20
2276.905849625299
 10
141972.010135405
 20
2281.195833323898
 10
141977.8468429969
 20
2287.014266913399
 10
141982.1580291141
 20
2294.033508471399
 10
141984.7060570164
 20
2301.854755929198
 10
141985.3836064211
 20
2308.710074586197
  0
LINE
  5
122F4
330
1F
100
AcDbEntity
  8
0
  6
Continuous
 62
     7
100
AcDbLine
 10
141570.858199875
 20
2273.726706582798
 30
0.0
 11
141950.4003843214
 21
2273.726706582798
 31
0.0
  0
LWPOLYLINE
  5
122F5
330
1F
100
AcDbEntity
  8
0
  6
Continuous
 62
     7
100
AcDbPolyline
 90
       14
 70
     0
 43
0.0
 10
141550.6174363743
 20
2383.126878197098
 10
141550.6742586277
 20
2366.864130925598
 10
141550.4736401147
 20
2351.984251165199
 10
141551.5115948517
 20
2338.610560052599
 10
141554.5810965849
 20
2327.059808203398
 10
141559.6364339851
 20
2316.846255243
 10
141566.6801035538
 20
2307.643460360498
 10
141575.3755914916
 20
2299.929216315799
 10
141585.3010805264
 20
2294.086602509098
 10
141596.1897534184
 20
2290.257470921897
 10
141608.4930391128
 20
2288.518310140899
 10
141622.4240323179
 20
2288.440643772698
 10
141637.6592861314
 20
2288.503006226398
 10
141866.9355169649
 20
2288.4744785755
  0
LWPOLYLINE
  5
122F6
330
1F
100
AcDbEntity
  8
0
  6
Continuous
 62
     7
100
AcDbPolyline
 90
       14
 70
     0
 43
0.0
 10
141866.9355169649
 20
2288.4744785755
 10
141883.5330071302
 20
2288.503172405599
 10
141898.746630019
 20
2288.441143220798
 10
141912.659806418
 20
2288.511884899099
 10
141924.9552387863
 20
2290.229859042098
 10
141935.8518927558
 20
2294.037578475498
 10
141945.7925055007
 20
2299.863535357297
 10
141954.5028839802
 20
2307.562336376897
 10
141961.5656625922
 20
2316.755708785398
 10
141966.6416062144
 20
2326.965665958598
 10
141969.7324421606
 20
2338.522908458599
 10
141970.7829569038
 20
2351.918537139498
 10
141970.5855953514
 20
2366.826530875498
 10
141970.6410193728
 20
2383.119774195398
  0
LINE
  5
122F7
330
1F
100
AcDbEntity
  8
0
  6
Continuous
 62
     7
100
AcDbLine
 10
141660.6293039578
 20
2483.481185212199
 30
0.0
 11
141660.6237035001
 21
2608.789580819899
 31
0.0
  0
LINE
  5
122F8
330
1F
100
AcDbEntity
  8
0
  6
Continuous
 62
     7
100
AcDbLine
 10
141660.6161595533
 20
2465.926997219498
 30
0.0
 11
141660.6293039578
 21
2483.481185212199
 31
0.0
  0
LWPOLYLINE
  5
122F9
330
1F
100
AcDbEntity
  8
0
  6
Continuous
 62
     7
100
AcDbPolyline
 90
        4
 70
     0
 43
0.0
 10
141660.6237035001
 20
2608.789580819899
 10
141660.6306473069
 20
2610.445724046498
 10
141660.6092936365
 20
2611.962692363599
 10
141660.6262681079
 20
2613.563076291998
  0
LINE
  5
122FA
330
1F
100
AcDbEntity
  8
0
  6
Continuous
 62
     7
100
AcDbLine
 10
141660.6102623647
 20
2465.291068082697
 30
0.0
 11
141660.6161595533
 21
2465.926997219498
 31
0.0
  0
LWPOLYLINE
  5
122FB
330
1F
100
AcDbEntity
  8
0
  6
Continuous
 62
     7
100
AcDbPolyline
 90
        6
 70
     0
 43
0.0
 10
141672.1316191398
 20
2613.563002971798
 10
141672.0886178237
 20
2612.037079431399
 10
141672.2375129391
 20
2610.640910679399
 10
141672.5290102765
 20
2609.579162629798
 10
141672.9605753447
 20
2608.863687767899
 10
141673.5170345827
 20
2608.469618396499
  0
LWPOLYLINE
  5
122FC
330
1F
100
AcDbEntity
  8
0
  6
Continuous
 62
     7
100
AcDbPolyline
 90
       11
 70
     0
 43
0.0
 10
141847.7415496312
 20
2608.469618396499
 10
141848.015228578
 20
2608.619855374698
 10
141848.2981797909
 20
2608.863985563298
 10
141848.5212600869
 20
2609.163979743998
 10
141848.7308264761
 20
2609.580153818599
 10
141848.8952885545
 20
2610.070904876699
 10
141849.0206313546
 20
2610.641931147299
 10
141849.1183710678
 20
2611.332812401699
 10
141849.1702727291
 20
2612.034908459698
 10
141849.1718599681
 20
2612.831721004899
 10
141849.1269650741
 20
2613.563002971798
  0
LINE
  5
122FD
330
1F
100
AcDbEntity
  8
0
  6
Continuous
 62
     7
100
AcDbLine
 10
141740.6551870166
 20
2420.290437189999
 30
0.0
 11
141813.3668513805
 21
2419.960174551299
 31
0.0
  0
LWPOLYLINE
  5
122FE
330
1F
100
AcDbEntity
  8
0
  6
Continuous
 62
     7
100
AcDbPolyline
 90
       11
 70
     0
 43
0.0
 10
141740.6551870166
 20
2420.290437189999
 10
141707.8862582501
 20
2420.291796252798
 10
141698.6207375898
 20
2420.3793480504
 10
141690.316228522
 20
2421.648545046799
 10
141682.620445617
 20
2424.605810294299
 10
141675.6873023685
 20
2429.059609428798
 10
141669.9553315863
 20
2434.688183358498
 10
141665.5212958468
 20
2441.139874267097
 10
141662.4844960554
 20
2448.120066090798
 10
141660.9090946273
 20
2456.099262491898
 10
141660.6102623647
 20
2465.291068082697
  0
LINE
  5
122FF
330
1F
100
AcDbEntity
  8
0
  6
Continuous
 62
     7
100
AcDbLine
 10
141860.6292802561
 20
2483.481185212199
 30
0.0
 11
141860.6426687359
 21
2465.461084446599
 31
0.0
  0
LINE
  5
12300
330
1F
100
AcDbEntity
  8
0
  6
Continuous
 62
     7
100
AcDbLine
 10
141860.632316106
 20
2613.563076291899
 30
0.0
 11
141860.6292802561
 21
2483.481185212199
 31
0.0
  0
LWPOLYLINE
  5
12301
330
1F
100
AcDbEntity
  8
0
  6
Continuous
 62
     7
100
AcDbPolyline
 90
       10
 70
     0
 43
0.0
 10
141860.648625669
 20
2464.962150932399
 10
141860.3479057064
 20
2455.748947697199
 10
141858.7659294099
 20
2447.765072333699
 10
141855.7300319261
 20
2440.797467081298
 10
141851.2973397822
 20
2434.351840539799
 10
141845.5705337555
 20
2428.729721916498
 10
141838.6433439546
 20
2424.279896268599
 10
141830.9595522989
 20
2421.322156153398
 10
141822.6480723967
 20
2420.054480739699
 10
141813.3668513805
 20
2419.960174551299
  0
LINE
  5
12302
330
1F
100
AcDbEntity
  8
0
  6
Continuous
 62
     7
100
AcDbLine
 10
141740.7389774232
 20
2608.482096718999
 30
0.0
 11
141740.7939342869
 21
2608.482886574698
 31
0.0
  0
LINE
  5
12303
330
1F
100
AcDbEntity
  8
0
  6
Continuous
 62
     7
100
AcDbLine
 10
141847.7413457733
 20
2608.490504537498
 30
0.0
 11
141673.5172318159
 21
2608.481166796599
 31
0.0
  0
LINE
  5
12304
330
1F
100
AcDbEntity
  8
0
  6
Continuous
 62
     7
100
AcDbLine
 10
141673.5172347463
 20
2608.490505238298
 30
0.0
 11
141735.6292894499
 21
2608.471833492798
 31
0.0
  0
LINE
  5
12305
330
1F
100
AcDbEntity
  8
0
  6
Continuous
 62
     7
100
AcDbLine
 10
141740.7939342869
 20
2608.482886574698
 30
0.0
 11
141741.4748071337
 21
2608.478837735098
 31
0.0
  0
LWPOLYLINE
  5
12306
330
1F
100
AcDbEntity
  8
0
  6
Continuous
 62
     7
100
AcDbPolyline
 90
        8
 70
     0
 43
0.0
 10
141860.6323279413
 20
2613.563042588797
 10
141860.1744544882
 20
2617.167611067198
 10
141858.7589311649
 20
2620.743051453697
 10
141856.4880239871
 20
2623.837082573098
 10
141853.4849584853
 20
2626.258413134798
 10
141850.0236437977
 20
2627.831745980499
 10
141846.4857474313
 20
2628.446219120098
 10
141842.796440543
 20
2628.484555932799
  0
LWPOLYLINE
  5
12307
330
1F
100
AcDbEntity
  8
0
  6
Continuous
 62
     7
100
AcDbPolyline
 90
        4
 70
     0
 43
0.0
 10
141700.6292672338
 20
2614.065848884898
 10
141691.1653760186
 20
2613.975784715198
 10
141681.4203389878
 20
2613.804562414899
 10
141672.1341350014
 20
2613.561356246599
  0
LWPOLYLINE
  5
12308
330
1F
100
AcDbEntity
  8
0
  6
Continuous
 62
     7
100
AcDbPolyline
 90
        8
 70
     0
 43
0.0
 10
141753.5432736662
 20
2628.913825582098
 10
141750.4586967471
 20
2628.897969111199
 10
141747.8395423727
 20
2628.8712610882
 10
141745.4734413354
 20
2628.833736487799
 10
141743.108530441
 20
2628.780778658899
 10
141740.6185938792
 20
2628.704420556998
 10
141738.0495337176
 20
2628.599692392998
 10
141735.6290522275
 20
2628.482773820399
  0
LINE
  5
12309
330
1F
100
AcDbEntity
  8
0
  6
Continuous
 62
     7
100
AcDbLine
 10
141860.6396919893
 20
2608.469317379779
 30
0.0
 11
141849.1244492125
 21
2613.561356246699
 31
0.0
  0
LINE
  5
1230A
330
1F
100
AcDbEntity
  8
0
  6
Continuous
 62
     7
100
AcDbLine
 10
141672.1341350014
 20
2613.561356246599
 30
0.0
 11
141660.6237035001
 21
2608.789580819899
 31
0.0
  0
LWPOLYLINE
  5
1230B
330
1F
100
AcDbEntity
  8
0
  6
Continuous
 62
     7
100
AcDbPolyline
 90
        9
 70
     0
 43
0.0
 10
141735.6287840797
 20
2628.480944566298
 10
141678.4200828964
 20
2628.484551078698
 10
141674.7195730197
 20
2628.443126490798
 10
141671.1929527024
 20
2627.818845290498
 10
141667.7466901667
 20
2626.2418326009
 10
141664.7538629598
 20
2623.819589901898
 10
141662.4913829414
 20
2620.728253430098
 10
141661.0822927845
 20
2617.160005768598
 10
141660.62625626
 20
2613.563042688098
  0
LWPOLYLINE
  5
1230C
330
1F
100
AcDbEntity
  8
0
  6
Continuous
 62
     7
100
AcDbPolyline
 90
        4
 70
     0
 43
0.0
 10
141820.6276146628
 20
2614.062374861098
 10
141809.5056710038
 20
2614.084571914399
 10
141797.8392048226
 20
2614.009246046599
 10
141785.6305764783
 20
2613.806383208197
  0
LINE
  5
1230D
330
1F
100
AcDbEntity
  8
0
  6
Continuous
 62
     7
100
AcDbLine
 10
141785.6298001342
 20
2628.480944566298
 30
0.0
 11
141842.796440543
 21
2628.484555932799
 31
0.0
  0
LINE
  5
1230E
330
1F
100
AcDbEntity
  8
0
  6
Continuous
 62
     7
100
AcDbLine
 10
141760.6775254853
 20
2628.902816750099
 30
0.0
 11
141753.5432736662
 21
2628.913825582098
 31
0.0
  0
LINE
  5
1230F
330
1F
100
AcDbEntity
  8
0
  6
Continuous
 62
     7
100
AcDbLine
 10
141767.4726805475
 20
2628.8475745482
 30
0.0
 11
141760.6775254853
 21
2628.902816750099
 31
0.0
  0
LINE
  5
12310
330
1F
100
AcDbEntity
  8
0
  6
Continuous
 62
     7
100
AcDbLine
 10
141775.3861346264
 20
2628.740031438298
 30
0.0
 11
141767.4726805475
 21
2628.8475745482
 31
0.0
  0
LWPOLYLINE
  5
12311
330
1F
100
AcDbEntity
  8
0
  6
Continuous
 62
     7
100
AcDbPolyline
 90
        4
 70
     0
 43
0.0
 10
141735.6280077356
 20
2613.806383208197
 10
141723.4191914024
 20
2614.009248221699
 10
141711.7527687463
 20
2614.084572199197
 10
141700.630969551
 20
2614.062374861098
  0
LWPOLYLINE
  5
12312
330
1F
100
AcDbEntity
  8
0
  6
Continuous
 62
     7
100
AcDbPolyline
 90
        4
 70
     0
 43
0.0
 10
141785.6306571275
 20
2613.8061802331
 10
141770.3219207189
 20
2614.058884773998
 10
141753.1861693111
 20
2614.022904203099
 10
141735.6279270863
 20
2613.8061802331
  0
LWPOLYLINE
  5
12313
330
1F
100
AcDbEntity
  8
0
  6
Continuous
 62
     7
100
AcDbPolyline
 90
        4
 70
     0
 43
0.0
 10
141849.1244492125
 20
2613.561356246699
 10
141839.8623719541
 20
2613.804054704399
 10
141830.0966674387
 20
2613.975739091799
 10
141820.6293169801
 20
2614.065848884799
  0
LWPOLYLINE
  5
12314
330
1F
100
AcDbEntity
  8
0
  6
Continuous
 62
     7
100
AcDbPolyline
 90
        5
 70
     0
 43
0.0
 10
141785.6295317411
 20
2628.482773824899
 10
141784.1201332351
 20
2628.545995313498
 10
141782.578870122
 20
2628.591934373399
 10
141781.0601593235
 20
2628.629502418498
 10
141775.3861346264
 20
2628.740031438298
  0
LINE
  5
12315
330
1F
100
AcDbEntity
  8
0
  6
Continuous
 62
     7
100
AcDbLine
 10
141985.3837523208
 20
2308.710074564698
 30
0.0
 11
141985.3837523208
 21
2688.4811667693
 31
0.0
  0
LWPOLYLINE
  5
12316
330
1F
100
AcDbEntity
  8
0
  6
Continuous
 62
     7
100
AcDbPolyline
 90
        3
 70
     0
 43
0.0
 10
141970.6410193728
 20
2383.119774195398
 10
141970.6330627349
 20
2624.012539146099
 10
141970.5890829458
 20
2650.087145764497
  0
LWPOLYLINE
  5
12317
330
1F
100
AcDbEntity
  8
0
  6
Continuous
 62
     7
100
AcDbPolyline
 90
       11
 70
     0
 43
0.0
 10
141620.2908295704
 20
2708.4699814487
 10
141607.7330855148
 20
2708.406754504498
 10
141596.4966148822
 20
2706.794348472199
 10
141585.8796763424
 20
2703.137182277098
 10
141576.1288189093
 20
2697.570402466598
 10
141567.5904219205
 20
2690.285864097798
 10
141560.5599895594
 20
2681.5425425365
 10
141555.2660630774
 20
2671.602376432799
 10
141551.9292152553
 20
2660.959570329498
 10
141550.6608747478
 20
2649.801019903998
 10
141550.6174363743
 20
2383.126878197098
  0
LWPOLYLINE
  5
12318
330
1F
100
AcDbEntity
  8
0
  6
Continuous
 62
     7
100
AcDbPolyline
 90
       11
 70
     0
 43
0.0
 10
141970.5890829458
 20
2650.087145764497
 10
141969.2634357368
 20
2661.264908698699
 10
141965.8732522656
 20
2671.885453848898
 10
141960.5380278764
 20
2681.784587223498
 10
141953.4728399263
 20
2690.486025787897
 10
141944.9109283612
 20
2697.723447305598
 10
141935.1450695045
 20
2703.242434475698
 10
141924.5255007613
 20
2706.851235892199
 10
141913.2777246093
 20
2708.420952839699
 10
141900.7287258106
 20
2708.467915544599
 10
141620.2908295704
 20
2708.4699814487
  0
LWPOLYLINE
  5
12319
330
1F
100
AcDbEntity
  8
0
  6
Continuous
 62
     7
100
AcDbPolyline
 90
        8
 70
     0
 43
0.0
 10
141985.3795943162
 20
2688.481166796599
 10
141984.7071434965
 20
2695.307799115499
 10
141982.7155228143
 20
2701.872443557699
 10
141979.4810028886
 20
2707.923018698898
 10
141975.1275358589
 20
2713.227044202398
 10
141969.8221083183
 20
2717.580529660299
 10
141963.7684346218
 20
2720.815862631498
 10
141957.1992026288
 20
2722.808354220699
  0
LWPOLYLINE
  5
1231A
330
1F
100
AcDbEntity
  8
0
  6
Continuous
 62
     7
100
AcDbPolyline
 90
        9
 70
     0
 43
0.0
 10
141568.8809974497
 20
2723.423418090599
 10
141564.0593873751
 20
2722.808355363799
 10
141557.4901540497
 20
2720.815864457298
 10
141551.4364786693
 20
2717.580531466598
 10
141546.131048651
 20
2713.227044440499
 10
141541.7775794033
 20
2707.923015784798
 10
141538.5430589359
 20
2701.872437735798
 10
141536.5514393553
 20
2695.307792289397
 10
141535.8789898976
 20
2688.481166796599
  0
LINE
  5
1231B
330
1F
100
AcDbEntity
  8
0
  6
Continuous
 62
     7
100
AcDbLine
 10
141570.8914737965
 20
2723.481166796599
 30
0.0
 11
141568.8809974497
 21
2723.423418090599
 31
0.0
  0
LINE
  5
1231C
330
1F
100
AcDbEntity
  8
0
  6
Continuous
 62
     7
100
AcDbLine
 10
141950.3645447869
 20
2723.481166796599
 30
0.0
 11
141570.8914737965
 21
2723.481166796599
 31
0.0
  0
LINE
  5
1231D
330
1F
100
AcDbEntity
  8
0
  6
Continuous
 62
     7
100
AcDbLine
 10
141952.9716784282
 20
2723.384191657499
 30
0.0
 11
141950.3645454115
 21
2723.481166702699
 31
0.0
  0
LWPOLYLINE
  5
1231E
330
1F
100
AcDbEntity
  8
0
  6
Continuous
 62
     7
100
AcDbPolyline
 90
        7
 70
     0
 43
0.0
 10
141984.72886937
 20
2695.2186376332
 10
141982.2037023592
 20
2703.054481051598
 10
141977.9096088921
 20
2710.094144514798
 10
141972.0844302134
 20
2715.936516511798
 10
141965.0568698495
 20
2720.252305220598
 10
141957.2273318642
 20
2722.802944983298
 10
141952.9717715824
 20
2723.383831385598
  0
LINE
  5
1231F
330
1F
100
AcDbEntity
  8
轮廓线.
100
AcDbLine
 10
141847.7415496312
 20
2608.469618396499
 30
0.0
 11
141860.6321972279
 21
2608.469317554691
 31
0.0
  0
LINE
  5
12320
330
1F
100
AcDbEntity
  8
轮廓线.
100
AcDbLine
 10
141673.5170345827
 20
2608.469618396499
 30
0.0
 11
141660.6225886495
 21
2608.523681680363
 31
0.0
  0
MTEXT
  5
13981
330
1F
100
AcDbEntity
  8
尺寸标注
100
AcDbMText
 10
141737.5982353078
 20
3532.009723994707
 30
0.0
 40
75.0
 41
801.6353349369019
 71
     2
 72
     5
  1
SCALE\P1:1
 73
     1
 44
1.0
  0
ENDSEC
  0
SECTION
  2
OBJECTS
  0
DICTIONARY
  5
C
330
0
100
AcDbDictionary
281
     1
  3
ACAD_COLOR
350
6B
  3
ACAD_GROUP
350
D
  3
ACAD_LAYOUT
350
1A
  3
ACAD_MATERIAL
350
6A
  3
ACAD_MLEADERSTYLE
350
139B9
  3
ACAD_MLINESTYLE
350
17
  3
ACAD_PLOTSETTINGS
350
19
  3
ACAD_PLOTSTYLENAME
350
E
  3
ACAD_SCALELIST
350
13997
  3
ACAD_TABLESTYLE
350
7E
  3
ACAD_VISUALSTYLE
350
F0
  3
ACDB_RECOMPOSE_DATA
350
139C8
  3
ACDBHEADERROUNDTRIPXREC
350
139C4
  3
AcDbVariableDictionary
350
5E
  3
ASE_INDEX_DICTIONARY
350
15A5
  3
lxx_dict
350
123
  0
DICTIONARY
  5
1D0
330
2
100
AcDbDictionary
280
     1
281
     1
  3
ACAD_LAYERFILTERS
360
534
  3
ACAD_LAYERSTATES
360
C28
  3
ACLYDICTIONARY
360
533
  0
DICTIONARY
  5
1C6D
330
1C6C
100
AcDbDictionary
280
     1
281
     1
  3
ADSK_XREC_LAYER_RECONCILED
360
1C6E
  0
DICTIONARY
  5
1C70
330
1C6F
100
AcDbDictionary
280
     1
281
     1
  3
ADSK_XREC_LAYER_RECONCILED
360
1C71
  0
DICTIONARY
  5
1C73
330
1C72
100
AcDbDictionary
280
     1
281
     1
  3
ADSK_XREC_LAYER_RECONCILED
360
1C74
  0
DICTIONARY
  5
1C76
330
1C75
100
AcDbDictionary
280
     1
281
     1
  3
ADSK_XREC_LAYER_RECONCILED
360
1C77
  0
DICTIONARY
  5
1E9
330
1F
100
AcDbDictionary
280
     1
281
     1
  3
ACAD_SORTENTS
360
1EA
  0
DICTIONARY
  5
1A48
330
1A47
100
AcDbDictionary
280
     1
281
     1
  3
ACAD_SORTENTS
360
1A49
  0
DICTIONARY
  5
243C
330
243B
100
AcDbDictionary
280
     1
281
     1
  3
ACAD_SORTENTS
360
243D
  0
DICTIONARY
  5
10335
330
10334
100
AcDbDictionary
280
     1
281
     1
  3
ACAD_SORTENTS
360
10336
  0
DICTIONARY
  5
6B
102
{ACAD_REACTORS
330
C
102
}
330
C
100
AcDbDictionary
281
     1
  0
DICTIONARY
  5
D
102
{ACAD_REACTORS
330
C
102
}
330
C
100
AcDbDictionary
281
     1
  0
DICTIONARY
  5
1A
102
{ACAD_REACTORS
330
C
102
}
330
C
100
AcDbDictionary
281
     1
  3
Model
350
22
  3
布局1
350
D3
  3
布局2
350
D7
  0
DICTIONARY
  5
6A
102
{ACAD_REACTORS
330
C
102
}
330
C
100
AcDbDictionary
281
     1
  3
ByBlock
350
EE
  3
ByLayer
350
ED
  3
Global
350
EF
  0
DICTIONARY
  5
139B9
102
{ACAD_REACTORS
330
C
102
}
330
C
100
AcDbDictionary
281
     1
  3
Standard
350
139BA
  0
DICTIONARY
  5
17
102
{ACAD_REACTORS
330
C
102
}
330
C
100
AcDbDictionary
281
     1
  3
Standard
350
18
  0
DICTIONARY
  5
19
102
{ACAD_REACTORS
330
C
102
}
330
C
100
AcDbDictionary
281
     1
  0
ACDBDICTIONARYWDFLT
  5
E
102
{ACAD_REACTORS
330
C
102
}
330
C
100
AcDbDictionary
281
     1
  3
Normal
350
F
100
AcDbDictionaryWithDefault
340
F
  0
DICTIONARY
  5
13997
102
{ACAD_REACTORS
330
C
102
}
330
C
100
AcDbDictionary
281
     1
  3
A0
350
13998
  3
A1
350
13999
  3
A2
350
1399A
  3
A3
350
1399B
  3
A4
350
1399C
  3
A5
350
1399D
  3
A6
350
1399E
  3
A7
350
1399F
  3
A8
350
139A0
  3
A9
350
139A1
  3
B0
350
139A2
  3
B1
350
139A3
  3
B2
350
139A4
  3
B3
350
139A5
  3
B4
350
139A6
  3
B5
350
139A7
  3
B6
350
139A8
  3
B7
350
139A9
  3
B8
350
139AA
  3
B9
350
139AB
  3
C0
350
139AC
  3
C1
350
139AD
  3
C2
350
139AE
  3
C3
350
139AF
  3
C4
350
139B0
  3
C5
350
139B1
  3
C6
350
139B2
  3
C7
350
139B3
  3
C8
350
139B4
  3
C9
350
139B5
  3
D0
350
139B6
  3
D1
350
139B7
  3
D2
350
139B8
  0
DICTIONARY
  5
7E
102
{ACAD_REACTORS
330
C
102
}
330
C
100
AcDbDictionary
281
     1
  3
Standard
350
7F
  0
DICTIONARY
  5
F0
102
{ACAD_REACTORS
330
C
102
}
330
C
100
AcDbDictionary
281
     1
  3
2dWireframe
350
F6
  3
3D Hidden
350
F8
  3
3dWireframe
350
F7
  3
Basic
350
F5
  3
Brighten
350
FC
  3
ColorChange
350
100
  3
Conceptual
350
F9
  3
Dim
350
FB
  3
Facepattern
350
FF
  3
Flat
350
F1
  3
FlatWithEdges
350
F2
  3
Gouraud
350
F3
  3
GouraudWithEdges
350
F4
  3
Linepattern
350
FE
  3
Realistic
350
FA
  3
Thicken
350
FD
  0
XRECORD
  5
139C8
102
{ACAD_REACTORS
330
C
102
}
330
C
100
AcDbXrecord
280
     1
 90
        1
330
7F
  0
DICTIONARY
  5
139C4
102
{ACAD_REACTORS
330
C
102
}
330
C
100
AcDbDictionary
281
     1
  0
DICTIONARY
  5
5E
102
{ACAD_REACTORS
330
C
102
}
330
C
100
AcDbDictionary
281
     1
  3
CMLEADERSTYLE
350
139C2
  3
CTABLESTYLE
350
84
  3
DIMASSOC
350
5F
  3
HIDETEXT
350
63
  0
DICTIONARY
  5
15A5
102
{ACAD_REACTORS
330
C
102
}
330
C
100
AcDbDictionary
281
     1
  3
ASEBlockHierarchyIndexRecord
350
15A7
1001
DCO15
1040
1781252587.703
  0
DICTIONARY
  5
123
102
{ACAD_REACTORS
330
C
102
}
330
C
100
AcDbDictionary
281
     1
  3
lxx_dimth
350
124
  0
DICTIONARY
  5
534
102
{ACAD_REACTORS
330
1D0
102
}
330
1D0
100
AcDbDictionary
281
     1
  0
DICTIONARY
  5
C28
102
{ACAD_REACTORS
330
1D0
102
}
330
1D0
100
AcDbDictionary
281
     1
  0
DICTIONARY
  5
533
102
{ACAD_REACTORS
330
1D0
102
}
330
1D0
100
AcDbDictionary
281
     1
1001
ACAD
1000
<All
  0
XRECORD
  5
1C6E
102
{ACAD_REACTORS
330
1C6D
102
}
330
1C6D
100
AcDbXrecord
280
     1
290
     1
  0
XRECORD
  5
1C71
102
{ACAD_REACTORS
330
1C70
102
}
330
1C70
100
AcDbXrecord
280
     1
290
     1
  0
XRECORD
  5
1C74
102
{ACAD_REACTORS
330
1C73
102
}
330
1C73
100
AcDbXrecord
280
     1
290
     1
  0
XRECORD
  5
1C77
102
{ACAD_REACTORS
330
1C76
102
}
330
1C76
100
AcDbXrecord
280
     1
290
     1
  0
SORTENTSTABLE
  5
1EA
102
{ACAD_REACTORS
330
1E9
102
}
330
1E9
100
AcDbSortentsTable
330
1F
331
121B2
  5
121B8
331
122F9
  5
12300
331
1219C
  5
121A2
331
120DD
  5
120DD
331
1231F
  5
1232A
331
12193
  5
12199
331
1225A
  5
12260
331
12309
  5
12310
331
120BE
  5
120BE
331
122F2
  5
122F9
331
121AB
  5
121B1
331
120D6
  5
120D6
331
12318
  5
1231F
331
120CD
  5
120CD
331
12253
  5
12259
331
12302
  5
12309
331
120B7
  5
120B7
331
121A4
  5
121AA
331
120E5
  5
120E5
331
12262
  5
12268
331
12311
  5
12318
331
120C6
  5
120C6
331
122FA
  5
12301
331
1219D
  5
121A3
331
120DE
  5
120DE
331
1230A
  5
12311
331
12194
  5
1219A
331
120BF
  5
120BF
331
122F3
  5
122FA
331
121AC
  5
121B2
331
120D7
  5
120D7
331
12319
  5
12320
331
12254
  5
1225A
331
12303
  5
1230A
331
120CE
  5
120CE
331
1218D
  5
12193
331
120B8
  5
120B8
331
121A5
  5
121AB
331
120E6
  5
120E6
331
120D0
  5
120D0
331
12312
  5
12319
331
12263
  5
12269
331
120C7
  5
120C7
331
120B1
  5
120B1
331
122FB
  5
12302
331
1219E
  5
121A4
331
120DF
  5
120DF
331
1230B
  5
12312
331
12195
  5
1219B
331
120C0
  5
120C0
331
120EF
  5
120EF
331
122F4
  5
122FB
331
121AD
  5
121B3
331
120D8
  5
120D8
331
1231A
  5
12321
331
12255
  5
1225B
331
12304
  5
1230B
331
1218E
  5
12194
331
120CF
  5
120CF
331
120B9
  5
120B9
331
120E8
  5
120E8
331
121A6
  5
121AC
331
120E7
  5
120E7
331
120D1
  5
120D1
331
12313
  5
1231A
331
12264
  5
1226A
331
120C8
  5
120C8
331
122FC
  5
12303
331
1219F
  5
121A5
331
120E0
  5
120E0
331
1230C
  5
12313
331
12196
  5
1219C
331
120C1
  5
120C1
331
121AE
  5
121B4
331
122F5
  5
122FC
331
12198
  5
1219E
331
120D9
  5
120D9
331
1231B
  5
12322
331
12256
  5
1225C
331
12305
  5
1230C
331
1218F
  5
12195
331
120BA
  5
120BA
331
120E9
  5
120E9
331
121A7
  5
121AD
331
120D2
  5
120D2
331
12314
  5
1231B
331
12265
  5
1226B
331
120C9
  5
120C9
331
122FD
  5
12304
331
121A0
  5
121A6
331
120E1
  5
120E1
331
1230D
  5
12314
331
12197
  5
1219D
331
121B8
  5
121BE
331
120C2
  5
120C2
331
121AF
  5
121B5
331
122F6
  5
122FD
331
12199
  5
1219F
331
120DA
  5
120DA
331
1231C
  5
12323
331
12257
  5
1225D
331
12306
  5
1230D
331
12190
  5
12196
331
120BB
  5
120BB
331
120EA
  5
120EA
331
121A8
  5
121AE
331
120D3
  5
120D3
331
12315
  5
1231C
331
12266
  5
1226C
331
120CA
  5
120CA
331
120B4
  5
120B4
331
122FE
  5
12305
331
12268
  5
1226E
331
121A1
  5
121A7
331
120E2
  5
120E2
331
1230E
  5
12315
331
120C3
  5
120C3
331
122F7
  5
122FE
331
1219A
  5
121A0
331
120DB
  5
120DB
331
1231D
  5
12326
331
12258
  5
1225E
331
12307
  5
1230E
331
12191
  5
12197
331
120BC
  5
120BC
331
122F0
  5
122F7
331
121A9
  5
121AF
331
120D4
  5
120D4
331
12316
  5
1231D
331
12267
  5
1226D
331
12300
  5
12307
331
120CB
  5
120CB
331
120B5
  5
120B5
331
122FF
  5
12306
331
121A2
  5
121A8
331
120E3
  5
120E3
331
1230F
  5
12316
331
120C4
  5
120C4
331
122F8
  5
122FF
331
1219B
  5
121A1
331
120DC
  5
120DC
331
1231E
  5
12329
331
12308
  5
1230F
331
12192
  5
12198
331
12259
  5
1225F
331
120BD
  5
120BD
331
12320
  5
1232B
331
121AA
  5
121B0
331
122F1
  5
122F8
331
120D5
  5
120D5
331
12317
  5
1231E
331
12301
  5
12308
331
1218B
  5
12191
331
120CC
  5
120CC
331
120B6
  5
120B6
331
120E4
  5
120E4
331
121A3
  5
121A9
331
12261
  5
12267
331
12310
  5
12317
331
120C5
  5
120C5
331
120F4
  5
120F4
  0
SORTENTSTABLE
  5
1A49
102
{ACAD_REACTORS
330
1A48
102
}
330
1A48
100
AcDbSortentsTable
330
1A47
  0
SORTENTSTABLE
  5
243D
102
{ACAD_REACTORS
330
243C
102
}
330
243C
100
AcDbSortentsTable
330
243B
  0
SORTENTSTABLE
  5
10336
102
{ACAD_REACTORS
330
10335
102
}
330
10335
100
AcDbSortentsTable
330
10334
  0
LAYOUT
  5
22
102
{ACAD_REACTORS
330
1A
102
}
330
1A
100
AcDbPlotSettings
  1

  2
none_device
  4
ISO_A4_(210.00_x_297.00_MM)
  6

 40
7.5
 41
20.0
 42
7.5
 43
20.0
 44
210.0
 45
297.0
 46
11.54999923706054
 47
-13.65000009536743
 48
0.0
 49
0.0
140
0.0
141
0.0
142
1.0
143
8.704084754739808
 70
 11952
 72
     1
 73
     0
 74
     0
  7
acad.ctb
 75
     0
147
0.1148885871608098
 76
     0
 77
     2
 78
   300
148
0.0
149
0.0
100
AcDbLayout
  1
Model
 70
     1
 71
     0
 10
0.0
 20
0.0
 11
12.0
 21
9.0
 12
0.0
 22
0.0
 32
0.0
 14
0.0
 24
0.0
 34
0.0
 15
0.0
 25
0.0
 35
0.0
146
0.0
 13
0.0
 23
0.0
 33
0.0
 16
1.0
 26
0.0
 36
0.0
 17
0.0
 27
1.0
 37
0.0
 76
     0
330
1F
331
EB
1001
ACAD_PSEXT
1000
None
1000
None
1000
Not applicable
1000
The layout will not be plotted unless a new plotter configuration name is selected.
1070
     0
  0
LAYOUT
  5
D3
102
{ACAD_REACTORS
330
1A
102
}
330
1A
100
AcDbPlotSettings
  1

  2
C:\Documents and Settings\basas\Application Data\Autodesk\AutoCAD 2005\R16.1\enu\plotters\Default Windows System Printer.pc3
  4

  6

 40
0.0
 41
0.0
 42
0.0
 43
0.0
 44
0.0
 45
0.0
 46
0.0
 47
0.0
 48
0.0
 49
0.0
140
0.0
141
0.0
142
1.0
143
1.0
 70
   688
 72
     0
 73
     0
 74
     5
  7
acad.ctb
 75
    16
147
1.0
 76
     0
 77
     2
 78
   300
148
0.0
149
0.0
100
AcDbLayout
  1
布局1
 70
     1
 71
     1
 10
0.0
 20
0.0
 11
12.0
 21
9.0
 12
0.0
 22
0.0
 32
0.0
 14
0.0
 24
0.0
 34
0.0
 15
0.0
 25
0.0
 35
0.0
146
0.0
 13
0.0
 23
0.0
 33
0.0
 16
1.0
 26
0.0
 36
0.0
 17
0.0
 27
1.0
 37
0.0
 76
     0
330
D2
  0
LAYOUT
  5
D7
102
{ACAD_REACTORS
330
1A
102
}
330
1A
100
AcDbPlotSettings
  1

  2
C:\Documents and Settings\basas\Application Data\Autodesk\AutoCAD 2005\R16.1\enu\plotters\Default Windows System Printer.pc3
  4

  6

 40
0.0
 41
0.0
 42
0.0
 43
0.0
 44
0.0
 45
0.0
 46
0.0
 47
0.0
 48
0.0
 49
0.0
140
0.0
141
0.0
142
1.0
143
1.0
 70
   688
 72
     0
 73
     0
 74
     5
  7
acad.ctb
 75
    16
147
1.0
 76
     0
 77
     2
 78
   300
148
0.0
149
0.0
100
AcDbLayout
  1
布局2
 70
     1
 71
     2
 10
0.0
 20
0.0
 11
12.0
 21
9.0
 12
0.0
 22
0.0
 32
0.0
 14
0.0
 24
0.0
 34
0.0
 15
0.0
 25
0.0
 35
0.0
146
0.0
 13
0.0
 23
0.0
 33
0.0
 16
1.0
 26
0.0
 36
0.0
 17
0.0
 27
1.0
 37
0.0
 76
     0
330
D6
  0
MATERIAL
  5
EE
102
{ACAD_REACTORS
330
6A
102
}
330
6A
100
AcDbMaterial
  1
ByBlock
  2

  0
MATERIAL
  5
ED
102
{ACAD_REACTORS
330
6A
102
}
330
6A
100
AcDbMaterial
  1
ByLayer
  2

  0
MATERIAL
  5
EF
102
{ACAD_REACTORS
330
6A
102
}
330
6A
100
AcDbMaterial
  1
Global
  2

  0
MLEADERSTYLE
  5
139BA
102
{ACAD_REACTORS
330
139B9
102
}
330
139B9
100
AcDbMLeaderStyle
170
     2
171
     1
172
     0
 90
        2
 40
0.0
 41
0.0
173
     1
 91
-1056964608
340
14
 92
       -2
290
     1
 42
0.09
291
     1
 43
8.0
  3
Standard
341
0
 44
0.18
300

342
11
174
     1
178
     1
175
     1
176
     0
 93
-1056964608
 45
0.18
292
     0
297
     0
 46
0.18
343
0
 94
-1056964608
 47
1.0
 49
1.0
140
1.0
293
     1
141
0.0
294
     1
177
     0
142
1.0
295
     0
296
     0
143
3.75
1001
ACAD_MLEADERVER
1070
     2
  0
MLINESTYLE
  5
18
102
{ACAD_REACTORS
330
17
102
}
330
17
100
AcDbMlineStyle
  2
STANDARD
 70
     0
  3

 62
   256
 51
90.0
 52
90.0
 71
     2
 49
0.5
 62
   256
  6
BYLAYER
 49
-0.5
 62
   256
  6
BYLAYER
  0
ACDBPLACEHOLDER
  5
F
102
{ACAD_REACTORS
330
E
102
}
330
E
  0
SCALE
  5
13998
102
{ACAD_REACTORS
330
13997
102
}
330
13997
100
AcDbScale
 70
     0
300
1:1
140
1.0
141
1.0
290
     1
  0
SCALE
  5
13999
102
{ACAD_REACTORS
330
13997
102
}
330
13997
100
AcDbScale
 70
     0
300
1:2
140
1.0
141
2.0
290
     0
  0
SCALE
  5
1399A
102
{ACAD_REACTORS
330
13997
102
}
330
13997
100
AcDbScale
 70
     0
300
1:4
140
1.0
141
4.0
290
     0
  0
SCALE
  5
1399B
102
{ACAD_REACTORS
330
13997
102
}
330
13997
100
AcDbScale
 70
     0
300
1:5
140
1.0
141
5.0
290
     0
  0
SCALE
  5
1399C
102
{ACAD_REACTORS
330
13997
102
}
330
13997
100
AcDbScale
 70
     0
300
1:8
140
1.0
141
8.0
290
     0
  0
SCALE
  5
1399D
102
{ACAD_REACTORS
330
13997
102
}
330
13997
100
AcDbScale
 70
     0
300
1:10
140
1.0
141
10.0
290
     0
  0
SCALE
  5
1399E
102
{ACAD_REACTORS
330
13997
102
}
330
13997
100
AcDbScale
 70
     0
300
1:16
140
1.0
141
16.0
290
     0
  0
SCALE
  5
1399F
102
{ACAD_REACTORS
330
13997
102
}
330
13997
100
AcDbScale
 70
     0
300
1:20
140
1.0
141
20.0
290
     0
  0
SCALE
  5
139A0
102
{ACAD_REACTORS
330
13997
102
}
330
13997
100
AcDbScale
 70
     0
300
1:30
140
1.0
141
30.0
290
     0
  0
SCALE
  5
139A1
102
{ACAD_REACTORS
330
13997
102
}
330
13997
100
AcDbScale
 70
     0
300
1:40
140
1.0
141
40.0
290
     0
  0
SCALE
  5
139A2
102
{ACAD_REACTORS
330
13997
102
}
330
13997
100
AcDbScale
 70
     0
300
1:50
140
1.0
141
50.0
290
     0
  0
SCALE
  5
139A3
102
{ACAD_REACTORS
330
13997
102
}
330
13997
100
AcDbScale
 70
     0
300
1:100
140
1.0
141
100.0
290
     0
  0
SCALE
  5
139A4
102
{ACAD_REACTORS
330
13997
102
}
330
13997
100
AcDbScale
 70
     0
300
2:1
140
2.0
141
1.0
290
     0
  0
SCALE
  5
139A5
102
{ACAD_REACTORS
330
13997
102
}
330
13997
100
AcDbScale
 70
     0
300
4:1
140
4.0
141
1.0
290
     0
  0
SCALE
  5
139A6
102
{ACAD_REACTORS
330
13997
102
}
330
13997
100
AcDbScale
 70
     0
300
8:1
140
8.0
141
1.0
290
     0
  0
SCALE
  5
139A7
102
{ACAD_REACTORS
330
13997
102
}
330
13997
100
AcDbScale
 70
     0
300
10:1
140
10.0
141
1.0
290
     0
  0
SCALE
  5
139A8
102
{ACAD_REACTORS
330
13997
102
}
330
13997
100
AcDbScale
 70
     0
300
100:1
140
100.0
141
1.0
290
     0
  0
SCALE
  5
139A9
102
{ACAD_REACTORS
330
13997
102
}
330
13997
100
AcDbScale
 70
     0
300
1/128" = 1'-0"
140
0.0078125
141
12.0
290
     0
  0
SCALE
  5
139AA
102
{ACAD_REACTORS
330
13997
102
}
330
13997
100
AcDbScale
 70
     0
300
1/64" = 1'-0"
140
0.015625
141
12.0
290
     0
  0
SCALE
  5
139AB
102
{ACAD_REACTORS
330
13997
102
}
330
13997
100
AcDbScale
 70
     0
300
1/32" = 1'-0"
140
0.03125
141
12.0
290
     0
  0
SCALE
  5
139AC
102
{ACAD_REACTORS
330
13997
102
}
330
13997
100
AcDbScale
 70
     0
300
1/16" = 1'-0"
140
0.0625
141
12.0
290
     0
  0
SCALE
  5
139AD
102
{ACAD_REACTORS
330
13997
102
}
330
13997
100
AcDbScale
 70
     0
300
3/32" = 1'-0"
140
0.09375
141
12.0
290
     0
  0
SCALE
  5
139AE
102
{ACAD_REACTORS
330
13997
102
}
330
13997
100
AcDbScale
 70
     0
300
1/8" = 1'-0"
140
0.125
141
12.0
290
     0
  0
SCALE
  5
139AF
102
{ACAD_REACTORS
330
13997
102
}
330
13997
100
AcDbScale
 70
     0
300
3/16" = 1'-0"
140
0.1875
141
12.0
290
     0
  0
SCALE
  5
139B0
102
{ACAD_REACTORS
330
13997
102
}
330
13997
100
AcDbScale
 70
     0
300
1/4" = 1'-0"
140
0.25
141
12.0
290
     0
  0
SCALE
  5
139B1
102
{ACAD_REACTORS
330
13997
102
}
330
13997
100
AcDbScale
 70
     0
300
3/8" = 1'-0"
140
0.375
141
12.0
290
     0
  0
SCALE
  5
139B2
102
{ACAD_REACTORS
330
13997
102
}
330
13997
100
AcDbScale
 70
     0
300
1/2" = 1'-0"
140
0.5
141
12.0
290
     0
  0
SCALE
  5
139B3
102
{ACAD_REACTORS
330
13997
102
}
330
13997
100
AcDbScale
 70
     0
300
3/4" = 1'-0"
140
0.75
141
12.0
290
     0
  0
SCALE
  5
139B4
102
{ACAD_REACTORS
330
13997
102
}
330
13997
100
AcDbScale
 70
     0
300
1" = 1'-0"
140
1.0
141
12.0
290
     0
  0
SCALE
  5
139B5
102
{ACAD_REACTORS
330
13997
102
}
330
13997
100
AcDbScale
 70
     0
300
1-1/2" = 1'-0"
140
1.5
141
12.0
290
     0
  0
SCALE
  5
139B6
102
{ACAD_REACTORS
330
13997
102
}
330
13997
100
AcDbScale
 70
     0
300
3" = 1'-0"
140
3.0
141
12.0
290
     0
  0
SCALE
  5
139B7
102
{ACAD_REACTORS
330
13997
102
}
330
13997
100
AcDbScale
 70
     0
300
6" = 1'-0"
140
6.0
141
12.0
290
     0
  0
SCALE
  5
139B8
102
{ACAD_REACTORS
330
13997
102
}
330
13997
100
AcDbScale
 70
     0
300
1'-0" = 1'-0"
140
12.0
141
12.0
290
     0
  0
TABLESTYLE
  5
7F
102
{ACAD_XDICTIONARY
360
139C5
102
}
102
{ACAD_REACTORS
330
7E
102
}
330
7E
100
AcDbTableStyle
  3
Standard
 70
     0
 71
     0
 40
1.5
 41
1.5
280
     0
281
     0
  7
Standard
140
4.5
170
     2
 62
     0
 63
   257
283
     0
274
    -2
284
     1
 64
     0
275
    -2
285
     1
 65
     0
276
    -2
286
     1
 66
     0
277
    -2
287
     1
 67
     0
278
    -2
288
     1
 68
     0
279
    -2
289
     1
 69
     0
  7
Standard
140
6.0
170
     5
 62
     0
 63
   257
283
     0
274
    -2
284
     1
 64
     0
275
    -2
285
     1
 65
     0
276
    -2
286
     1
 66
     0
277
    -2
287
     1
 67
     0
278
    -2
288
     1
 68
     0
279
    -2
289
     1
 69
     0
  7
Standard
140
4.5
170
     5
 62
     0
 63
   257
283
     0
274
    -2
284
     1
 64
     0
275
    -2
285
     1
 65
     0
276
    -2
286
     1
 66
     0
277
    -2
287
     1
 67
     0
278
    -2
288
     1
 68
     0
279
    -2
289
     1
 69
     0
  0
VISUALSTYLE
  5
F6
102
{ACAD_XDICTIONARY
360
139D3
102
}
102
{ACAD_REACTORS
330
F0
102
}
330
F0
100
AcDbVisualStyle
  2
2dWireframe
 70
     4
 71
     0
 72
     2
 73
     1
 90
        0
 40
-0.6
 41
-30.0
 62
     5
 63
     7
421
 16777215
 74
     1
 91
        4
 64
     7
 65
   257
 75
     1
175
     1
 42
1.0
 92
        0
 66
   257
 43
1.0
 76
     1
 77
     6
 78
     2
 67
     7
 79
     5
170
     0
171
     0
290
     0
174
     0
 93
        1
 44
0.0
173
     0
291
     0
 45
0.0
1001
ACAD
1000
AcDbSavedByObjectVersion
1070
     0
  0
VISUALSTYLE
  5
F8
102
{ACAD_XDICTIONARY
360
139D7
102
}
102
{ACAD_REACTORS
330
F0
102
}
330
F0
100
AcDbVisualStyle
  2
3D Hidden
 70
     6
 71
     1
 72
     2
 73
     2
 90
        0
 40
-0.6
 41
-30.0
 62
     5
 63
     7
421
 16777215
 74
     2
 91
        2
 64
     7
 65
   257
 75
     2
175
     1
 42
40.0
 92
        0
 66
   257
 43
1.0
 76
     1
 77
     6
 78
     2
 67
     7
 79
     3
170
     0
171
     0
290
     0
174
     0
 93
        1
 44
0.0
173
     0
291
     0
 45
0.0
1001
ACAD
1000
AcDbSavedByObjectVersion
1070
     0
  0
VISUALSTYLE
  5
F7
102
{ACAD_XDICTIONARY
360
139D5
102
}
102
{ACAD_REACTORS
330
F0
102
}
330
F0
100
AcDbVisualStyle
  2
3dWireframe
 70
     5
 71
     0
 72
     2
 73
     1
 90
        0
 40
-0.6
 41
-30.0
 62
     5
 63
     7
421
 16777215
 74
     1
 91
        4
 64
     7
 65
   257
 75
     1
175
     1
 42
1.0
 92
        0
 66
   257
 43
1.0
 76
     1
 77
     6
 78
     2
 67
     7
 79
     5
170
     0
171
     0
290
     0
174
     0
 93
        1
 44
0.0
173
     0
291
     0
 45
0.0
1001
ACAD
1000
AcDbSavedByObjectVersion
1070
     0
  0
VISUALSTYLE
  5
F5
102
{ACAD_XDICTIONARY
360
139D1
102
}
102
{ACAD_REACTORS
330
F0
102
}
330
F0
100
AcDbVisualStyle
  2
Basic
 70
     7
 71
     1
 72
     0
 73
     1
 90
        0
 40
-0.6
 41
-30.0
 62
     5
 63
     7
421
 16777215
 74
     0
 91
        4
 64
     7
 65
   257
 75
     1
175
     1
 42
1.0
 92
        8
 66
     7
 43
1.0
 76
     1
 77
     6
 78
     2
 67
     7
 79
     5
170
     0
171
     0
290
     0
174
     0
 93
        1
 44
0.0
173
     0
291
     1
 45
0.0
1001
ACAD
1000
AcDbSavedByObjectVersion
1070
     0
  0
VISUALSTYLE
  5
FC
102
{ACAD_XDICTIONARY
360
139DF
102
}
102
{ACAD_REACTORS
330
F0
102
}
330
F0
100
AcDbVisualStyle
  2
Brighten
 70
    12
 71
     2
 72
     2
 73
     1
 90
        0
 40
-0.6
 41
-30.0
 62
     5
 63
     7
421
 16777215
 74
     1
 91
        4
 64
     7
 65
   257
 75
     1
175
     1
 42
1.0
 92
        8
 66
     7
 43
1.0
 76
     1
 77
     6
 78
     2
 67
     7
 79
     5
170
     0
171
     0
290
     0
174
     0
 93
        1
 44
50.0
173
     0
291
     1
 45
0.0
1001
ACAD
1000
AcDbSavedByObjectVersion
1070
     0
  0
VISUALSTYLE
  5
100
102
{ACAD_XDICTIONARY
360
139E7
102
}
102
{ACAD_REACTORS
330
F0
102
}
330
F0
100
AcDbVisualStyle
  2
ColorChange
 70
    16
 71
     2
 72
     2
 73
     3
 90
        0
 40
-0.6
 41
-30.0
 62
     5
 63
     8
421
  8421504
 74
     1
 91
        4
 64
     7
 65
   257
 75
     1
175
     1
 42
1.0
 92
        8
 66
     8
424
  8421504
 43
1.0
 76
     1
 77
     6
 78
     2
 67
     7
 79
     5
170
     0
171
     0
290
     0
174
     0
 93
        1
 44
0.0
173
     0
291
     1
 45
0.0
1001
ACAD
1000
AcDbSavedByObjectVersion
1070
     0
  0
VISUALSTYLE
  5
F9
102
{ACAD_XDICTIONARY
360
139D9
102
}
102
{ACAD_REACTORS
330
F0
102
}
330
F0
100
AcDbVisualStyle
  2
Conceptual
 70
     9
 71
     3
 72
     2
 73
     1
 90
        0
 40
-0.6
 41
-30.0
 62
     5
 63
     7
421
 16777215
 74
     2
 91
        2
 64
     7
 65
   257
 75
     1
175
     1
 42
40.0
 92
        8
 66
     7
 43
1.0
 76
     1
 77
     6
 78
     2
 67
     7
 79
     3
170
     0
171
     0
290
     0
174
     0
 93
        1
 44
0.0
173
     0
291
     0
 45
0.0
1001
ACAD
1000
AcDbSavedByObjectVersion
1070
     0
  0
VISUALSTYLE
  5
FB
102
{ACAD_XDICTIONARY
360
139DD
102
}
102
{ACAD_REACTORS
330
F0
102
}
330
F0
100
AcDbVisualStyle
  2
Dim
 70
    11
 71
     2
 72
     2
 73
     1
 90
        0
 40
-0.6
 41
-30.0
 62
     5
 63
     7
421
 16777215
 74
     1
 91
        4
 64
     7
 65
   257
 75
     1
175
     1
 42
1.0
 92
        8
 66
     7
 43
1.0
 76
     1
 77
     6
 78
     2
 67
     7
 79
     5
170
     0
171
     0
290
     0
174
     0
 93
        1
 44
-50.0
173
     0
291
     1
 45
0.0
1001
ACAD
1000
AcDbSavedByObjectVersion
1070
     0
  0
VISUALSTYLE
  5
FF
102
{ACAD_XDICTIONARY
360
139E5
102
}
102
{ACAD_REACTORS
330
F0
102
}
330
F0
100
AcDbVisualStyle
  2
Facepattern
 70
    15
 71
     2
 72
     2
 73
     1
 90
        0
 40
-0.6
 41
-30.0
 62
     5
 63
     7
421
 16777215
 74
     1
 91
        4
 64
     7
 65
   257
 75
     1
175
     1
 42
1.0
 92
        8
 66
     7
 43
1.0
 76
     1
 77
     6
 78
     2
 67
     7
 79
     5
170
     0
171
     0
290
     0
174
     0
 93
        1
 44
0.0
173
     0
291
     1
 45
0.0
1001
ACAD
1000
AcDbSavedByObjectVersion
1070
     0
  0
VISUALSTYLE
  5
F1
102
{ACAD_XDICTIONARY
360
139C9
102
}
102
{ACAD_REACTORS
330
F0
102
}
330
F0
100
AcDbVisualStyle
  2
Flat
 70
     0
 71
     2
 72
     1
 73
     1
 90
        2
 40
-0.6
 41
30.0
 62
     5
 63
     7
421
 16777215
 74
     0
 91
        4
 64
     7
 65
   257
 75
     1
175
     1
 42
1.0
 92
        8
 66
     7
 43
1.0
 76
     1
 77
     6
 78
     2
 67
     7
 79
     5
170
     0
171
     0
290
     0
174
     0
 93
        1
 44
0.0
173
     0
291
     1
 45
0.0
1001
ACAD
1000
AcDbSavedByObjectVersion
1070
     0
  0
VISUALSTYLE
  5
F2
102
{ACAD_XDICTIONARY
360
139CB
102
}
102
{ACAD_REACTORS
330
F0
102
}
330
F0
100
AcDbVisualStyle
  2
FlatWithEdges
 70
     1
 71
     2
 72
     1
 73
     1
 90
        2
 40
-0.6
 41
30.0
 62
     5
 63
     7
421
 16777215
 74
     1
 91
        4
 64
     7
 65
   257
 75
     1
175
     1
 42
1.0
 92
        0
 66
   257
 43
1.0
 76
     1
 77
     6
 78
     2
 67
     7
 79
     5
170
     0
171
     0
290
     0
174
     0
 93
        1
 44
0.0
173
     0
291
     1
 45
0.0
1001
ACAD
1000
AcDbSavedByObjectVersion
1070
     0
  0
VISUALSTYLE
  5
F3
102
{ACAD_XDICTIONARY
360
139CD
102
}
102
{ACAD_REACTORS
330
F0
102
}
330
F0
100
AcDbVisualStyle
  2
Gouraud
 70
     2
 71
     2
 72
     2
 73
     1
 90
        2
 40
-0.6
 41
30.0
 62
     5
 63
     7
421
 16777215
 74
     0
 91
        4
 64
     7
 65
   257
 75
     1
175
     1
 42
1.0
 92
        0
 66
     7
 43
1.0
 76
     1
 77
     6
 78
     2
 67
     7
 79
     5
170
     0
171
     0
290
     0
174
     0
 93
        1
 44
0.0
173
     0
291
     1
 45
0.0
1001
ACAD
1000
AcDbSavedByObjectVersion
1070
     0
  0
VISUALSTYLE
  5
F4
102
{ACAD_XDICTIONARY
360
139CF
102
}
102
{ACAD_REACTORS
330
F0
102
}
330
F0
100
AcDbVisualStyle
  2
GouraudWithEdges
 70
     3
 71
     2
 72
     2
 73
     1
 90
        2
 40
-0.6
 41
30.0
 62
     5
 63
     7
421
 16777215
 74
     1
 91
        4
 64
     7
 65
   257
 75
     1
175
     1
 42
1.0
 92
        0
 66
   257
 43
1.0
 76
     1
 77
     6
 78
     2
 67
     7
 79
     5
170
     0
171
     0
290
     0
174
     0
 93
        1
 44
0.0
173
     0
291
     1
 45
0.0
1001
ACAD
1000
AcDbSavedByObjectVersion
1070
     0
  0
VISUALSTYLE
  5
FE
102
{ACAD_XDICTIONARY
360
139E3
102
}
102
{ACAD_REACTORS
330
F0
102
}
330
F0
100
AcDbVisualStyle
  2
Linepattern
 70
    14
 71
     2
 72
     2
 73
     1
 90
        0
 40
-0.6
 41
-30.0
 62
     5
 63
     7
421
 16777215
 74
     1
 91
        4
 64
     7
 65
   257
 75
     7
175
     7
 42
1.0
 92
        8
 66
     7
 43
1.0
 76
     1
 77
     6
 78
     2
 67
     7
 79
     5
170
     0
171
     0
290
     0
174
     0
 93
        1
 44
0.0
173
     0
291
     1
 45
0.0
1001
ACAD
1000
AcDbSavedByObjectVersion
1070
     0
  0
VISUALSTYLE
  5
FA
102
{ACAD_XDICTIONARY
360
139DB
102
}
102
{ACAD_REACTORS
330
F0
102
}
330
F0
100
AcDbVisualStyle
  2
Realistic
 70
     8
 71
     2
 72
     2
 73
     1
 90
        0
 40
-0.6
 41
-30.0
 62
     5
 63
     7
421
 16777215
 74
     1
 91
        0
 64
     7
 65
   257
 75
     1
175
     1
 42
1.0
 92
        8
 66
     8
424
  7895160
 43
1.0
 76
     1
 77
     6
 78
     2
 67
     7
 79
     5
170
     0
171
     0
290
     0
174
     0
 93
       13
 44
0.0
173
     0
291
     0
 45
0.0
1001
ACAD
1000
AcDbSavedByObjectVersion
1070
     0
  0
VISUALSTYLE
  5
FD
102
{ACAD_XDICTIONARY
360
139E1
102
}
102
{ACAD_REACTORS
330
F0
102
}
330
F0
100
AcDbVisualStyle
  2
Thicken
 70
    13
 71
     2
 72
     2
 73
     1
 90
        0
 40
-0.6
 41
-30.0
 62
     5
 63
     7
421
 16777215
 74
     1
 91
        4
 64
     7
 65
   257
 75
     1
175
     1
 42
1.0
 92
       12
 66
     7
 43
1.0
 76
     1
 77
     6
 78
     2
 67
     7
 79
     5
170
     0
171
     0
290
     0
174
     0
 93
        1
 44
0.0
173
     0
291
     1
 45
0.0
1001
ACAD
1000
AcDbSavedByObjectVersion
1070
     0
  0
DICTIONARYVAR
  5
139C2
102
{ACAD_REACTORS
330
5E
102
}
330
5E
100
DictionaryVariables
280
     0
  1
STANDARD
  0
DICTIONARYVAR
  5
84
102
{ACAD_REACTORS
330
5E
102
}
330
5E
100
DictionaryVariables
280
     0
  1
STANDARD
  0
DICTIONARYVAR
  5
5F
102
{ACAD_REACTORS
330
5E
102
}
330
5E
100
DictionaryVariables
280
     0
  1
2
  0
DICTIONARYVAR
  5
63
102
{ACAD_REACTORS
330
5E
102
}
330
5E
100
DictionaryVariables
280
     0
  1
1
  0
XRECORD
  5
15A7
102
{ACAD_REACTORS
330
15A5
102
}
330
15A5
100
AcDbXrecord
280
     1
330
0
330
0
330
0
  0
VLO-VL
  5
124
102
{ACAD_REACTORS
330
123
102
}
330
123
100
vlo_VL
 90
   -64512
 91
       12
 92
        1
 40
2.5
300
(&VLO-R . 0)
  0
DICTIONARY
  5
139C5
330
7F
100
AcDbDictionary
280
     1
281
     1
  3
ACAD_ROUNDTRIP_2008_TABLESTYLE_CELLSTYLEMAP
360
139C7
  3
ACAD_XREC_ROUNDTRIP
360
139C6
  0
DICTIONARY
  5
139D3
330
F6
100
AcDbDictionary
280
     1
281
     1
  3
ACAD_XREC_ROUNDTRIP
360
139D4
  0
DICTIONARY
  5
139D7
330
F8
100
AcDbDictionary
280
     1
281
     1
  3
ACAD_XREC_ROUNDTRIP
360
139D8
  0
DICTIONARY
  5
139D5
330
F7
100
AcDbDictionary
280
     1
281
     1
  3
ACAD_XREC_ROUNDTRIP
360
139D6
  0
DICTIONARY
  5
139D1
330
F5
100
AcDbDictionary
280
     1
281
     1
  3
ACAD_XREC_ROUNDTRIP
360
139D2
  0
DICTIONARY
  5
139DF
330
FC
100
AcDbDictionary
280
     1
281
     1
  3
ACAD_XREC_ROUNDTRIP
360
139E0
  0
DICTIONARY
  5
139E7
330
100
100
AcDbDictionary
280
     1
281
     1
  3
ACAD_XREC_ROUNDTRIP
360
139E8
  0
DICTIONARY
  5
139D9
330
F9
100
AcDbDictionary
280
     1
281
     1
  3
ACAD_XREC_ROUNDTRIP
360
139DA
  0
DICTIONARY
  5
139DD
330
FB
100
AcDbDictionary
280
     1
281
     1
  3
ACAD_XREC_ROUNDTRIP
360
139DE
  0
DICTIONARY
  5
139E5
330
FF
100
AcDbDictionary
280
     1
281
     1
  3
ACAD_XREC_ROUNDTRIP
360
139E6
  0
DICTIONARY
  5
139C9
330
F1
100
AcDbDictionary
280
     1
281
     1
  3
ACAD_XREC_ROUNDTRIP
360
139CA
  0
DICTIONARY
  5
139CB
330
F2
100
AcDbDictionary
280
     1
281
     1
  3
ACAD_XREC_ROUNDTRIP
360
139CC
  0
DICTIONARY
  5
139CD
330
F3
100
AcDbDictionary
280
     1
281
     1
  3
ACAD_XREC_ROUNDTRIP
360
139CE
  0
DICTIONARY
  5
139CF
330
F4
100
AcDbDictionary
280
     1
281
     1
  3
ACAD_XREC_ROUNDTRIP
360
139D0
  0
DICTIONARY
  5
139E3
330
FE
100
AcDbDictionary
280
     1
281
     1
  3
ACAD_XREC_ROUNDTRIP
360
139E4
  0
DICTIONARY
  5
139DB
330
FA
100
AcDbDictionary
280
     1
281
     1
  3
ACAD_XREC_ROUNDTRIP
360
139DC
  0
DICTIONARY
  5
139E1
330
FD
100
AcDbDictionary
280
     1
281
     1
  3
ACAD_XREC_ROUNDTRIP
360
139E2
  0
CELLSTYLEMAP
  5
139C7
102
{ACAD_REACTORS
330
139C5
102
}
330
139C5
100
AcDbCellStyleMap
 90
        3
300
CELLSTYLE
  1
TABLEFORMAT_BEGIN
 90
        5
170
     1
 91
        0
 92
        0
 62
   257
 93
        1
300
CONTENTFORMAT
  1
CONTENTFORMAT_BEGIN
 90
        0
 91
        0
 92
      512
 93
        0
300

 40
0.0
140
1.0
 94
        5
 62
     0
340
11
144
6.0
309
CONTENTFORMAT_END
171
     1
301
MARGIN
  1
CELLMARGIN_BEGIN
 40
1.5
 40
1.5
 40
1.5
 40
1.5
 40
4.5
 40
4.5
309
CELLMARGIN_END
 94
        6
 95
        1
302
GRIDFORMAT
  1
GRIDFORMAT_BEGIN
 90
        0
 91
        1
 62
     0
 92
       -2
340
0
 93
        0
 40
0.045
309
GRIDFORMAT_END
 95
        2
302
GRIDFORMAT
  1
GRIDFORMAT_BEGIN
 90
        0
 91
        1
 62
     0
 92
       -2
340
0
 93
        0
 40
0.045
309
GRIDFORMAT_END
 95
        4
302
GRIDFORMAT
  1
GRIDFORMAT_BEGIN
 90
        0
 91
        1
 62
     0
 92
       -2
340
0
 93
        0
 40
0.045
309
GRIDFORMAT_END
 95
        8
302
GRIDFORMAT
  1
GRIDFORMAT_BEGIN
 90
        0
 91
        1
 62
     0
 92
       -2
340
0
 93
        0
 40
0.045
309
GRIDFORMAT_END
 95
       16
302
GRIDFORMAT
  1
GRIDFORMAT_BEGIN
 90
        0
 91
        1
 62
     0
 92
       -2
340
0
 93
        0
 40
0.045
309
GRIDFORMAT_END
 95
       32
302
GRIDFORMAT
  1
GRIDFORMAT_BEGIN
 90
        0
 91
        1
 62
     0
 92
       -2
340
0
 93
        0
 40
0.045
309
GRIDFORMAT_END
309
TABLEFORMAT_END
  1
CELLSTYLE_BEGIN
 90
        1
 91
        1
300
_TITLE
309
CELLSTYLE_END
300
CELLSTYLE
  1
TABLEFORMAT_BEGIN
 90
        5
170
     1
 91
        0
 92
        0
 62
   257
 93
        1
300
CONTENTFORMAT
  1
CONTENTFORMAT_BEGIN
 90
        0
 91
        0
 92
      512
 93
        0
300

 40
0.0
140
1.0
 94
        5
 62
     0
340
11
144
4.5
309
CONTENTFORMAT_END
171
     1
301
MARGIN
  1
CELLMARGIN_BEGIN
 40
1.5
 40
1.5
 40
1.5
 40
1.5
 40
4.5
 40
4.5
309
CELLMARGIN_END
 94
        6
 95
        1
302
GRIDFORMAT
  1
GRIDFORMAT_BEGIN
 90
        0
 91
        1
 62
     0
 92
       -2
340
0
 93
        0
 40
0.045
309
GRIDFORMAT_END
 95
        2
302
GRIDFORMAT
  1
GRIDFORMAT_BEGIN
 90
        0
 91
        1
 62
     0
 92
       -2
340
0
 93
        0
 40
0.045
309
GRIDFORMAT_END
 95
        4
302
GRIDFORMAT
  1
GRIDFORMAT_BEGIN
 90
        0
 91
        1
 62
     0
 92
       -2
340
0
 93
        0
 40
0.045
309
GRIDFORMAT_END
 95
        8
302
GRIDFORMAT
  1
GRIDFORMAT_BEGIN
 90
        0
 91
        1
 62
     0
 92
       -2
340
0
 93
        0
 40
0.045
309
GRIDFORMAT_END
 95
       16
302
GRIDFORMAT
  1
GRIDFORMAT_BEGIN
 90
        0
 91
        1
 62
     0
 92
       -2
340
0
 93
        0
 40
0.045
309
GRIDFORMAT_END
 95
       32
302
GRIDFORMAT
  1
GRIDFORMAT_BEGIN
 90
        0
 91
        1
 62
     0
 92
       -2
340
0
 93
        0
 40
0.045
309
GRIDFORMAT_END
309
TABLEFORMAT_END
  1
CELLSTYLE_BEGIN
 90
        2
 91
        1
300
_HEADER
309
CELLSTYLE_END
300
CELLSTYLE
  1
TABLEFORMAT_BEGIN
 90
        5
170
     1
 91
        0
 92
        0
 62
   257
 93
        1
300
CONTENTFORMAT
  1
CONTENTFORMAT_BEGIN
 90
        0
 91
        0
 92
      512
 93
        0
300

 40
0.0
140
1.0
 94
        2
 62
     0
340
11
144
4.5
309
CONTENTFORMAT_END
171
     1
301
MARGIN
  1
CELLMARGIN_BEGIN
 40
1.5
 40
1.5
 40
1.5
 40
1.5
 40
4.5
 40
4.5
309
CELLMARGIN_END
 94
        6
 95
        1
302
GRIDFORMAT
  1
GRIDFORMAT_BEGIN
 90
        0
 91
        1
 62
     0
 92
       -2
340
0
 93
        0
 40
0.045
309
GRIDFORMAT_END
 95
        2
302
GRIDFORMAT
  1
GRIDFORMAT_BEGIN
 90
        0
 91
        1
 62
     0
 92
       -2
340
0
 93
        0
 40
0.045
309
GRIDFORMAT_END
 95
        4
302
GRIDFORMAT
  1
GRIDFORMAT_BEGIN
 90
        0
 91
        1
 62
     0
 92
       -2
340
0
 93
        0
 40
0.045
309
GRIDFORMAT_END
 95
        8
302
GRIDFORMAT
  1
GRIDFORMAT_BEGIN
 90
        0
 91
        1
 62
     0
 92
       -2
340
0
 93
        0
 40
0.045
309
GRIDFORMAT_END
 95
       16
302
GRIDFORMAT
  1
GRIDFORMAT_BEGIN
 90
        0
 91
        1
 62
     0
 92
       -2
340
0
 93
        0
 40
0.045
309
GRIDFORMAT_END
 95
       32
302
GRIDFORMAT
  1
GRIDFORMAT_BEGIN
 90
        0
 91
        1
 62
     0
 92
       -2
340
0
 93
        0
 40
0.045
309
GRIDFORMAT_END
309
TABLEFORMAT_END
  1
CELLSTYLE_BEGIN
 90
        3
 91
        2
300
_DATA
309
CELLSTYLE_END
  0
XRECORD
  5
139C6
102
{ACAD_REACTORS
330
139C5
102
}
330
139C5
100
AcDbXrecord
280
     1
102
ACAD_ROUNDTRIP_PRE2007_TABLESTYLE
 90
      512
 91
        0
  1

 92
      512
 93
        0
  2

 94
      512
 95
        0
  3

  0
XRECORD
  5
139D4
102
{ACAD_REACTORS
330
139D3
102
}
330
139D3
100
AcDbXrecord
280
     1
102
RTVSPropertyOp0
 70
     1
102
RTVSPropertyOp1
 70
     1
102
RTVSPropertyOp2
 70
     1
102
RTVSPropertyOp3
 70
     1
102
RTVSPropertyOp4
 70
     1
102
RTVSPropertyOp5
 70
     1
102
RTVSPropertyOp6
 70
     1
102
RTVSPropertyOp7
 70
     1
102
RTVSPropertyOp8
 70
     1
102
RTVSPropertyOp9
 70
     1
102
RTVSPropertyOp10
 70
     1
102
RTVSPropertyOp11
 70
     1
102
RTVSPropertyOp12
 70
     1
102
RTVSPropertyOp13
 70
     1
102
RTVSPropertyOp14
 70
     1
102
RTVSPropertyOp15
 70
     1
102
RTVSPropertyOp16
 70
     1
102
RTVSPropertyOp17
 70
     1
102
RTVSPropertyOp18
 70
     1
102
RTVSPropertyOp19
 70
     1
102
RTVSPropertyOp20
 70
     1
102
RTVSPropertyOp21
 70
     1
102
RTVSPropertyOp22
 70
     1
102
RTVSPropertyOp23
 70
     1
102
RTVSPropertyOp24
 70
     1
102
RTVSPropertyOp25
 70
     1
102
RTVSPropertyOp26
 70
     1
102
RTVSPropertyOp27
 70
     1
  0
XRECORD
  5
139D8
102
{ACAD_REACTORS
330
139D7
102
}
330
139D7
100
AcDbXrecord
280
     1
102
RTVSPropertyOp0
 70
     1
102
RTVSPropertyOp1
 70
     1
102
RTVSPropertyOp2
 70
     1
102
RTVSPropertyOp3
 70
     1
102
RTVSPropertyOp4
 70
     1
102
RTVSPropertyOp5
 70
     1
102
RTVSPropertyOp6
 70
     1
102
RTVSPropertyOp7
 70
     1
102
RTVSPropertyOp8
 70
     1
102
RTVSPropertyOp9
 70
     1
102
RTVSPropertyOp10
 70
     1
102
RTVSPropertyOp11
 70
     1
102
RTVSPropertyOp12
 70
     1
102
RTVSPropertyOp13
 70
     1
102
RTVSPropertyOp14
 70
     1
102
RTVSPropertyOp15
 70
     1
102
RTVSPropertyOp16
 70
     1
102
RTVSPropertyOp17
 70
     1
102
RTVSPropertyOp18
 70
     1
102
RTVSPropertyOp19
 70
     1
102
RTVSPropertyOp20
 70
     1
102
RTVSPropertyOp21
 70
     1
102
RTVSPropertyOp22
 70
     1
102
RTVSPropertyOp23
 70
     1
102
RTVSPropertyOp24
 70
     1
102
RTVSPropertyOp25
 70
     1
102
RTVSPropertyOp26
 70
     1
102
RTVSPropertyOp27
 70
     1
  0
XRECORD
  5
139D6
102
{ACAD_REACTORS
330
139D5
102
}
330
139D5
100
AcDbXrecord
280
     1
102
RTVSPropertyOp0
 70
     1
102
RTVSPropertyOp1
 70
     1
102
RTVSPropertyOp2
 70
     1
102
RTVSPropertyOp3
 70
     1
102
RTVSPropertyOp4
 70
     1
102
RTVSPropertyOp5
 70
     1
102
RTVSPropertyOp6
 70
     1
102
RTVSPropertyOp7
 70
     1
102
RTVSPropertyOp8
 70
     1
102
RTVSPropertyOp9
 70
     1
102
RTVSPropertyOp10
 70
     1
102
RTVSPropertyOp11
 70
     1
102
RTVSPropertyOp12
 70
     1
102
RTVSPropertyOp13
 70
     1
102
RTVSPropertyOp14
 70
     1
102
RTVSPropertyOp15
 70
     1
102
RTVSPropertyOp16
 70
     1
102
RTVSPropertyOp17
 70
     1
102
RTVSPropertyOp18
 70
     1
102
RTVSPropertyOp19
 70
     1
102
RTVSPropertyOp20
 70
     1
102
RTVSPropertyOp21
 70
     1
102
RTVSPropertyOp22
 70
     1
102
RTVSPropertyOp23
 70
     1
102
RTVSPropertyOp24
 70
     1
102
RTVSPropertyOp25
 70
     1
102
RTVSPropertyOp26
 70
     1
102
RTVSPropertyOp27
 70
     1
  0
XRECORD
  5
139D2
102
{ACAD_REACTORS
330
139D1
102
}
330
139D1
100
AcDbXrecord
280
     1
102
RTVSPropertyOp0
 70
     1
102
RTVSPropertyOp1
 70
     1
102
RTVSPropertyOp2
 70
     1
102
RTVSPropertyOp3
 70
     1
102
RTVSPropertyOp4
 70
     1
102
RTVSPropertyOp5
 70
     1
102
RTVSPropertyOp6
 70
     1
102
RTVSPropertyOp7
 70
     1
102
RTVSPropertyOp8
 70
     1
102
RTVSPropertyOp9
 70
     1
102
RTVSPropertyOp10
 70
     1
102
RTVSPropertyOp11
 70
     1
102
RTVSPropertyOp12
 70
     1
102
RTVSPropertyOp13
 70
     1
102
RTVSPropertyOp14
 70
     1
102
RTVSPropertyOp15
 70
     1
102
RTVSPropertyOp16
 70
     1
102
RTVSPropertyOp17
 70
     1
102
RTVSPropertyOp18
 70
     1
102
RTVSPropertyOp19
 70
     1
102
RTVSPropertyOp20
 70
     1
102
RTVSPropertyOp21
 70
     1
102
RTVSPropertyOp22
 70
     1
102
RTVSPropertyOp23
 70
     1
102
RTVSPropertyOp24
 70
     1
102
RTVSPropertyOp25
 70
     1
102
RTVSPropertyOp26
 70
     1
102
RTVSPropertyOp27
 70
     1
  0
XRECORD
  5
139E0
102
{ACAD_REACTORS
330
139DF
102
}
330
139DF
100
AcDbXrecord
280
     1
102
RTVSPropertyOp0
 70
     1
102
RTVSPropertyOp1
 70
     1
102
RTVSPropertyOp2
 70
     1
102
RTVSPropertyOp3
 70
     1
102
RTVSPropertyOp4
 70
     1
102
RTVSPropertyOp5
 70
     1
102
RTVSPropertyOp6
 70
     1
102
RTVSPropertyOp7
 70
     1
102
RTVSPropertyOp8
 70
     1
102
RTVSPropertyOp9
 70
     1
102
RTVSPropertyOp10
 70
     1
102
RTVSPropertyOp11
 70
     1
102
RTVSPropertyOp12
 70
     1
102
RTVSPropertyOp13
 70
     1
102
RTVSPropertyOp14
 70
     1
102
RTVSPropertyOp15
 70
     1
102
RTVSPropertyOp16
 70
     1
102
RTVSPropertyOp17
 70
     1
102
RTVSPropertyOp18
 70
     1
102
RTVSPropertyOp19
 70
     1
102
RTVSPropertyOp20
 70
     1
102
RTVSPropertyOp21
 70
     1
102
RTVSPropertyOp22
 70
     1
102
RTVSPropertyOp23
 70
     1
102
RTVSPropertyOp24
 70
     1
102
RTVSPropertyOp25
 70
     1
102
RTVSPropertyOp26
 70
     1
102
RTVSPropertyOp27
 70
     1
  0
XRECORD
  5
139E8
102
{ACAD_REACTORS
330
139E7
102
}
330
139E7
100
AcDbXrecord
280
     1
102
RTVSPropertyOp0
 70
     1
102
RTVSPropertyOp1
 70
     1
102
RTVSPropertyOp2
 70
     1
102
RTVSPropertyOp3
 70
     1
102
RTVSPropertyOp4
 70
     1
102
RTVSPropertyOp5
 70
     1
102
RTVSPropertyOp6
 70
     1
102
RTVSPropertyOp7
 70
     1
102
RTVSPropertyOp8
 70
     1
102
RTVSPropertyOp9
 70
     1
102
RTVSPropertyOp10
 70
     1
102
RTVSPropertyOp11
 70
     1
102
RTVSPropertyOp12
 70
     1
102
RTVSPropertyOp13
 70
     1
102
RTVSPropertyOp14
 70
     1
102
RTVSPropertyOp15
 70
     1
102
RTVSPropertyOp16
 70
     1
102
RTVSPropertyOp17
 70
     1
102
RTVSPropertyOp18
 70
     1
102
RTVSPropertyOp19
 70
     1
102
RTVSPropertyOp20
 70
     1
102
RTVSPropertyOp21
 70
     1
102
RTVSPropertyOp22
 70
     1
102
RTVSPropertyOp23
 70
     1
102
RTVSPropertyOp24
 70
     1
102
RTVSPropertyOp25
 70
     1
102
RTVSPropertyOp26
 70
     1
102
RTVSPropertyOp27
 70
     1
  0
XRECORD
  5
139DA
102
{ACAD_REACTORS
330
139D9
102
}
330
139D9
100
AcDbXrecord
280
     1
102
RTVSPropertyOp0
 70
     1
102
RTVSPropertyOp1
 70
     1
102
RTVSPropertyOp2
 70
     1
102
RTVSPropertyOp3
 70
     1
102
RTVSPropertyOp4
 70
     1
102
RTVSPropertyOp5
 70
     1
102
RTVSPropertyOp6
 70
     1
102
RTVSPropertyOp7
 70
     1
102
RTVSPropertyOp8
 70
     1
102
RTVSPropertyOp9
 70
     1
102
RTVSPropertyOp10
 70
     1
102
RTVSPropertyOp11
 70
     1
102
RTVSPropertyOp12
 70
     1
102
RTVSPropertyOp13
 70
     1
102
RTVSPropertyOp14
 70
     1
102
RTVSPropertyOp15
 70
     1
102
RTVSPropertyOp16
 70
     1
102
RTVSPropertyOp17
 70
     1
102
RTVSPropertyOp18
 70
     1
102
RTVSPropertyOp19
 70
     1
102
RTVSPropertyOp20
 70
     1
102
RTVSPropertyOp21
 70
     1
102
RTVSPropertyOp22
 70
     1
102
RTVSPropertyOp23
 70
     1
102
RTVSPropertyOp24
 70
     1
102
RTVSPropertyOp25
 70
     1
102
RTVSPropertyOp26
 70
     1
102
RTVSPropertyOp27
 70
     1
  0
XRECORD
  5
139DE
102
{ACAD_REACTORS
330
139DD
102
}
330
139DD
100
AcDbXrecord
280
     1
102
RTVSPropertyOp0
 70
     1
102
RTVSPropertyOp1
 70
     1
102
RTVSPropertyOp2
 70
     1
102
RTVSPropertyOp3
 70
     1
102
RTVSPropertyOp4
 70
     1
102
RTVSPropertyOp5
 70
     1
102
RTVSPropertyOp6
 70
     1
102
RTVSPropertyOp7
 70
     1
102
RTVSPropertyOp8
 70
     1
102
RTVSPropertyOp9
 70
     1
102
RTVSPropertyOp10
 70
     1
102
RTVSPropertyOp11
 70
     1
102
RTVSPropertyOp12
 70
     1
102
RTVSPropertyOp13
 70
     1
102
RTVSPropertyOp14
 70
     1
102
RTVSPropertyOp15
 70
     1
102
RTVSPropertyOp16
 70
     1
102
RTVSPropertyOp17
 70
     1
102
RTVSPropertyOp18
 70
     1
102
RTVSPropertyOp19
 70
     1
102
RTVSPropertyOp20
 70
     1
102
RTVSPropertyOp21
 70
     1
102
RTVSPropertyOp22
 70
     1
102
RTVSPropertyOp23
 70
     1
102
RTVSPropertyOp24
 70
     1
102
RTVSPropertyOp25
 70
     1
102
RTVSPropertyOp26
 70
     1
102
RTVSPropertyOp27
 70
     1
  0
XRECORD
  5
139E6
102
{ACAD_REACTORS
330
139E5
102
}
330
139E5
100
AcDbXrecord
280
     1
102
RTVSPropertyOp0
 70
     1
102
RTVSPropertyOp1
 70
     1
102
RTVSPropertyOp2
 70
     1
102
RTVSPropertyOp3
 70
     1
102
RTVSPropertyOp4
 70
     1
102
RTVSPropertyOp5
 70
     1
102
RTVSPropertyOp6
 70
     1
102
RTVSPropertyOp7
 70
     1
102
RTVSPropertyOp8
 70
     1
102
RTVSPropertyOp9
 70
     1
102
RTVSPropertyOp10
 70
     1
102
RTVSPropertyOp11
 70
     1
102
RTVSPropertyOp12
 70
     1
102
RTVSPropertyOp13
 70
     1
102
RTVSPropertyOp14
 70
     1
102
RTVSPropertyOp15
 70
     1
102
RTVSPropertyOp16
 70
     1
102
RTVSPropertyOp17
 70
     1
102
RTVSPropertyOp18
 70
     1
102
RTVSPropertyOp19
 70
     1
102
RTVSPropertyOp20
 70
     1
102
RTVSPropertyOp21
 70
     1
102
RTVSPropertyOp22
 70
     1
102
RTVSPropertyOp23
 70
     1
102
RTVSPropertyOp24
 70
     1
102
RTVSPropertyOp25
 70
     1
102
RTVSPropertyOp26
 70
     1
102
RTVSPropertyOp27
 70
     1
  0
XRECORD
  5
139CA
102
{ACAD_REACTORS
330
139C9
102
}
330
139C9
100
AcDbXrecord
280
     1
102
RTVSPropertyOp0
 70
     1
102
RTVSPropertyOp1
 70
     1
102
RTVSPropertyOp2
 70
     1
102
RTVSPropertyOp3
 70
     1
102
RTVSPropertyOp4
 70
     1
102
RTVSPropertyOp5
 70
     1
102
RTVSPropertyOp6
 70
     1
102
RTVSPropertyOp7
 70
     1
102
RTVSPropertyOp8
 70
     1
102
RTVSPropertyOp9
 70
     1
102
RTVSPropertyOp10
 70
     1
102
RTVSPropertyOp11
 70
     1
102
RTVSPropertyOp12
 70
     1
102
RTVSPropertyOp13
 70
     1
102
RTVSPropertyOp14
 70
     1
102
RTVSPropertyOp15
 70
     1
102
RTVSPropertyOp16
 70
     1
102
RTVSPropertyOp17
 70
     1
102
RTVSPropertyOp18
 70
     1
102
RTVSPropertyOp19
 70
     1
102
RTVSPropertyOp20
 70
     1
102
RTVSPropertyOp21
 70
     1
102
RTVSPropertyOp22
 70
     1
102
RTVSPropertyOp23
 70
     1
102
RTVSPropertyOp24
 70
     1
102
RTVSPropertyOp25
 70
     1
102
RTVSPropertyOp26
 70
     1
102
RTVSPropertyOp27
 70
     1
  0
XRECORD
  5
139CC
102
{ACAD_REACTORS
330
139CB
102
}
330
139CB
100
AcDbXrecord
280
     1
102
RTVSPropertyOp0
 70
     1
102
RTVSPropertyOp1
 70
     1
102
RTVSPropertyOp2
 70
     1
102
RTVSPropertyOp3
 70
     1
102
RTVSPropertyOp4
 70
     1
102
RTVSPropertyOp5
 70
     1
102
RTVSPropertyOp6
 70
     1
102
RTVSPropertyOp7
 70
     1
102
RTVSPropertyOp8
 70
     1
102
RTVSPropertyOp9
 70
     1
102
RTVSPropertyOp10
 70
     1
102
RTVSPropertyOp11
 70
     1
102
RTVSPropertyOp12
 70
     1
102
RTVSPropertyOp13
 70
     1
102
RTVSPropertyOp14
 70
     1
102
RTVSPropertyOp15
 70
     1
102
RTVSPropertyOp16
 70
     1
102
RTVSPropertyOp17
 70
     1
102
RTVSPropertyOp18
 70
     1
102
RTVSPropertyOp19
 70
     1
102
RTVSPropertyOp20
 70
     1
102
RTVSPropertyOp21
 70
     1
102
RTVSPropertyOp22
 70
     1
102
RTVSPropertyOp23
 70
     1
102
RTVSPropertyOp24
 70
     1
102
RTVSPropertyOp25
 70
     1
102
RTVSPropertyOp26
 70
     1
102
RTVSPropertyOp27
 70
     1
  0
XRECORD
  5
139CE
102
{ACAD_REACTORS
330
139CD
102
}
330
139CD
100
AcDbXrecord
280
     1
102
RTVSPropertyOp0
 70
     1
102
RTVSPropertyOp1
 70
     1
102
RTVSPropertyOp2
 70
     1
102
RTVSPropertyOp3
 70
     1
102
RTVSPropertyOp4
 70
     1
102
RTVSPropertyOp5
 70
     1
102
RTVSPropertyOp6
 70
     1
102
RTVSPropertyOp7
 70
     1
102
RTVSPropertyOp8
 70
     1
102
RTVSPropertyOp9
 70
     1
102
RTVSPropertyOp10
 70
     1
102
RTVSPropertyOp11
 70
     1
102
RTVSPropertyOp12
 70
     1
102
RTVSPropertyOp13
 70
     1
102
RTVSPropertyOp14
 70
     1
102
RTVSPropertyOp15
 70
     1
102
RTVSPropertyOp16
 70
     1
102
RTVSPropertyOp17
 70
     1
102
RTVSPropertyOp18
 70
     1
102
RTVSPropertyOp19
 70
     1
102
RTVSPropertyOp20
 70
     1
102
RTVSPropertyOp21
 70
     1
102
RTVSPropertyOp22
 70
     1
102
RTVSPropertyOp23
 70
     1
102
RTVSPropertyOp24
 70
     1
102
RTVSPropertyOp25
 70
     1
102
RTVSPropertyOp26
 70
     1
102
RTVSPropertyOp27
 70
     1
  0
XRECORD
  5
139D0
102
{ACAD_REACTORS
330
139CF
102
}
330
139CF
100
AcDbXrecord
280
     1
102
RTVSPropertyOp0
 70
     1
102
RTVSPropertyOp1
 70
     1
102
RTVSPropertyOp2
 70
     1
102
RTVSPropertyOp3
 70
     1
102
RTVSPropertyOp4
 70
     1
102
RTVSPropertyOp5
 70
     1
102
RTVSPropertyOp6
 70
     1
102
RTVSPropertyOp7
 70
     1
102
RTVSPropertyOp8
 70
     1
102
RTVSPropertyOp9
 70
     1
102
RTVSPropertyOp10
 70
     1
102
RTVSPropertyOp11
 70
     1
102
RTVSPropertyOp12
 70
     1
102
RTVSPropertyOp13
 70
     1
102
RTVSPropertyOp14
 70
     1
102
RTVSPropertyOp15
 70
     1
102
RTVSPropertyOp16
 70
     1
102
RTVSPropertyOp17
 70
     1
102
RTVSPropertyOp18
 70
     1
102
RTVSPropertyOp19
 70
     1
102
RTVSPropertyOp20
 70
     1
102
RTVSPropertyOp21
 70
     1
102
RTVSPropertyOp22
 70
     1
102
RTVSPropertyOp23
 70
     1
102
RTVSPropertyOp24
 70
     1
102
RTVSPropertyOp25
 70
     1
102
RTVSPropertyOp26
 70
     1
102
RTVSPropertyOp27
 70
     1
  0
XRECORD
  5
139E4
102
{ACAD_REACTORS
330
139E3
102
}
330
139E3
100
AcDbXrecord
280
     1
102
RTVSPropertyOp0
 70
     1
102
RTVSPropertyOp1
 70
     1
102
RTVSPropertyOp2
 70
     1
102
RTVSPropertyOp3
 70
     1
102
RTVSPropertyOp4
 70
     1
102
RTVSPropertyOp5
 70
     1
102
RTVSPropertyOp6
 70
     1
102
RTVSPropertyOp7
 70
     1
102
RTVSPropertyOp8
 70
     1
102
RTVSPropertyOp9
 70
     1
102
RTVSPropertyOp10
 70
     1
102
RTVSPropertyOp11
 70
     1
102
RTVSPropertyOp12
 70
     1
102
RTVSPropertyOp13
 70
     1
102
RTVSPropertyOp14
 70
     1
102
RTVSPropertyOp15
 70
     1
102
RTVSPropertyOp16
 70
     1
102
RTVSPropertyOp17
 70
     1
102
RTVSPropertyOp18
 70
     1
102
RTVSPropertyOp19
 70
     1
102
RTVSPropertyOp20
 70
     1
102
RTVSPropertyOp21
 70
     1
102
RTVSPropertyOp22
 70
     1
102
RTVSPropertyOp23
 70
     1
102
RTVSPropertyOp24
 70
     1
102
RTVSPropertyOp25
 70
     1
102
RTVSPropertyOp26
 70
     1
102
RTVSPropertyOp27
 70
     1
  0
XRECORD
  5
139DC
102
{ACAD_REACTORS
330
139DB
102
}
330
139DB
100
AcDbXrecord
280
     1
102
RTVSPropertyOp0
 70
     1
102
RTVSPropertyOp1
 70
     1
102
RTVSPropertyOp2
 70
     1
102
RTVSPropertyOp3
 70
     1
102
RTVSPropertyOp4
 70
     1
102
RTVSPropertyOp5
 70
     1
102
RTVSPropertyOp6
 70
     1
102
RTVSPropertyOp7
 70
     1
102
RTVSPropertyOp8
 70
     1
102
RTVSPropertyOp9
 70
     1
102
RTVSPropertyOp10
 70
     1
102
RTVSPropertyOp11
 70
     1
102
RTVSPropertyOp12
 70
     1
102
RTVSPropertyOp13
 70
     1
102
RTVSPropertyOp14
 70
     1
102
RTVSPropertyOp15
 70
     1
102
RTVSPropertyOp16
 70
     1
102
RTVSPropertyOp17
 70
     1
102
RTVSPropertyOp18
 70
     1
102
RTVSPropertyOp19
 70
     1
102
RTVSPropertyOp20
 70
     1
102
RTVSPropertyOp21
 70
     1
102
RTVSPropertyOp22
 70
     1
102
RTVSPropertyOp23
 70
     1
102
RTVSPropertyOp24
 70
     1
102
RTVSPropertyOp25
 70
     1
102
RTVSPropertyOp26
 70
     1
102
RTVSPropertyOp27
 70
     1
  0
XRECORD
  5
139E2
102
{ACAD_REACTORS
330
139E1
102
}
330
139E1
100
AcDbXrecord
280
     1
102
RTVSPropertyOp0
 70
     1
102
RTVSPropertyOp1
 70
     1
102
RTVSPropertyOp2
 70
     1
102
RTVSPropertyOp3
 70
     1
102
RTVSPropertyOp4
 70
     1
102
RTVSPropertyOp5
 70
     1
102
RTVSPropertyOp6
 70
     1
102
RTVSPropertyOp7
 70
     1
102
RTVSPropertyOp8
 70
     1
102
RTVSPropertyOp9
 70
     1
102
RTVSPropertyOp10
 70
     1
102
RTVSPropertyOp11
 70
     1
102
RTVSPropertyOp12
 70
     1
102
RTVSPropertyOp13
 70
     1
102
RTVSPropertyOp14
 70
     1
102
RTVSPropertyOp15
 70
     1
102
RTVSPropertyOp16
 70
     1
102
RTVSPropertyOp17
 70
     1
102
RTVSPropertyOp18
 70
     1
102
RTVSPropertyOp19
 70
     1
102
RTVSPropertyOp20
 70
     1
102
RTVSPropertyOp21
 70
     1
102
RTVSPropertyOp22
 70
     1
102
RTVSPropertyOp23
 70
     1
102
RTVSPropertyOp24
 70
     1
102
RTVSPropertyOp25
 70
     1
102
RTVSPropertyOp26
 70
     1
102
RTVSPropertyOp27
 70
     1
  0
ENDSEC
  0
EOF
