  0
SECTION
  2
HEADER
  9
$ACADVER
  1
AC1018
  9
$ACADMAINTVER
 70
   104
  9
$DWGCODEPAGE
  3
ANSI_936
  9
$LASTSAVEDBY
  1
yuqin.cai
  9
$INSBASE
 10
0.0
 20
0.0
 30
0.0
  9
$EXTMIN
 10
965.6877441819
 20
-751.1301348352999
 30
-0.00000001
  9
$EXTMAX
 10
2028.5226037237
 20
741.9419003933999
 30
0.00000001
  9
$LIMMIN
 10
0.0
 20
0.0
  9
$LIMMAX
 10
558.8
 20
431.8
  9
$ORTHOMODE
 70
     0
  9
$REGENMODE
 70
     1
  9
$FILLMODE
 70
     1
  9
$QTEXTMODE
 70
     0
  9
$MIRRTEXT
 70
     0
  9
$LTSCALE
 40
30.734
  9
$ATTMODE
 70
     1
  9
$TEXTSIZE
 40
0.2
  9
$TRACEWID
 40
0.05
  9
$TEXTSTYLE
  7
STANDARD
  9
$CLAYER
  8
0
  9
$CELTYPE
  6
BYLAYER
  9
$CECOLOR
 62
   256
  9
$CELTSCALE
 40
1.0
  9
$DISPSILH
 70
     0
  9
$DIMSCALE
 40
1.0
  9
$DIMASZ
 40
2.5
  9
$DIMEXO
 40
0.0
  9
$DIMDLI
 40
21.2344
  9
$DIMRND
 40
0.0
  9
$DIMDLE
 40
0.0
  9
$DIMEXE
 40
2.5
  9
$DIMTP
 40
0.01
  9
$DIMTM
 40
0.01
  9
$DIMTXT
 40
3.0
  9
$DIMCEN
 40
5.0292
  9
$DIMTSZ
 40
0.0
  9
$DIMTOL
 70
     1
  9
$DIMLIM
 70
     0
  9
$DIMTIH
 70
     1
  9
$DIMTOH
 70
     1
  9
$DIMSE1
 70
     0
  9
$DIMSE2
 70
     0
  9
$DIMTAD
 70
     0
  9
$DIMZIN
 70
     0
  9
$DIMBLK
  1

  9
$DIMASO
 70
     1
  9
$DIMSHO
 70
     1
  9
$DIMPOST
  1

  9
$DIMAPOST
  1

  9
$DIMALT
 70
     0
  9
$DIMALTD
 70
     2
  9
$DIMALTF
 40
25.4
  9
$DIMLFAC
 40
1.0
  9
$DIMTOFL
 70
     0
  9
$DIMTVP
 40
0.0
  9
$DIMTIX
 70
     0
  9
$DIMSOXD
 70
     0
  9
$DIMSAH
 70
     0
  9
$DIMBLK1
  1

  9
$DIMBLK2
  1

  9
$DIMSTYLE
  2
STANDARD
  9
$DIMCLRD
 70
     0
  9
$DIMCLRE
 70
     0
  9
$DIMCLRT
 70
     0
  9
$DIMTFAC
 40
1.0
  9
$DIMGAP
 40
0.625
  9
$DIMJUST
 70
     0
  9
$DIMSD1
 70
     0
  9
$DIMSD2
 70
     0
  9
$DIMTOLJ
 70
     1
  9
$DIMTZIN
 70
     0
  9
$DIMALTZ
 70
     0
  9
$DIMALTTZ
 70
     0
  9
$DIMUPT
 70
     0
  9
$DIMDEC
 70
     4
  9
$DIMTDEC
 70
     4
  9
$DIMALTU
 70
     2
  9
$DIMALTTD
 70
     2
  9
$DIMTXSTY
  7
STANDARD
  9
$DIMAUNIT
 70
     0
  9
$DIMADEC
 70
     0
  9
$DIMALTRND
 40
0.0
  9
$DIMAZIN
 70
     0
  9
$DIMDSEP
 70
    46
  9
$DIMATFIT
 70
     3
  9
$DIMFRAC
 70
     0
  9
$DIMLDRBLK
  1

  9
$DIMLUNIT
 70
     2
  9
$DIMLWD
 70
    -2
  9
$DIMLWE
 70
    -2
  9
$DIMTMOVE
 70
     0
  9
$LUNITS
 70
     2
  9
$LUPREC
 70
     4
  9
$SKETCHINC
 40
0.1
  9
$FILLETRAD
 40
0.0
  9
$AUNITS
 70
     0
  9
$AUPREC
 70
     0
  9
$MENU
  1
.
  9
$ELEVATION
 40
0.0
  9
$PELEVATION
 40
0.0
  9
$THICKNESS
 40
0.0
  9
$LIMCHECK
 70
     0
  9
$CHAMFERA
 40
0.0
  9
$CHAMFERB
 40
0.0
  9
$CHAMFERC
 40
0.0
  9
$CHAMFERD
 40
0.0
  9
$SKPOLY
 70
     0
  9
$TDCREATE
 40
2458310.568884583
  9
$TDUCREATE
 40
2458310.235551250
  9
$TDUPDATE
 40
2458507.572183519
  9
$TDUUPDATE
 40
2458507.238850185
  9
$TDINDWG
 40
0.0009012616
  9
$TDUSRTIMER
 40
0.0009012616
  9
$USRTIMER
 70
     1
  9
$ANGBASE
 50
0.0
  9
$ANGDIR
 70
     0
  9
$PDMODE
 70
     3
  9
$PDSIZE
 40
8.0
  9
$PLINEWID
 40
0.0
  9
$SPLFRAME
 70
     0
  9
$SPLINETYPE
 70
     6
  9
$SPLINESEGS
 70
     8
  9
$HANDSEED
  5
7C7
  9
$SURFTAB1
 70
     6
  9
$SURFTAB2
 70
     6
  9
$SURFTYPE
 70
     6
  9
$SURFU
 70
     6
  9
$SURFV
 70
     6
  9
$UCSBASE
  2

  9
$UCSNAME
  2

  9
$UCSORG
 10
0.0
 20
0.0
 30
0.0
  9
$UCSXDIR
 10
1.0
 20
0.0
 30
0.0
  9
$UCSYDIR
 10
0.0
 20
1.0
 30
0.0
  9
$UCSORTHOREF
  2

  9
$UCSORTHOVIEW
 70
     0
  9
$UCSORGTOP
 10
0.0
 20
0.0
 30
0.0
  9
$UCSORGBOTTOM
 10
0.0
 20
0.0
 30
0.0
  9
$UCSORGLEFT
 10
0.0
 20
0.0
 30
0.0
  9
$UCSORGRIGHT
 10
0.0
 20
0.0
 30
0.0
  9
$UCSORGFRONT
 10
0.0
 20
0.0
 30
0.0
  9
$UCSORGBACK
 10
0.0
 20
0.0
 30
0.0
  9
$PUCSBASE
  2

  9
$PUCSNAME
  2

  9
$PUCSORG
 10
0.0
 20
0.0
 30
0.0
  9
$PUCSXDIR
 10
1.0
 20
0.0
 30
0.0
  9
$PUCSYDIR
 10
0.0
 20
1.0
 30
0.0
  9
$PUCSORTHOREF
  2

  9
$PUCSORTHOVIEW
 70
     0
  9
$PUCSORGTOP
 10
0.0
 20
0.0
 30
0.0
  9
$PUCSORGBOTTOM
 10
0.0
 20
0.0
 30
0.0
  9
$PUCSORGLEFT
 10
0.0
 20
0.0
 30
0.0
  9
$PUCSORGRIGHT
 10
0.0
 20
0.0
 30
0.0
  9
$PUCSORGFRONT
 10
0.0
 20
0.0
 30
0.0
  9
$PUCSORGBACK
 10
0.0
 20
0.0
 30
0.0
  9
$USERI1
 70
     0
  9
$USERI2
 70
     0
  9
$USERI3
 70
     0
  9
$USERI4
 70
     0
  9
$USERI5
 70
     0
  9
$USERR1
 40
0.0
  9
$USERR2
 40
0.0
  9
$USERR3
 40
0.0
  9
$USERR4
 40
0.0
  9
$USERR5
 40
0.0
  9
$WORLDVIEW
 70
     1
  9
$SHADEDGE
 70
     3
  9
$SHADEDIF
 70
    70
  9
$TILEMODE
 70
     1
  9
$MAXACTVP
 70
    64
  9
$PINSBASE
 10
0.0
 20
0.0
 30
0.0
  9
$PLIMCHECK
 70
     0
  9
$PEXTMIN
 10
1.000000000000000E+20
 20
1.000000000000000E+20
 30
1.000000000000000E+20
  9
$PEXTMAX
 10
-1.000000000000000E+20
 20
-1.000000000000000E+20
 30
-1.000000000000000E+20
  9
$PLIMMIN
 10
0.0
 20
0.0
  9
$PLIMMAX
 10
12.0
 20
9.0
  9
$UNITMODE
 70
     0
  9
$VISRETAIN
 70
     1
  9
$PLINEGEN
 70
     0
  9
$PSLTSCALE
 70
     1
  9
$TREEDEPTH
 70
  3020
  9
$CMLSTYLE
  2
Standard
  9
$CMLJUST
 70
     0
  9
$CMLSCALE
 40
1.0
  9
$PROXYGRAPHICS
 70
     1
  9
$MEASUREMENT
 70
     1
  9
$CELWEIGHT
370
    -1
  9
$ENDCAPS
280
     0
  9
$JOINSTYLE
280
     0
  9
$LWDISPLAY
290
     0
  9
$INSUNITS
 70
     4
  9
$HYPERLINKBASE
  1

  9
$STYLESHEET
  1

  9
$XEDIT
290
     1
  9
$CEPSNTYPE
380
     0
  9
$PSTYLEMODE
290
     1
  9
$FINGERPRINTGUID
  2
{4904B273-0BAE-4611-BDC7-555684FBD325}
  9
$VERSIONGUID
  2
{82BCE08E-CB52-4615-A2E5-C70CEEF969CF}
  9
$EXTNAMES
290
     1
  9
$PSVPSCALE
 40
0.0
  9
$OLESTARTUP
290
     0
  9
$SORTENTS
280
   127
  9
$INDEXCTL
280
     0
  9
$HIDETEXT
280
     1
  9
$XCLIPFRAME
290
     0
  9
$HALOGAP
280
     0
  9
$OBSCOLOR
 70
   257
  9
$OBSLTYPE
280
     0
  9
$INTERSECTIONDISPLAY
280
     0
  9
$INTERSECTIONCOLOR
 70
   257
  9
$DIMASSOC
280
     2
  9
$PROJECTNAME
  1

  0
ENDSEC
  0
SECTION
  2
CLASSES
  0
CLASS
  1
ACDBDICTIONARYWDFLT
  2
AcDbDictionaryWithDefault
  3
ObjectDBX Classes
 90
        0
 91
        1
280
     0
281
     0
  0
CLASS
  1
ACDBPLACEHOLDER
  2
AcDbPlaceHolder
  3
ObjectDBX Classes
 90
        0
 91
        1
280
     0
281
     0
  0
CLASS
  1
LAYOUT
  2
AcDbLayout
  3
ObjectDBX Classes
 90
        0
 91
        2
280
     0
281
     0
  0
CLASS
  1
MATERIAL
  2
AcDbMaterial
  3
ObjectDBX Classes
 90
        0
 91
        3
280
     0
281
     0
  0
CLASS
  1
VISUALSTYLE
  2
AcDbVisualStyle
  3
ObjectDBX Classes
 90
     4095
 91
       24
280
     0
281
     0
  0
CLASS
  1
TABLESTYLE
  2
AcDbTableStyle
  3
ObjectDBX Classes
 90
     4095
 91
        1
280
     0
281
     0
  0
CLASS
  1
SCALE
  2
AcDbScale
  3
ObjectDBX Classes
 90
     1153
 91
       17
280
     0
281
     0
  0
CLASS
  1
MLEADERSTYLE
  2
AcDbMLeaderStyle
  3
ACDB_MLEADERSTYLE_CLASS
 90
     4095
 91
        1
280
     0
281
     0
  0
CLASS
  1
ACDBSECTIONVIEWSTYLE
  2
AcDbSectionViewStyle
  3
ObjectDBX Classes
 90
     1025
 91
        2
280
     0
281
     0
  0
CLASS
  1
ACDBDETAILVIEWSTYLE
  2
AcDbDetailViewStyle
  3
ObjectDBX Classes
 90
     1025
 91
        2
280
     0
281
     0
  0
CLASS
  1
CELLSTYLEMAP
  2
AcDbCellStyleMap
  3
ObjectDBX Classes
 90
     1152
 91
        1
280
     0
281
     0
  0
CLASS
  1
DICTIONARYVAR
  2
AcDbDictionaryVar
  3
ObjectDBX Classes
 90
        0
 91
        6
280
     0
281
     0
  0
CLASS
  1
DIMASSOC
  2
AcDbDimAssoc
  3
"ZcDbDimAssoc|Product Desc:     ZwDim ZRX App For Dimension|Company:          ZwSoft.|WEB Address:      www.zwsoft.com"
 90
        0
 91
        0
280
     0
281
     0
  0
ENDSEC
  0
SECTION
  2
TABLES
  0
TABLE
  2
VPORT
  5
8
330
0
100
AcDbSymbolTable
 70
     3
  0
VPORT
  5
7C2
330
8
100
AcDbSymbolTableRecord
100
AcDbViewportTableRecord
  2
*Active
 70
     0
 10
0.0
 20
0.0
 11
1.0
 21
1.0
 12
2219.962584892284
 22
-20.03480129878358
 13
0.0
 23
0.0
 14
1.0
 24
1.0
 15
0.0
 25
0.0
 16
0.0
 26
0.0
 36
1.0
 17
0.0
 27
0.0
 37
0.0
 40
2338.312423380834
 41
3.584
 42
50.0
 43
0.0
 44
0.0
 50
0.0
 51
0.0
 71
     0
 72
   100
 73
     1
 74
     1
 75
     0
 76
     0
 77
     0
 78
     0
281
     0
 65
     1
110
0.0
120
0.0
130
0.0
111
1.0
121
0.0
131
0.0
112
0.0
122
1.0
132
0.0
 79
     0
146
0.0
  0
ENDTAB
  0
TABLE
  2
LTYPE
  5
5
330
0
100
AcDbSymbolTable
 70
     6
  0
LTYPE
  5
14
330
5
100
AcDbSymbolTableRecord
100
AcDbLinetypeTableRecord
  2
BYBLOCK
 70
     0
  3

 72
    65
 73
     0
 40
0.0
  0
LTYPE
  5
15
330
5
100
AcDbSymbolTableRecord
100
AcDbLinetypeTableRecord
  2
BYLAYER
 70
     0
  3

 72
    65
 73
     0
 40
0.0
  0
LTYPE
  5
16
330
5
100
AcDbSymbolTableRecord
100
AcDbLinetypeTableRecord
  2
CONTINUOUS
 70
     0
  3
Solid line
 72
    65
 73
     0
 40
0.0
  0
LTYPE
  5
1F5
330
5
100
AcDbSymbolTableRecord
100
AcDbLinetypeTableRecord
  2
CENTER
 70
     0
  3
____ _ ____ _ ____ _ ____ _ ____ _ ____ _ ____
 72
    65
 73
     4
 40
0.6
 49
0.375
 74
     0
 49
-0.075
 74
     0
 49
0.075
 74
     0
 49
-0.075
 74
     0
  0
LTYPE
  5
1F6
330
5
100
AcDbSymbolTableRecord
100
AcDbLinetypeTableRecord
  2
HIDDEN
 70
     0
  3
- - - - - - - - - - - - - - - - - - - -
 72
    65
 73
     2
 40
0.2
 49
0.1
 74
     0
 49
-0.1
 74
     0
  0
LTYPE
  5
1F7
330
5
100
AcDbSymbolTableRecord
100
AcDbLinetypeTableRecord
  2
PHANTOM
 70
     0
  3
_____ _ _ _____ _ _ _____ _ _ _____
 72
    65
 73
     6
 40
0.8
 49
0.45
 74
     0
 49
-0.05
 74
     0
 49
0.1
 74
     0
 49
-0.05
 74
     0
 49
0.1
 74
     0
 49
-0.05
 74
     0
  0
LTYPE
  5
1F8
330
5
100
AcDbSymbolTableRecord
100
AcDbLinetypeTableRecord
  2
DOT
 70
     0
  3
. . . . . . . . . . . . . . . . . . . .
 72
    65
 73
     2
 40
0.2
 49
0.1
 74
     0
 49
-0.1
 74
     0
  0
LTYPE
  5
1F9
330
5
100
AcDbSymbolTableRecord
100
AcDbLinetypeTableRecord
  2
DASHED
 70
     0
  3
- - - - - - - - - - - - - - - - - - - -
 72
    65
 73
     2
 40
0.2
 49
0.1
 74
     0
 49
-0.1
 74
     0
  0
ENDTAB
  0
TABLE
  2
LAYER
  5
2
330
0
100
AcDbSymbolTable
 70
    84
  0
LAYER
  5
10
330
2
100
AcDbSymbolTableRecord
100
AcDbLayerTableRecord
  2
0
 70
     0
 62
     7
  6
CONTINUOUS
370
    -3
390
F
  0
LAYER
  5
1FA
330
2
100
AcDbSymbolTableRecord
100
AcDbLayerTableRecord
  2
DEFAULT_1
 70
     0
 62
     7
  6
CENTER
370
    -3
390
F
  0
LAYER
  5
1FB
330
2
100
AcDbSymbolTableRecord
100
AcDbLayerTableRecord
  2
DEFAULT_2
 70
     0
 62
     8
  6
HIDDEN
370
    -3
390
F
  0
LAYER
  5
1FC
330
2
100
AcDbSymbolTableRecord
100
AcDbLayerTableRecord
  2
DEFAULT_3
 70
     0
 62
     7
  6
PHANTOM
370
    -3
390
F
  0
LAYER
  5
1FD
330
2
100
AcDbSymbolTableRecord
100
AcDbLayerTableRecord
  2
01_ALL_DTM_PLN
 70
     0
 62
     7
  6
CONTINUOUS
370
    -3
390
F
  0
LAYER
  5
1FE
330
2
100
AcDbSymbolTableRecord
100
AcDbLayerTableRecord
  2
01_ALL_PLANES
 70
     0
 62
     7
  6
CONTINUOUS
370
    -3
390
F
  0
LAYER
  5
1FF
330
2
100
AcDbSymbolTableRecord
100
AcDbLayerTableRecord
  2
01__ASM_ALL_DTM_PLN
 70
     0
 62
     7
  6
CONTINUOUS
370
    -3
390
F
  0
LAYER
  5
200
330
2
100
AcDbSymbolTableRecord
100
AcDbLayerTableRecord
  2
01__ASM_DEF_DTM_PLN
 70
     0
 62
     7
  6
CONTINUOUS
370
    -3
390
F
  0
LAYER
  5
201
330
2
100
AcDbSymbolTableRecord
100
AcDbLayerTableRecord
  2
01___PRT_ALL_DTM_PLN
 70
     0
 62
     7
  6
CONTINUOUS
370
    -3
390
F
  0
LAYER
  5
202
330
2
100
AcDbSymbolTableRecord
100
AcDbLayerTableRecord
  2
01___PRT_DEF_DTM_PLN
 70
     0
 62
     7
  6
CONTINUOUS
370
    -3
390
F
  0
LAYER
  5
203
330
2
100
AcDbSymbolTableRecord
100
AcDbLayerTableRecord
  2
02_ALL_AXES
 70
     0
 62
     7
  6
CONTINUOUS
370
    -3
390
F
  0
LAYER
  5
204
330
2
100
AcDbSymbolTableRecord
100
AcDbLayerTableRecord
  2
02__ASM_ALL_AXES
 70
     0
 62
     7
  6
CONTINUOUS
370
    -3
390
F
  0
LAYER
  5
205
330
2
100
AcDbSymbolTableRecord
100
AcDbLayerTableRecord
  2
02___PRT_ALL_AXES
 70
     0
 62
     7
  6
CONTINUOUS
370
    -3
390
F
  0
LAYER
  5
206
330
2
100
AcDbSymbolTableRecord
100
AcDbLayerTableRecord
  2
03_ALL_AXES
 70
     0
 62
     7
  6
CONTINUOUS
370
    -3
390
F
  0
LAYER
  5
207
330
2
100
AcDbSymbolTableRecord
100
AcDbLayerTableRecord
  2
03_ALL_CURVES
 70
     0
 62
     7
  6
CONTINUOUS
370
    -3
390
F
  0
LAYER
  5
208
330
2
100
AcDbSymbolTableRecord
100
AcDbLayerTableRecord
  2
03__ASM_ALL_CURVES
 70
     0
 62
     7
  6
CONTINUOUS
370
    -3
390
F
  0
LAYER
  5
209
330
2
100
AcDbSymbolTableRecord
100
AcDbLayerTableRecord
  2
03___PRT_ALL_CURVES
 70
     0
 62
     7
  6
CONTINUOUS
370
    -3
390
F
  0
LAYER
  5
20A
330
2
100
AcDbSymbolTableRecord
100
AcDbLayerTableRecord
  2
04_ALL_DTM_PNT
 70
     0
 62
     7
  6
CONTINUOUS
370
    -3
390
F
  0
LAYER
  5
20B
330
2
100
AcDbSymbolTableRecord
100
AcDbLayerTableRecord
  2
04__ASM_ALL_DTM_PNT
 70
     0
 62
     7
  6
CONTINUOUS
370
    -3
390
F
  0
LAYER
  5
20C
330
2
100
AcDbSymbolTableRecord
100
AcDbLayerTableRecord
  2
04___PRT_ALL_DTM_PNT
 70
     0
 62
     7
  6
CONTINUOUS
370
    -3
390
F
  0
LAYER
  5
20D
330
2
100
AcDbSymbolTableRecord
100
AcDbLayerTableRecord
  2
05_ALL_DTM_CSYS
 70
     0
 62
     7
  6
CONTINUOUS
370
    -3
390
F
  0
LAYER
  5
20E
330
2
100
AcDbSymbolTableRecord
100
AcDbLayerTableRecord
  2
05__ASM_ALL_DTM_CSYS
 70
     0
 62
     7
  6
CONTINUOUS
370
    -3
390
F
  0
LAYER
  5
20F
330
2
100
AcDbSymbolTableRecord
100
AcDbLayerTableRecord
  2
05__ASM_DEF_DTM_CSYS
 70
     0
 62
     7
  6
CONTINUOUS
370
    -3
390
F
  0
LAYER
  5
210
330
2
100
AcDbSymbolTableRecord
100
AcDbLayerTableRecord
  2
05___PRT_ALL_DTM_CSYS
 70
     0
 62
     7
  6
CONTINUOUS
370
    -3
390
F
  0
LAYER
  5
211
330
2
100
AcDbSymbolTableRecord
100
AcDbLayerTableRecord
  2
05___PRT_DEF_DTM_CSYS
 70
     0
 62
     7
  6
CONTINUOUS
370
    -3
390
F
  0
LAYER
  5
212
330
2
100
AcDbSymbolTableRecord
100
AcDbLayerTableRecord
  2
06_ALL_SURFS
 70
     0
 62
     7
  6
CONTINUOUS
370
    -3
390
F
  0
LAYER
  5
213
330
2
100
AcDbSymbolTableRecord
100
AcDbLayerTableRecord
  2
06__ASM_ALL_SURFS
 70
     0
 62
     7
  6
CONTINUOUS
370
    -3
390
F
  0
LAYER
  5
214
330
2
100
AcDbSymbolTableRecord
100
AcDbLayerTableRecord
  2
06___PRT_ALL_SURFS
 70
     0
 62
     7
  6
CONTINUOUS
370
    -3
390
F
  0
LAYER
  5
215
330
2
100
AcDbSymbolTableRecord
100
AcDbLayerTableRecord
  2
06___PRT_AL_SURFS
 70
     0
 62
     7
  6
CONTINUOUS
370
    -3
390
F
  0
LAYER
  5
216
330
2
100
AcDbSymbolTableRecord
100
AcDbLayerTableRecord
  2
07__ASM_ALL_SKELETONS
 70
     0
 62
     7
  6
CONTINUOUS
370
    -3
390
F
  0
LAYER
  5
217
330
2
100
AcDbSymbolTableRecord
100
AcDbLayerTableRecord
  2
11
 70
     0
 62
     7
  6
CONTINUOUS
370
    -3
390
F
  0
LAYER
  5
218
330
2
100
AcDbSymbolTableRecord
100
AcDbLayerTableRecord
  2
1_DATUM
 70
     0
 62
     7
  6
CONTINUOUS
370
    -3
390
F
  0
LAYER
  5
219
330
2
100
AcDbSymbolTableRecord
100
AcDbLayerTableRecord
  2
2_CSYS
 70
     0
 62
     7
  6
CONTINUOUS
370
    -3
390
F
  0
LAYER
  5
21A
330
2
100
AcDbSymbolTableRecord
100
AcDbLayerTableRecord
  2
3_AXES
 70
     0
 62
     7
  6
CONTINUOUS
370
    -3
390
F
  0
LAYER
  5
21B
330
2
100
AcDbSymbolTableRecord
100
AcDbLayerTableRecord
  2
6_QUILTS
 70
     0
 62
     7
  6
CONTINUOUS
370
    -3
390
F
  0
LAYER
  5
21C
330
2
100
AcDbSymbolTableRecord
100
AcDbLayerTableRecord
  2
CUR
 70
     0
 62
     7
  6
CONTINUOUS
370
    -3
390
F
  0
LAYER
  5
21D
330
2
100
AcDbSymbolTableRecord
100
AcDbLayerTableRecord
  2
CUR-0319
 70
     0
 62
     7
  6
CONTINUOUS
370
    -3
390
F
  0
LAYER
  5
21E
330
2
100
AcDbSymbolTableRecord
100
AcDbLayerTableRecord
  2
CUR-0323
 70
     0
 62
     7
  6
CONTINUOUS
370
    -3
390
F
  0
LAYER
  5
21F
330
2
100
AcDbSymbolTableRecord
100
AcDbLayerTableRecord
  2
CUR0108
 70
     0
 62
     7
  6
CONTINUOUS
370
    -3
390
F
  0
LAYER
  5
220
330
2
100
AcDbSymbolTableRecord
100
AcDbLayerTableRecord
  2
CUR0429
 70
     0
 62
     7
  6
CONTINUOUS
370
    -3
390
F
  0
LAYER
  5
221
330
2
100
AcDbSymbolTableRecord
100
AcDbLayerTableRecord
  2
CUR1216
 70
     0
 62
     7
  6
CONTINUOUS
370
    -3
390
F
  0
LAYER
  5
222
330
2
100
AcDbSymbolTableRecord
100
AcDbLayerTableRecord
  2
CURV2
 70
     0
 62
     7
  6
CONTINUOUS
370
    -3
390
F
  0
LAYER
  5
223
330
2
100
AcDbSymbolTableRecord
100
AcDbLayerTableRecord
  2
CURVE
 70
     0
 62
     7
  6
CONTINUOUS
370
    -3
390
F
  0
LAYER
  5
224
330
2
100
AcDbSymbolTableRecord
100
AcDbLayerTableRecord
  2
CURVE-N2
 70
     0
 62
     7
  6
CONTINUOUS
370
    -3
390
F
  0
LAYER
  5
225
330
2
100
AcDbSymbolTableRecord
100
AcDbLayerTableRecord
  2
CURVE-NE
 70
     0
 62
     7
  6
CONTINUOUS
370
    -3
390
F
  0
LAYER
  5
226
330
2
100
AcDbSymbolTableRecord
100
AcDbLayerTableRecord
  2
CURVE-NEW
 70
     0
 62
     7
  6
CONTINUOUS
370
    -3
390
F
  0
LAYER
  5
227
330
2
100
AcDbSymbolTableRecord
100
AcDbLayerTableRecord
  2
CURVE-OLD
 70
     0
 62
     7
  6
CONTINUOUS
370
    -3
390
F
  0
LAYER
  5
228
330
2
100
AcDbSymbolTableRecord
100
AcDbLayerTableRecord
  2
CURVE0119
 70
     0
 62
     7
  6
CONTINUOUS
370
    -3
390
F
  0
LAYER
  5
229
330
2
100
AcDbSymbolTableRecord
100
AcDbLayerTableRecord
  2
CURVE0124
 70
     0
 62
     7
  6
CONTINUOUS
370
    -3
390
F
  0
LAYER
  5
22A
330
2
100
AcDbSymbolTableRecord
100
AcDbLayerTableRecord
  2
CURVE0210
 70
     0
 62
     7
  6
CONTINUOUS
370
    -3
390
F
  0
LAYER
  5
22B
330
2
100
AcDbSymbolTableRecord
100
AcDbLayerTableRecord
  2
CURVE0429
 70
     0
 62
     7
  6
CONTINUOUS
370
    -3
390
F
  0
LAYER
  5
22C
330
2
100
AcDbSymbolTableRecord
100
AcDbLayerTableRecord
  2
CURVE0714
 70
     0
 62
     7
  6
CONTINUOUS
370
    -3
390
F
  0
LAYER
  5
22D
330
2
100
AcDbSymbolTableRecord
100
AcDbLayerTableRecord
  2
CURVE110106
 70
     0
 62
     7
  6
CONTINUOUS
370
    -3
390
F
  0
LAYER
  5
22E
330
2
100
AcDbSymbolTableRecord
100
AcDbLayerTableRecord
  2
CURVE1210
 70
     0
 62
     7
  6
CONTINUOUS
370
    -3
390
F
  0
LAYER
  5
22F
330
2
100
AcDbSymbolTableRecord
100
AcDbLayerTableRecord
  2
CURVE1213
 70
     0
 62
     7
  6
CONTINUOUS
370
    -3
390
F
  0
LAYER
  5
230
330
2
100
AcDbSymbolTableRecord
100
AcDbLayerTableRecord
  2
CURVE1216
 70
     0
 62
     7
  6
CONTINUOUS
370
    -3
390
F
  0
LAYER
  5
231
330
2
100
AcDbSymbolTableRecord
100
AcDbLayerTableRecord
  2
CURVE1219
 70
     0
 62
     7
  6
CONTINUOUS
370
    -3
390
F
  0
LAYER
  5
232
330
2
100
AcDbSymbolTableRecord
100
AcDbLayerTableRecord
  2
CURVE1230
 70
     0
 62
     7
  6
CONTINUOUS
370
    -3
390
F
  0
LAYER
  5
233
330
2
100
AcDbSymbolTableRecord
100
AcDbLayerTableRecord
  2
CURVE2
 70
     0
 62
     7
  6
CONTINUOUS
370
    -3
390
F
  0
LAYER
  5
234
330
2
100
AcDbSymbolTableRecord
100
AcDbLayerTableRecord
  2
CURVE3
 70
     0
 62
     7
  6
CONTINUOUS
370
    -3
390
F
  0
LAYER
  5
235
330
2
100
AcDbSymbolTableRecord
100
AcDbLayerTableRecord
  2
DAT
 70
     0
 62
     7
  6
CONTINUOUS
370
    -3
390
F
  0
LAYER
  5
236
330
2
100
AcDbSymbolTableRecord
100
AcDbLayerTableRecord
  2
DATUM
 70
     0
 62
     7
  6
CONTINUOUS
370
    -3
390
F
  0
LAYER
  5
237
330
2
100
AcDbSymbolTableRecord
100
AcDbLayerTableRecord
  2
DIM
 70
     0
 62
     7
  6
CONTINUOUS
370
    -3
390
F
  0
LAYER
  5
238
330
2
100
AcDbSymbolTableRecord
100
AcDbLayerTableRecord
  2
DTM
 70
     0
 62
     7
  6
CONTINUOUS
370
    -3
390
F
  0
LAYER
  5
239
330
2
100
AcDbSymbolTableRecord
100
AcDbLayerTableRecord
  2
HOUSAI
 70
     0
 62
     7
  6
CONTINUOUS
370
    -3
390
F
  0
LAYER
  5
23A
330
2
100
AcDbSymbolTableRecord
100
AcDbLayerTableRecord
  2
LAY0001
 70
     0
 62
     7
  6
CONTINUOUS
370
    -3
390
F
  0
LAYER
  5
23B
330
2
100
AcDbSymbolTableRecord
100
AcDbLayerTableRecord
  2
LINJIAN
 70
     0
 62
     7
  6
CONTINUOUS
370
    -3
390
F
  0
LAYER
  5
23C
330
2
100
AcDbSymbolTableRecord
100
AcDbLayerTableRecord
  2
MIAN
 70
     0
 62
     7
  6
CONTINUOUS
370
    -3
390
F
  0
LAYER
  5
23D
330
2
100
AcDbSymbolTableRecord
100
AcDbLayerTableRecord
  2
NEW-CU
 70
     0
 62
     7
  6
CONTINUOUS
370
    -3
390
F
  0
LAYER
  5
23E
330
2
100
AcDbSymbolTableRecord
100
AcDbLayerTableRecord
  2
NEW-CURVE
 70
     0
 62
     7
  6
CONTINUOUS
370
    -3
390
F
  0
LAYER
  5
23F
330
2
100
AcDbSymbolTableRecord
100
AcDbLayerTableRecord
  2
NONE
 70
     0
 62
     7
  6
CONTINUOUS
370
    -3
390
F
  0
LAYER
  5
240
330
2
100
AcDbSymbolTableRecord
100
AcDbLayerTableRecord
  2
OLD
 70
     0
 62
     7
  6
CONTINUOUS
370
    -3
390
F
  0
LAYER
  5
241
330
2
100
AcDbSymbolTableRecord
100
AcDbLayerTableRecord
  2
OLD2
 70
     0
 62
     7
  6
CONTINUOUS
370
    -3
390
F
  0
LAYER
  5
242
330
2
100
AcDbSymbolTableRecord
100
AcDbLayerTableRecord
  2
REF
 70
     0
 62
     7
  6
CONTINUOUS
370
    -3
390
F
  0
LAYER
  5
243
330
2
100
AcDbSymbolTableRecord
100
AcDbLayerTableRecord
  2
SUF
 70
     0
 62
     7
  6
CONTINUOUS
370
    -3
390
F
  0
LAYER
  5
244
330
2
100
AcDbSymbolTableRecord
100
AcDbLayerTableRecord
  2
SURF
 70
     0
 62
     7
  6
CONTINUOUS
370
    -3
390
F
  0
LAYER
  5
245
330
2
100
AcDbSymbolTableRecord
100
AcDbLayerTableRecord
  2
SURF1129
 70
     0
 62
     7
  6
CONTINUOUS
370
    -3
390
F
  0
LAYER
  5
246
330
2
100
AcDbSymbolTableRecord
100
AcDbLayerTableRecord
  2
SURF1228
 70
     0
 62
     7
  6
CONTINUOUS
370
    -3
390
F
  0
LAYER
  5
247
330
2
100
AcDbSymbolTableRecord
100
AcDbLayerTableRecord
  2
SURF2
 70
     0
 62
     7
  6
CONTINUOUS
370
    -3
390
F
  0
LAYER
  5
248
330
2
100
AcDbSymbolTableRecord
100
AcDbLayerTableRecord
  2
SURFACES
 70
     0
 62
     7
  6
CONTINUOUS
370
    -3
390
F
  0
LAYER
  5
249
330
2
100
AcDbSymbolTableRecord
100
AcDbLayerTableRecord
  2
SURFPRE0902
 70
     0
 62
     7
  6
CONTINUOUS
370
    -3
390
F
  0
LAYER
  5
24A
330
2
100
AcDbSymbolTableRecord
100
AcDbLayerTableRecord
  2
XSEC_DATUMS
 70
     0
 62
     7
  6
CONTINUOUS
370
    -3
390
F
  0
LAYER
  5
24B
330
2
100
AcDbSymbolTableRecord
100
AcDbLayerTableRecord
  2
YLGZX
 70
     0
 62
     7
  6
CONTINUOUS
370
    -3
390
F
  0
LAYER
  5
622
330
2
100
AcDbSymbolTableRecord
100
AcDbLayerTableRecord
  2
Defpoints
 70
     0
 62
     7
  6
CONTINUOUS
290
     0
370
    -3
390
F
  0
ENDTAB
  0
TABLE
  2
STYLE
  5
3
330
0
100
AcDbSymbolTable
 70
     2
  0
STYLE
  5
11
330
3
100
AcDbSymbolTableRecord
100
AcDbTextStyleTableRecord
  2
STANDARD
 70
     0
 40
0.0
 41
1.0
 50
0.0
 71
     0
 42
0.2
  3
simfang.ttf
  4

  0
STYLE
  5
24C
330
3
100
AcDbSymbolTableRecord
100
AcDbTextStyleTableRecord
  2
TEXTSTYLE_1
 70
     0
 40
0.0
 41
0.8
 50
0.0
 71
     0
 42
0.2
  3
gdt
  4

  0
ENDTAB
  0
TABLE
  2
VIEW
  5
6
330
0
100
AcDbSymbolTable
 70
     0
  0
ENDTAB
  0
TABLE
  2
UCS
  5
7
330
0
100
AcDbSymbolTable
 70
     0
  0
ENDTAB
  0
TABLE
  2
APPID
  5
9
330
0
100
AcDbSymbolTable
 70
     3
  0
APPID
  5
24D
330
9
100
AcDbSymbolTableRecord
100
AcDbRegAppTableRecord
  2
ACAD
 70
     0
  0
APPID
  5
552
330
9
100
AcDbSymbolTableRecord
100
AcDbRegAppTableRecord
  2
ACAD_MLEADERVER
 70
     0
  0
APPID
  5
561
330
9
100
AcDbSymbolTableRecord
100
AcDbRegAppTableRecord
  2
ACAD_OBJECT_CHANGE_GUID
 70
     0
  0
ENDTAB
  0
TABLE
  2
DIMSTYLE
  5
A
330
0
100
AcDbSymbolTable
 70
     1
100
AcDbDimStyleTable
 71
     1
340
250
  0
DIMSTYLE
105
250
330
A
100
AcDbSymbolTableRecord
100
AcDbDimStyleTableRecord
  2
STANDARD
 70
     0
 41
2.5
 42
0.0
 44
2.5
 47
0.01
 48
0.01
 71
     1
 73
     0
 74
     0
 77
     1
 78
     8
140
3.0
147
0.625
271
     2
272
     2
284
     8
340
11
  0
ENDTAB
  0
TABLE
  2
BLOCK_RECORD
  5
1
330
0
100
AcDbSymbolTable
 70
     2
  0
BLOCK_RECORD
  5
24E
330
1
100
AcDbSymbolTableRecord
100
AcDbBlockTableRecord
  2
*Model_Space
340
4CE
  0
BLOCK_RECORD
  5
24F
330
1
100
AcDbSymbolTableRecord
100
AcDbBlockTableRecord
  2
*Paper_Space
340
4CF
  0
ENDTAB
  0
ENDSEC
  0
SECTION
  2
BLOCKS
  0
BLOCK
  5
20
330
24E
100
AcDbEntity
  8
0
100
AcDbBlockBegin
  2
*Model_Space
 70
     0
 10
0.0
 20
0.0
 30
0.0
  3
*Model_Space
  1

1001
ACAD
1000
RTMaterial
1005
0
  0
ENDBLK
  5
21
330
24E
100
AcDbEntity
  8
0
100
AcDbBlockEnd
1001
ACAD
1000
RTMaterial
1005
0
  0
BLOCK
  5
1C
330
24F
100
AcDbEntity
 67
     1
  8
0
100
AcDbBlockBegin
  2
*Paper_Space
 70
     0
 10
0.0
 20
0.0
 30
0.0
  3
*Paper_Space
  1

1001
ACAD
1000
RTMaterial
1005
0
  0
ENDBLK
  5
1D
330
24F
100
AcDbEntity
 67
     1
  8
0
100
AcDbBlockEnd
1001
ACAD
1000
RTMaterial
1005
0
  0
ENDSEC
  0
SECTION
  2
ENTITIES
  0
LINE
  5
255
330
24E
100
AcDbEntity
  8
0
  6
Continuous
 62
     7
100
AcDbLine
 10
968.1877441919001
 20
-257.0580996166
 30
0.0
 11
1067.6877441919
 21
-257.0580996166
 31
0.0
1001
ACAD
1000
RTMaterial
1005
0
  0
LINE
  5
256
330
24E
100
AcDbEntity
  8
0
  6
Continuous
 62
     7
100
AcDbLine
 10
1338.6877441919
 20
-257.0580996166
 30
0.0
 11
1438.1877441919
 21
-257.0580996166
 31
0.0
1001
ACAD
1000
RTMaterial
1005
0
  0
LINE
  5
257
330
24E
100
AcDbEntity
  8
0
  6
Continuous
 62
     7
100
AcDbLine
 10
969.6877441918999
 20
-253.0580996166
 30
0.0
 11
1103.1877441919
 21
-253.0580996166
 31
0.0
1001
ACAD
1000
RTMaterial
1005
0
  0
LINE
  5
258
330
24E
100
AcDbEntity
  8
0
  6
Continuous
 62
     7
100
AcDbLine
 10
1303.1877441919
 20
-253.0580996166
 30
0.0
 11
1436.6877441919
 21
-253.0580996166
 31
0.0
1001
ACAD
1000
RTMaterial
1005
0
  0
LINE
  5
259
330
24E
100
AcDbEntity
  8
0
  6
Continuous
 62
     7
100
AcDbLine
 10
969.6877441918999
 20
-252.7580996166
 30
0.0
 11
1105.6187933481
 21
-252.7580996166
 31
0.0
1001
ACAD
1000
RTMaterial
1005
0
  0
LINE
  5
25A
330
24E
100
AcDbEntity
  8
0
  6
Continuous
 62
     7
100
AcDbLine
 10
1300.7566950357
 20
-252.7580996166
 30
0.0
 11
1436.6877441919
 21
-252.7580996166
 31
0.0
1001
ACAD
1000
RTMaterial
1005
0
  0
LINE
  5
25B
330
24E
100
AcDbEntity
  8
0
  6
Continuous
 62
     7
100
AcDbLine
 10
965.6877441919
 20
737.9419003833999
 30
0.0
 11
965.6877441919
 21
-249.0580996166
 31
0.0
1001
ACAD
1000
RTMaterial
1005
0
  0
LINE
  5
25C
330
24E
100
AcDbEntity
  8
0
  6
Continuous
 62
     7
100
AcDbLine
 10
965.9877441919
 20
737.9419003833999
 30
0.0
 11
965.9877441919
 21
-249.0580996166
 31
0.0
1001
ACAD
1000
RTMaterial
1005
0
  0
LINE
  5
25D
330
24E
100
AcDbEntity
  8
0
  6
Continuous
 62
     7
100
AcDbLine
 10
968.1877441919001
 20
-257.0580996166
 30
0.0
 11
968.1877441919001
 21
-252.7598230838
 31
0.0
1001
ACAD
1000
RTMaterial
1005
0
  0
LINE
  5
25E
330
24E
100
AcDbEntity
  8
0
  6
Continuous
 62
     7
100
AcDbLine
 10
1009.6877441919
 20
-253.0580996166
 30
0.0
 11
1009.6877441919
 21
-257.0580996166
 31
0.0
1001
ACAD
1000
RTMaterial
1005
0
  0
LINE
  5
25F
330
24E
100
AcDbEntity
  8
0
  6
Continuous
 62
     7
100
AcDbLine
 10
1083.1877441919
 20
8.9419003834
 30
0.0
 11
1103.1877441919
 21
8.9419003834
 31
0.0
1001
ACAD
1000
RTMaterial
1005
0
  0
LINE
  5
260
330
24E
100
AcDbEntity
  8
0
  6
Continuous
 62
     7
100
AcDbLine
 10
1303.1877441919
 20
8.9419003834
 30
0.0
 11
1323.1877441919
 21
8.9419003834
 31
0.0
1001
ACAD
1000
RTMaterial
1005
0
  0
LINE
  5
261
330
24E
100
AcDbEntity
  8
0
  6
Continuous
 62
     7
100
AcDbLine
 10
1016.6877441919
 20
-255.0580996166
 30
0.0
 11
1016.6877441919
 21
-253.0580996166
 31
0.0
1001
ACAD
1000
RTMaterial
1005
0
  0
LINE
  5
262
330
24E
100
AcDbEntity
  8
0
  6
Continuous
 62
     7
100
AcDbLine
 10
1188.1877441919
 20
40.9419003834
 30
0.0
 11
1218.1877441919
 21
40.9419003834
 31
0.0
1001
ACAD
1000
RTMaterial
1005
0
  0
LINE
  5
263
330
24E
100
AcDbEntity
  8
0
  6
Continuous
 62
     7
100
AcDbLine
 10
1201.3636603684
 20
59.94190038340001
 30
0.0
 11
1204.6877441919
 21
59.94190038340001
 31
0.0
1001
ACAD
1000
RTMaterial
1005
0
  0
LINE
  5
264
330
24E
100
AcDbEntity
  8
0
  6
Continuous
 62
     7
100
AcDbLine
 10
1204.856339036
 20
59.94190038340001
 30
0.0
 11
1205.0118272044
 21
59.94190038340001
 31
0.0
1001
ACAD
1000
RTMaterial
1005
0
  0
LINE
  5
265
330
24E
100
AcDbEntity
  8
0
  6
Continuous
 62
     7
100
AcDbLine
 10
1081.8634679285
 20
61.96030487369999
 30
0.0
 11
1081.7877441919
 21
62.9419003834
 31
0.0
1001
ACAD
1000
RTMaterial
1005
0
  0
LINE
  5
266
330
24E
100
AcDbEntity
  8
0
  6
Continuous
 62
     7
100
AcDbLine
 10
1058.6877441919
 20
-255.0580996166
 30
0.0
 11
1058.6877441919
 21
-253.0580996166
 31
0.0
1001
ACAD
1000
RTMaterial
1005
0
  0
LINE
  5
267
330
24E
100
AcDbEntity
  8
0
  6
Continuous
 62
     7
100
AcDbLine
 10
1069.6877441919
 20
-253.0580996166
 30
0.0
 11
1069.6877441919
 21
-255.0580996166
 31
0.0
1001
ACAD
1000
RTMaterial
1005
0
  0
LINE
  5
268
330
24E
100
AcDbEntity
  8
0
  6
Continuous
 62
     7
100
AcDbLine
 10
1073.1877441919
 20
18.9419003834
 30
0.0
 11
1073.1877441919
 21
63.3718597282
 31
0.0
1001
ACAD
1000
RTMaterial
1005
0
  0
LINE
  5
269
330
24E
100
AcDbEntity
  8
0
  6
Continuous
 62
     7
100
AcDbLine
 10
1113.1877441919
 20
-243.0580996166
 30
0.0
 11
1113.1877441919
 21
95.52084775190001
 31
0.0
1001
ACAD
1000
RTMaterial
1005
0
  0
LINE
  5
26A
330
24E
100
AcDbEntity
  8
0
  6
Continuous
 62
     7
100
AcDbLine
 10
1237.6877441919
 20
106.9419003834
 30
0.0
 11
1236.6877441919
 21
106.9419003834
 31
0.0
1001
ACAD
1000
RTMaterial
1005
0
  0
LINE
  5
26B
330
24E
100
AcDbEntity
  8
0
  6
Continuous
 62
     7
100
AcDbLine
 10
1172.6877441919
 20
106.9419003834
 30
0.0
 11
1171.6877441919
 21
106.9419003834
 31
0.0
1001
ACAD
1000
RTMaterial
1005
0
  0
LINE
  5
26C
330
24E
100
AcDbEntity
  8
0
  6
Continuous
 62
     7
100
AcDbLine
 10
1169.6877441919
 20
106.9419003834
 30
0.0
 11
1168.6877441919
 21
106.9419003834
 31
0.0
1001
ACAD
1000
RTMaterial
1005
0
  0
LINE
  5
26D
330
24E
100
AcDbEntity
  8
0
  6
Continuous
 62
     7
100
AcDbLine
 10
1233.6877441919
 20
106.9419003834
 30
0.0
 11
1234.6877441919
 21
106.9419003834
 31
0.0
1001
ACAD
1000
RTMaterial
1005
0
  0
LINE
  5
26E
330
24E
100
AcDbEntity
  8
0
  6
Continuous
 62
     7
100
AcDbLine
 10
1167.2711741998
 20
108.4419003834
 30
0.0
 11
1239.104314184
 21
108.4419003834
 31
0.0
1001
ACAD
1000
RTMaterial
1005
0
  0
LINE
  5
26F
330
24E
100
AcDbEntity
  8
0
  6
Continuous
 62
     7
100
AcDbLine
 10
1167.7397541219
 20
110.0419003834
 30
0.0
 11
1179.9877441919
 21
110.0419003834
 31
0.0
1001
ACAD
1000
RTMaterial
1005
0
  0
LINE
  5
270
330
24E
100
AcDbEntity
  8
0
  6
Continuous
 62
     7
100
AcDbLine
 10
1226.3877441919
 20
110.0419003834
 30
0.0
 11
1237.9269151665
 21
110.0419003834
 31
0.0
1001
ACAD
1000
RTMaterial
1005
0
  0
LINE
  5
271
330
24E
100
AcDbEntity
  8
0
  6
Continuous
 62
     7
100
AcDbLine
 10
1167.2711741998
 20
110.4419003834
 30
0.0
 11
1166.7014453936
 21
110.4419003834
 31
0.0
1001
ACAD
1000
RTMaterial
1005
0
  0
LINE
  5
272
330
24E
100
AcDbEntity
  8
0
  6
Continuous
 62
     7
100
AcDbLine
 10
1238.6877441919
 20
110.4419003834
 30
0.0
 11
1239.6740429902
 21
110.4419003834
 31
0.0
1001
ACAD
1000
RTMaterial
1005
0
  0
LINE
  5
273
330
24E
100
AcDbEntity
  8
0
  6
Continuous
 62
     7
100
AcDbLine
 10
1139.3484584776
 20
110.9419003834
 30
0.0
 11
1166.6911690101
 21
110.9419003834
 31
0.0
1001
ACAD
1000
RTMaterial
1005
0
  0
LINE
  5
274
330
24E
100
AcDbEntity
  8
0
  6
Continuous
 62
     7
100
AcDbLine
 10
1239.6843193737
 20
110.9419003834
 30
0.0
 11
1267.0270299062
 21
110.9419003834
 31
0.0
1001
ACAD
1000
RTMaterial
1005
0
  0
LINE
  5
275
330
24E
100
AcDbEntity
  8
0
  6
Continuous
 62
     7
100
AcDbLine
 10
1237.9269151665
 20
111.8419003834
 30
0.0
 11
1226.3877441919
 21
111.8419003834
 31
0.0
1001
ACAD
1000
RTMaterial
1005
0
  0
LINE
  5
276
330
24E
100
AcDbEntity
  8
0
  6
Continuous
 62
     7
100
AcDbLine
 10
1167.7397541219
 20
111.8419003834
 30
0.0
 11
1179.9877441919
 21
111.8419003834
 31
0.0
1001
ACAD
1000
RTMaterial
1005
0
  0
LINE
  5
277
330
24E
100
AcDbEntity
  8
0
  6
Continuous
 62
     7
100
AcDbLine
 10
1238.6877441919
 20
111.9419003834
 30
0.0
 11
1238.6149582028
 21
111.9419003834
 31
0.0
1001
ACAD
1000
RTMaterial
1005
0
  0
LINE
  5
278
330
24E
100
AcDbEntity
  8
0
  6
Continuous
 62
     7
100
AcDbLine
 10
1206.6877441919
 20
111.9419003834
 30
0.0
 11
1193.1877441919
 21
111.9419003834
 31
0.0
1001
ACAD
1000
RTMaterial
1005
0
  0
LINE
  5
279
330
24E
100
AcDbEntity
  8
0
  6
Continuous
 62
     7
100
AcDbLine
 10
1239.4997256856
 20
112.0419003834
 30
0.0
 11
1238.6842228905
 21
112.0419003834
 31
0.0
1001
ACAD
1000
RTMaterial
1005
0
  0
LINE
  5
27A
330
24E
100
AcDbEntity
  8
0
  6
Continuous
 62
     7
100
AcDbLine
 10
1167.2711741998
 20
112.4419003834
 30
0.0
 11
1167.1045070866
 21
112.4419003834
 31
0.0
1001
ACAD
1000
RTMaterial
1005
0
  0
LINE
  5
27B
330
24E
100
AcDbEntity
  8
0
  6
Continuous
 62
     7
100
AcDbLine
 10
1222.4448913635
 20
112.9419003834
 30
0.0
 11
1206.6877441919
 21
112.9419003834
 31
0.0
1001
ACAD
1000
RTMaterial
1005
0
  0
LINE
  5
27C
330
24E
100
AcDbEntity
  8
0
  6
Continuous
 62
     7
100
AcDbLine
 10
1166.6911690101
 20
112.9419003834
 30
0.0
 11
1167.1045070866
 21
112.9419003834
 31
0.0
1001
ACAD
1000
RTMaterial
1005
0
  0
LINE
  5
27D
330
24E
100
AcDbEntity
  8
0
  6
Continuous
 62
     7
100
AcDbLine
 10
1167.2711741998
 20
112.9419003834
 30
0.0
 11
1175.7758438052
 21
112.9419003834
 31
0.0
1001
ACAD
1000
RTMaterial
1005
0
  0
LINE
  5
27E
330
24E
100
AcDbEntity
  8
0
  6
Continuous
 62
     7
100
AcDbLine
 10
1183.9305970203
 20
112.9419003834
 30
0.0
 11
1193.1877441919
 21
112.9419003834
 31
0.0
1001
ACAD
1000
RTMaterial
1005
0
  0
LINE
  5
27F
330
24E
100
AcDbEntity
  8
0
  6
Continuous
 62
     7
100
AcDbLine
 10
1230.5996445786
 20
112.9419003834
 30
0.0
 11
1239.6843193737
 21
112.9419003834
 31
0.0
1001
ACAD
1000
RTMaterial
1005
0
  0
LINE
  5
280
330
24E
100
AcDbEntity
  8
0
  6
Continuous
 62
     7
100
AcDbLine
 10
1219.8663340778
 20
113.4419003834
 30
0.0
 11
1206.6877441919
 21
113.4419003834
 31
0.0
1001
ACAD
1000
RTMaterial
1005
0
  0
LINE
  5
281
330
24E
100
AcDbEntity
  8
0
  6
Continuous
 62
     7
100
AcDbLine
 10
1167.1911690101
 20
113.4419003834
 30
0.0
 11
1173.9043933007
 21
113.4419003834
 31
0.0
1001
ACAD
1000
RTMaterial
1005
0
  0
LINE
  5
282
330
24E
100
AcDbEntity
  8
0
  6
Continuous
 62
     7
100
AcDbLine
 10
1186.509154306
 20
113.4419003834
 30
0.0
 11
1204.8941744011
 21
113.4419003834
 31
0.0
1001
ACAD
1000
RTMaterial
1005
0
  0
LINE
  5
283
330
24E
100
AcDbEntity
  8
0
  6
Continuous
 62
     7
100
AcDbLine
 10
1232.4710950831
 20
113.4419003834
 30
0.0
 11
1239.1843193737
 21
113.4419003834
 31
0.0
1001
ACAD
1000
RTMaterial
1005
0
  0
LINE
  5
284
330
24E
100
AcDbEntity
  8
0
  6
Continuous
 62
     7
100
AcDbLine
 10
1239.1738524727
 20
115.4419003834
 30
0.0
 11
1232.4710950831
 21
115.4419003834
 31
0.0
1001
ACAD
1000
RTMaterial
1005
0
  0
LINE
  5
285
330
24E
100
AcDbEntity
  8
0
  6
Continuous
 62
     7
100
AcDbLine
 10
1219.8663340778
 20
115.4419003834
 30
0.0
 11
1206.6877441919
 21
115.4419003834
 31
0.0
1001
ACAD
1000
RTMaterial
1005
0
  0
LINE
  5
286
330
24E
100
AcDbEntity
  8
0
  6
Continuous
 62
     7
100
AcDbLine
 10
1205.1877441919
 20
115.4419003834
 30
0.0
 11
1194.6877441919
 21
115.4419003834
 31
0.0
1001
ACAD
1000
RTMaterial
1005
0
  0
LINE
  5
287
330
24E
100
AcDbEntity
  8
0
  6
Continuous
 62
     7
100
AcDbLine
 10
1193.1877441919
 20
115.4419003834
 30
0.0
 11
1184.6848867919
 21
115.4419003834
 31
0.0
1001
ACAD
1000
RTMaterial
1005
0
  0
LINE
  5
288
330
24E
100
AcDbEntity
  8
0
  6
Continuous
 62
     7
100
AcDbLine
 10
1173.9043933007
 20
115.4419003834
 30
0.0
 11
1167.2016359111
 21
115.4419003834
 31
0.0
1001
ACAD
1000
RTMaterial
1005
0
  0
LINE
  5
289
330
24E
100
AcDbEntity
  8
0
  6
Continuous
 62
     7
100
AcDbLine
 10
1239.6843193737
 20
115.941900421
 30
0.0
 11
1230.5996445786
 21
115.9419003834
 31
0.0
1001
ACAD
1000
RTMaterial
1005
0
  0
LINE
  5
28A
330
24E
100
AcDbEntity
  8
0
  6
Continuous
 62
     7
100
AcDbLine
 10
1222.4448913635
 20
115.9419003834
 30
0.0
 11
1206.6877441919
 21
115.9419003834
 31
0.0
1001
ACAD
1000
RTMaterial
1005
0
  0
LINE
  5
28B
330
24E
100
AcDbEntity
  8
0
  6
Continuous
 62
     7
100
AcDbLine
 10
1175.7758438052
 20
115.9419003834
 30
0.0
 11
1166.6911690101
 21
115.9419004586
 31
0.0
1001
ACAD
1000
RTMaterial
1005
0
  0
LINE
  5
28C
330
24E
100
AcDbEntity
  8
0
  6
Continuous
 62
     7
100
AcDbLine
 10
1194.6877441919
 20
115.9419003834
 30
0.0
 11
1205.1877441919
 21
115.9419003834
 31
0.0
1001
ACAD
1000
RTMaterial
1005
0
  0
LINE
  5
28D
330
24E
100
AcDbEntity
  8
0
  6
Continuous
 62
     7
100
AcDbLine
 10
1222.4448913635
 20
116.9419003834
 30
0.0
 11
1206.6877441919
 21
116.9419003834
 31
0.0
1001
ACAD
1000
RTMaterial
1005
0
  0
LINE
  5
28E
330
24E
100
AcDbEntity
  8
0
  6
Continuous
 62
     7
100
AcDbLine
 10
1166.6911690101
 20
116.9419003459
 30
0.0
 11
1175.7758438052
 21
116.9419003834
 31
0.0
1001
ACAD
1000
RTMaterial
1005
0
  0
LINE
  5
28F
330
24E
100
AcDbEntity
  8
0
  6
Continuous
 62
     7
100
AcDbLine
 10
1183.9305970203
 20
116.9419003834
 30
0.0
 11
1193.1877441919
 21
116.9419003834
 31
0.0
1001
ACAD
1000
RTMaterial
1005
0
  0
LINE
  5
290
330
24E
100
AcDbEntity
  8
0
  6
Continuous
 62
     7
100
AcDbLine
 10
1230.5996445786
 20
116.9419003834
 30
0.0
 11
1239.6843193737
 21
116.9419003083
 31
0.0
1001
ACAD
1000
RTMaterial
1005
0
  0
LINE
  5
291
330
24E
100
AcDbEntity
  8
0
  6
Continuous
 62
     7
100
AcDbLine
 10
1219.8663340778
 20
117.4419003834
 30
0.0
 11
1206.6877441919
 21
117.4419003834
 31
0.0
1001
ACAD
1000
RTMaterial
1005
0
  0
LINE
  5
292
330
24E
100
AcDbEntity
  8
0
  6
Continuous
 62
     7
100
AcDbLine
 10
1167.2016359111
 20
117.4419003834
 30
0.0
 11
1173.9043933007
 21
117.4419003834
 31
0.0
1001
ACAD
1000
RTMaterial
1005
0
  0
LINE
  5
293
330
24E
100
AcDbEntity
  8
0
  6
Continuous
 62
     7
100
AcDbLine
 10
1186.509154306
 20
117.4419003834
 30
0.0
 11
1193.1877441919
 21
117.4419003834
 31
0.0
1001
ACAD
1000
RTMaterial
1005
0
  0
LINE
  5
294
330
24E
100
AcDbEntity
  8
0
  6
Continuous
 62
     7
100
AcDbLine
 10
1194.6877441919
 20
117.4419003834
 30
0.0
 11
1205.1877441919
 21
117.4419003834
 31
0.0
1001
ACAD
1000
RTMaterial
1005
0
  0
LINE
  5
295
330
24E
100
AcDbEntity
  8
0
  6
Continuous
 62
     7
100
AcDbLine
 10
1232.4710950831
 20
117.4419003834
 30
0.0
 11
1239.1738524727
 21
117.4419003834
 31
0.0
1001
ACAD
1000
RTMaterial
1005
0
  0
LINE
  5
296
330
24E
100
AcDbEntity
  8
0
  6
Continuous
 62
     7
100
AcDbLine
 10
1239.1738524727
 20
119.4419003834
 30
0.0
 11
1232.4710950831
 21
119.4419003834
 31
0.0
1001
ACAD
1000
RTMaterial
1005
0
  0
LINE
  5
297
330
24E
100
AcDbEntity
  8
0
  6
Continuous
 62
     7
100
AcDbLine
 10
1219.8663340778
 20
119.4419003834
 30
0.0
 11
1206.6877441919
 21
119.4419003834
 31
0.0
1001
ACAD
1000
RTMaterial
1005
0
  0
LINE
  5
298
330
24E
100
AcDbEntity
  8
0
  6
Continuous
 62
     7
100
AcDbLine
 10
1205.1877441919
 20
119.4419003834
 30
0.0
 11
1194.6877441919
 21
119.4419003834
 31
0.0
1001
ACAD
1000
RTMaterial
1005
0
  0
LINE
  5
299
330
24E
100
AcDbEntity
  8
0
  6
Continuous
 62
     7
100
AcDbLine
 10
1193.1877441919
 20
119.4419003834
 30
0.0
 11
1184.6848867919
 21
119.4419003834
 31
0.0
1001
ACAD
1000
RTMaterial
1005
0
  0
LINE
  5
29A
330
24E
100
AcDbEntity
  8
0
  6
Continuous
 62
     7
100
AcDbLine
 10
1173.9043933007
 20
119.4419003834
 30
0.0
 11
1167.2016359111
 21
119.4419003834
 31
0.0
1001
ACAD
1000
RTMaterial
1005
0
  0
LINE
  5
29B
330
24E
100
AcDbEntity
  8
0
  6
Continuous
 62
     7
100
AcDbLine
 10
1239.6843193737
 20
119.941900421
 30
0.0
 11
1230.5996445786
 21
119.9419003834
 31
0.0
1001
ACAD
1000
RTMaterial
1005
0
  0
LINE
  5
29C
330
24E
100
AcDbEntity
  8
0
  6
Continuous
 62
     7
100
AcDbLine
 10
1222.4448913635
 20
119.9419003834
 30
0.0
 11
1206.6877441919
 21
119.9419003834
 31
0.0
1001
ACAD
1000
RTMaterial
1005
0
  0
LINE
  5
29D
330
24E
100
AcDbEntity
  8
0
  6
Continuous
 62
     7
100
AcDbLine
 10
1175.7758438052
 20
119.9419003834
 30
0.0
 11
1166.6911690101
 21
119.9419004586
 31
0.0
1001
ACAD
1000
RTMaterial
1005
0
  0
LINE
  5
29E
330
24E
100
AcDbEntity
  8
0
  6
Continuous
 62
     7
100
AcDbLine
 10
1194.6877441919
 20
119.9419003834
 30
0.0
 11
1205.1877441919
 21
119.9419003834
 31
0.0
1001
ACAD
1000
RTMaterial
1005
0
  0
LINE
  5
29F
330
24E
100
AcDbEntity
  8
0
  6
Continuous
 62
     7
100
AcDbLine
 10
1222.4448913635
 20
120.9419003834
 30
0.0
 11
1206.6877441919
 21
120.9419003834
 31
0.0
1001
ACAD
1000
RTMaterial
1005
0
  0
LINE
  5
2A0
330
24E
100
AcDbEntity
  8
0
  6
Continuous
 62
     7
100
AcDbLine
 10
1166.6911690101
 20
120.9419003459
 30
0.0
 11
1175.7758438052
 21
120.9419003834
 31
0.0
1001
ACAD
1000
RTMaterial
1005
0
  0
LINE
  5
2A1
330
24E
100
AcDbEntity
  8
0
  6
Continuous
 62
     7
100
AcDbLine
 10
1183.9305970203
 20
120.9419003834
 30
0.0
 11
1193.1877441919
 21
120.9419003834
 31
0.0
1001
ACAD
1000
RTMaterial
1005
0
  0
LINE
  5
2A2
330
24E
100
AcDbEntity
  8
0
  6
Continuous
 62
     7
100
AcDbLine
 10
1230.5996445786
 20
120.9419003834
 30
0.0
 11
1239.6843193737
 21
120.9419003083
 31
0.0
1001
ACAD
1000
RTMaterial
1005
0
  0
LINE
  5
2A3
330
24E
100
AcDbEntity
  8
0
  6
Continuous
 62
     7
100
AcDbLine
 10
1219.8663340778
 20
121.4419003834
 30
0.0
 11
1206.6877441919
 21
121.4419003834
 31
0.0
1001
ACAD
1000
RTMaterial
1005
0
  0
LINE
  5
2A4
330
24E
100
AcDbEntity
  8
0
  6
Continuous
 62
     7
100
AcDbLine
 10
1167.2016359111
 20
121.4419003834
 30
0.0
 11
1173.9043933007
 21
121.4419003834
 31
0.0
1001
ACAD
1000
RTMaterial
1005
0
  0
LINE
  5
2A5
330
24E
100
AcDbEntity
  8
0
  6
Continuous
 62
     7
100
AcDbLine
 10
1186.509154306
 20
121.4419003834
 30
0.0
 11
1193.1877441919
 21
121.4419003834
 31
0.0
1001
ACAD
1000
RTMaterial
1005
0
  0
LINE
  5
2A6
330
24E
100
AcDbEntity
  8
0
  6
Continuous
 62
     7
100
AcDbLine
 10
1194.6877441919
 20
121.4419003834
 30
0.0
 11
1205.1877441919
 21
121.4419003834
 31
0.0
1001
ACAD
1000
RTMaterial
1005
0
  0
LINE
  5
2A7
330
24E
100
AcDbEntity
  8
0
  6
Continuous
 62
     7
100
AcDbLine
 10
1232.4710950831
 20
121.4419003834
 30
0.0
 11
1239.1738524727
 21
121.4419003834
 31
0.0
1001
ACAD
1000
RTMaterial
1005
0
  0
LINE
  5
2A8
330
24E
100
AcDbEntity
  8
0
  6
Continuous
 62
     7
100
AcDbLine
 10
1239.1738524727
 20
123.4419003834
 30
0.0
 11
1232.4710950831
 21
123.4419003834
 31
0.0
1001
ACAD
1000
RTMaterial
1005
0
  0
LINE
  5
2A9
330
24E
100
AcDbEntity
  8
0
  6
Continuous
 62
     7
100
AcDbLine
 10
1219.8663340778
 20
123.4419003834
 30
0.0
 11
1206.6877441919
 21
123.4419003834
 31
0.0
1001
ACAD
1000
RTMaterial
1005
0
  0
LINE
  5
2AA
330
24E
100
AcDbEntity
  8
0
  6
Continuous
 62
     7
100
AcDbLine
 10
1205.1877441919
 20
123.4419003834
 30
0.0
 11
1194.6877441919
 21
123.4419003834
 31
0.0
1001
ACAD
1000
RTMaterial
1005
0
  0
LINE
  5
2AB
330
24E
100
AcDbEntity
  8
0
  6
Continuous
 62
     7
100
AcDbLine
 10
1193.1877441919
 20
123.4419003834
 30
0.0
 11
1184.6848867919
 21
123.4419003834
 31
0.0
1001
ACAD
1000
RTMaterial
1005
0
  0
LINE
  5
2AC
330
24E
100
AcDbEntity
  8
0
  6
Continuous
 62
     7
100
AcDbLine
 10
1173.9043933007
 20
123.4419003834
 30
0.0
 11
1167.2016359111
 21
123.4419003834
 31
0.0
1001
ACAD
1000
RTMaterial
1005
0
  0
LINE
  5
2AD
330
24E
100
AcDbEntity
  8
0
  6
Continuous
 62
     7
100
AcDbLine
 10
1239.6843193737
 20
123.941900421
 30
0.0
 11
1230.5996445786
 21
123.9419003834
 31
0.0
1001
ACAD
1000
RTMaterial
1005
0
  0
LINE
  5
2AE
330
24E
100
AcDbEntity
  8
0
  6
Continuous
 62
     7
100
AcDbLine
 10
1222.4448913635
 20
123.9419003834
 30
0.0
 11
1206.6877441919
 21
123.9419003834
 31
0.0
1001
ACAD
1000
RTMaterial
1005
0
  0
LINE
  5
2AF
330
24E
100
AcDbEntity
  8
0
  6
Continuous
 62
     7
100
AcDbLine
 10
1175.7758438052
 20
123.9419003834
 30
0.0
 11
1166.6911690101
 21
123.9419004586
 31
0.0
1001
ACAD
1000
RTMaterial
1005
0
  0
LINE
  5
2B0
330
24E
100
AcDbEntity
  8
0
  6
Continuous
 62
     7
100
AcDbLine
 10
1194.6877441919
 20
123.9419003834
 30
0.0
 11
1205.1877441919
 21
123.9419003834
 31
0.0
1001
ACAD
1000
RTMaterial
1005
0
  0
LINE
  5
2B1
330
24E
100
AcDbEntity
  8
0
  6
Continuous
 62
     7
100
AcDbLine
 10
1222.4448913635
 20
124.9419003834
 30
0.0
 11
1206.6877441919
 21
124.9419003834
 31
0.0
1001
ACAD
1000
RTMaterial
1005
0
  0
LINE
  5
2B2
330
24E
100
AcDbEntity
  8
0
  6
Continuous
 62
     7
100
AcDbLine
 10
1166.6911690101
 20
124.9419003459
 30
0.0
 11
1175.7758438052
 21
124.9419003834
 31
0.0
1001
ACAD
1000
RTMaterial
1005
0
  0
LINE
  5
2B3
330
24E
100
AcDbEntity
  8
0
  6
Continuous
 62
     7
100
AcDbLine
 10
1183.9305970203
 20
124.9419003834
 30
0.0
 11
1193.1877441919
 21
124.9419003834
 31
0.0
1001
ACAD
1000
RTMaterial
1005
0
  0
LINE
  5
2B4
330
24E
100
AcDbEntity
  8
0
  6
Continuous
 62
     7
100
AcDbLine
 10
1230.5996445786
 20
124.9419003834
 30
0.0
 11
1239.6843193737
 21
124.9419003083
 31
0.0
1001
ACAD
1000
RTMaterial
1005
0
  0
LINE
  5
2B5
330
24E
100
AcDbEntity
  8
0
  6
Continuous
 62
     7
100
AcDbLine
 10
1219.8663340778
 20
125.4419003834
 30
0.0
 11
1206.6877441919
 21
125.4419003834
 31
0.0
1001
ACAD
1000
RTMaterial
1005
0
  0
LINE
  5
2B6
330
24E
100
AcDbEntity
  8
0
  6
Continuous
 62
     7
100
AcDbLine
 10
1167.2016359111
 20
125.4419003834
 30
0.0
 11
1173.9043933007
 21
125.4419003834
 31
0.0
1001
ACAD
1000
RTMaterial
1005
0
  0
LINE
  5
2B7
330
24E
100
AcDbEntity
  8
0
  6
Continuous
 62
     7
100
AcDbLine
 10
1186.509154306
 20
125.4419003834
 30
0.0
 11
1193.1877441919
 21
125.4419003834
 31
0.0
1001
ACAD
1000
RTMaterial
1005
0
  0
LINE
  5
2B8
330
24E
100
AcDbEntity
  8
0
  6
Continuous
 62
     7
100
AcDbLine
 10
1194.6877441919
 20
125.4419003834
 30
0.0
 11
1205.1877441919
 21
125.4419003834
 31
0.0
1001
ACAD
1000
RTMaterial
1005
0
  0
LINE
  5
2B9
330
24E
100
AcDbEntity
  8
0
  6
Continuous
 62
     7
100
AcDbLine
 10
1232.4710950831
 20
125.4419003834
 30
0.0
 11
1239.1738524727
 21
125.4419003834
 31
0.0
1001
ACAD
1000
RTMaterial
1005
0
  0
LINE
  5
2BA
330
24E
100
AcDbEntity
  8
0
  6
Continuous
 62
     7
100
AcDbLine
 10
1237.2329095166
 20
127.4419003834
 30
0.0
 11
1232.4710950831
 21
127.4419003834
 31
0.0
1001
ACAD
1000
RTMaterial
1005
0
  0
LINE
  5
2BB
330
24E
100
AcDbEntity
  8
0
  6
Continuous
 62
     7
100
AcDbLine
 10
1219.8663340778
 20
127.4419003834
 30
0.0
 11
1206.6877441919
 21
127.4419003834
 31
0.0
1001
ACAD
1000
RTMaterial
1005
0
  0
LINE
  5
2BC
330
24E
100
AcDbEntity
  8
0
  6
Continuous
 62
     7
100
AcDbLine
 10
1205.1877441919
 20
127.4419003834
 30
0.0
 11
1194.6877441919
 21
127.4419003834
 31
0.0
1001
ACAD
1000
RTMaterial
1005
0
  0
LINE
  5
2BD
330
24E
100
AcDbEntity
  8
0
  6
Continuous
 62
     7
100
AcDbLine
 10
1193.1877441919
 20
127.4419003834
 30
0.0
 11
1184.6848867919
 21
127.4419003834
 31
0.0
1001
ACAD
1000
RTMaterial
1005
0
  0
LINE
  5
2BE
330
24E
100
AcDbEntity
  8
0
  6
Continuous
 62
     7
100
AcDbLine
 10
1173.9043933007
 20
127.4419003834
 30
0.0
 11
1169.1425788672
 21
127.4419003834
 31
0.0
1001
ACAD
1000
RTMaterial
1005
0
  0
LINE
  5
2BF
330
24E
100
AcDbEntity
  8
0
  6
Continuous
 62
     7
100
AcDbLine
 10
1234.0957109374
 20
127.9419003834
 30
0.0
 11
1172.2797774464
 21
127.9419003834
 31
0.0
1001
ACAD
1000
RTMaterial
1005
0
  0
LINE
  5
2C0
330
24E
100
AcDbEntity
  8
0
  6
Continuous
 62
     7
100
AcDbLine
 10
1166.6911690101
 20
124.9419003834
 30
0.0
 11
1166.6911690101
 21
123.9419003834
 31
0.0
1001
ACAD
1000
RTMaterial
1005
0
  0
LINE
  5
2C1
330
24E
100
AcDbEntity
  8
0
  6
Continuous
 62
     7
100
AcDbLine
 10
1166.6911690101
 20
120.9419003834
 30
0.0
 11
1166.6911690101
 21
119.9419003834
 31
0.0
1001
ACAD
1000
RTMaterial
1005
0
  0
LINE
  5
2C2
330
24E
100
AcDbEntity
  8
0
  6
Continuous
 62
     7
100
AcDbLine
 10
1166.6911690101
 20
116.9419003834
 30
0.0
 11
1166.6911690101
 21
115.9419003834
 31
0.0
1001
ACAD
1000
RTMaterial
1005
0
  0
LINE
  5
2C3
330
24E
100
AcDbEntity
  8
0
  6
Continuous
 62
     7
100
AcDbLine
 10
1166.6911690101
 20
112.9419003834
 30
0.0
 11
1166.6911690101
 21
110.5957465373
 31
0.0
1001
ACAD
1000
RTMaterial
1005
0
  0
LINE
  5
2C4
330
24E
100
AcDbEntity
  8
0
  6
Continuous
 62
     7
100
AcDbLine
 10
1167.1045070866
 20
112.9419003834
 30
0.0
 11
1167.1045070866
 21
112.4419003834
 31
0.0
1001
ACAD
1000
RTMaterial
1005
0
  0
LINE
  5
2C5
330
24E
100
AcDbEntity
  8
0
  6
Continuous
 62
     7
100
AcDbLine
 10
1167.2711741998
 20
112.9419003834
 30
0.0
 11
1167.2711741998
 21
108.4419003834
 31
0.0
1001
ACAD
1000
RTMaterial
1005
0
  0
LINE
  5
2C6
330
24E
100
AcDbEntity
  8
0
  6
Continuous
 62
     7
100
AcDbLine
 10
1167.6912654933
 20
111.6419003834
 30
0.0
 11
1167.6912654933
 21
110.2419003834
 31
0.0
1001
ACAD
1000
RTMaterial
1005
0
  0
LINE
  5
2C7
330
24E
100
AcDbEntity
  8
0
  6
Continuous
 62
     7
100
AcDbLine
 10
1168.6877441919
 20
106.9419003834
 30
0.0
 11
1168.6877441919
 21
108.4419003834
 31
0.0
1001
ACAD
1000
RTMaterial
1005
0
  0
LINE
  5
2C8
330
24E
100
AcDbEntity
  8
0
  6
Continuous
 62
     7
100
AcDbLine
 10
1169.6877441919
 20
108.4419003834
 30
0.0
 11
1169.6877441919
 21
106.9419003834
 31
0.0
1001
ACAD
1000
RTMaterial
1005
0
  0
LINE
  5
2C9
330
24E
100
AcDbEntity
  8
0
  6
Continuous
 62
     7
100
AcDbLine
 10
1169.691475743
 20
113.6419003834
 30
0.0
 11
1169.691475743
 21
115.3147270566
 31
0.0
1001
ACAD
1000
RTMaterial
1005
0
  0
LINE
  5
2CA
330
24E
100
AcDbEntity
  8
0
  6
Continuous
 62
     7
100
AcDbLine
 10
1169.691475743
 20
117.5690552998
 30
0.0
 11
1169.691475743
 21
119.3147270566
 31
0.0
1001
ACAD
1000
RTMaterial
1005
0
  0
LINE
  5
2CB
330
24E
100
AcDbEntity
  8
0
  6
Continuous
 62
     7
100
AcDbLine
 10
1169.691475743
 20
121.5690552998
 30
0.0
 11
1169.691475743
 21
123.3147270566
 31
0.0
1001
ACAD
1000
RTMaterial
1005
0
  0
LINE
  5
2CC
330
24E
100
AcDbEntity
  8
0
  6
Continuous
 62
     7
100
AcDbLine
 10
1169.691475743
 20
125.5690552998
 30
0.0
 11
1169.691475743
 21
127.3147270566
 31
0.0
1001
ACAD
1000
RTMaterial
1005
0
  0
LINE
  5
2CD
330
24E
100
AcDbEntity
  8
0
  6
Continuous
 62
     7
100
AcDbLine
 10
1325.8049316178
 20
76.2938741114
 30
0.0
 11
1241.7128983633
 21
125.8639147666
 31
0.0
1001
ACAD
1000
RTMaterial
1005
0
  0
LINE
  5
2CE
330
24E
100
AcDbEntity
  8
0
  6
Continuous
 62
     7
100
AcDbLine
 10
1239.1843193737
 20
113.4419003834
 30
0.0
 11
1239.6843193737
 21
112.9419003834
 31
0.0
1001
ACAD
1000
RTMaterial
1005
0
  0
LINE
  5
2CF
330
24E
100
AcDbEntity
  8
06___PRT_ALL_SURFS
  6
Continuous
 62
     7
100
AcDbLine
 10
1174.9689441682
 20
87.9338282892
 30
0.0
 11
1175.0301691113
 21
87.5703941057
 31
0.0
1001
ACAD
1000
RTMaterial
1005
0
  0
LINE
  5
2D0
330
24E
100
AcDbEntity
  8
06___PRT_ALL_SURFS
  6
Continuous
 62
     7
100
AcDbLine
 10
1174.9681607846
 20
87.9387519085
 30
0.0
 11
1174.9689441682
 21
87.9338282892
 31
0.0
1001
ACAD
1000
RTMaterial
1005
0
  0
LWPOLYLINE
  5
2D1
330
24E
100
AcDbEntity
  8
06___PRT_ALL_SURFS
  6
Continuous
 62
     7
100
AcDbPolyline
 90
        6
 70
     0
 43
0.0
 10
1174.1909652961
 20
106.9419003834
 10
1174.1924662872
 20
102.61319574
 10
1174.2231315875
 20
98.2647833116
 10
1174.3392059757
 20
94.35933380709998
 10
1174.6031265928
 20
90.7514224614
 10
1174.9681607846
 20
87.9387519085
  0
LINE
  5
2D2
330
24E
100
AcDbEntity
  8
0
  6
Continuous
 62
     7
100
AcDbLine
 10
1171.6877441919
 20
106.9419003834
 30
0.0
 11
1171.6877441919
 21
108.4419003834
 31
0.0
1001
ACAD
1000
RTMaterial
1005
0
  0
LINE
  5
2D3
330
24E
100
AcDbEntity
  8
0
  6
Continuous
 62
     7
100
AcDbLine
 10
1172.6877441919
 20
108.4419003834
 30
0.0
 11
1172.6877441919
 21
106.9419003834
 31
0.0
1001
ACAD
1000
RTMaterial
1005
0
  0
LINE
  5
2D4
330
24E
100
AcDbEntity
  8
06___PRT_ALL_SURFS
  6
Continuous
 62
     7
100
AcDbLine
 10
1174.1909649666
 20
108.4419003834
 30
0.0
 11
1174.1909649666
 21
106.9419003834
 31
0.0
1001
ACAD
1000
RTMaterial
1005
0
  0
LINE
  5
2D5
330
24E
100
AcDbEntity
  8
0
  6
Continuous
 62
     7
100
AcDbLine
 10
1175.7758438052
 20
127.9419003834
 30
0.0
 11
1175.7758438052
 21
124.9419003834
 31
0.0
1001
ACAD
1000
RTMaterial
1005
0
  0
LINE
  5
2D6
330
24E
100
AcDbEntity
  8
0
  6
Continuous
 62
     7
100
AcDbLine
 10
1175.7758438052
 20
123.9419003834
 30
0.0
 11
1175.7758438052
 21
120.9419003834
 31
0.0
1001
ACAD
1000
RTMaterial
1005
0
  0
LINE
  5
2D7
330
24E
100
AcDbEntity
  8
0
  6
Continuous
 62
     7
100
AcDbLine
 10
1175.7758438052
 20
119.9419003834
 30
0.0
 11
1175.7758438052
 21
116.9419003834
 31
0.0
1001
ACAD
1000
RTMaterial
1005
0
  0
LINE
  5
2D8
330
24E
100
AcDbEntity
  8
0
  6
Continuous
 62
     7
100
AcDbLine
 10
1175.7758438052
 20
115.9419003834
 30
0.0
 11
1175.7758438052
 21
112.9419003834
 31
0.0
1001
ACAD
1000
RTMaterial
1005
0
  0
LINE
  5
2D9
330
24E
100
AcDbEntity
  8
0
  6
Continuous
 62
     7
100
AcDbLine
 10
1180.1877441919
 20
111.6419003834
 30
0.0
 11
1180.1877441919
 21
110.2419003834
 31
0.0
1001
ACAD
1000
RTMaterial
1005
0
  0
LINE
  5
2DA
330
24E
100
AcDbEntity
  8
0
  6
Continuous
 62
     7
100
AcDbLine
 10
1183.9305970203
 20
112.9419003834
 30
0.0
 11
1183.9305970203
 21
115.2419003834
 31
0.0
1001
ACAD
1000
RTMaterial
1005
0
  0
LINE
  5
2DB
330
24E
100
AcDbEntity
  8
0
  6
Continuous
 62
     7
100
AcDbLine
 10
1183.9305970203
 20
116.9419003834
 30
0.0
 11
1183.9305970203
 21
119.2419003834
 31
0.0
1001
ACAD
1000
RTMaterial
1005
0
  0
LINE
  5
2DC
330
24E
100
AcDbEntity
  8
0
  6
Continuous
 62
     7
100
AcDbLine
 10
1183.9305970203
 20
120.9419003834
 30
0.0
 11
1183.9305970203
 21
123.2419003834
 31
0.0
1001
ACAD
1000
RTMaterial
1005
0
  0
LINE
  5
2DD
330
24E
100
AcDbEntity
  8
0
  6
Continuous
 62
     7
100
AcDbLine
 10
1183.9305970203
 20
124.9419003834
 30
0.0
 11
1183.9305970203
 21
127.2419003834
 31
0.0
1001
ACAD
1000
RTMaterial
1005
0
  0
LINE
  5
2DE
330
24E
100
AcDbEntity
  8
0
  6
Continuous
 62
     7
100
AcDbLine
 10
1188.1877441919
 20
53.561133629
 30
0.0
 11
1188.1877441919
 21
40.9419003834
 31
0.0
1001
ACAD
1000
RTMaterial
1005
0
  0
LINE
  5
2DF
330
24E
100
AcDbEntity
  8
0
  6
Continuous
 62
     7
100
AcDbLine
 10
1193.1877441919
 20
127.9419003834
 30
0.0
 11
1193.1877441919
 21
127.2419003834
 31
0.0
1001
ACAD
1000
RTMaterial
1005
0
  0
LINE
  5
2E0
330
24E
100
AcDbEntity
  8
0
  6
Continuous
 62
     7
100
AcDbLine
 10
1193.1877441919
 20
125.6419003834
 30
0.0
 11
1193.1877441919
 21
123.2419003834
 31
0.0
1001
ACAD
1000
RTMaterial
1005
0
  0
LINE
  5
2E1
330
24E
100
AcDbEntity
  8
0
  6
Continuous
 62
     7
100
AcDbLine
 10
1193.1877441919
 20
121.6419003834
 30
0.0
 11
1193.1877441919
 21
119.2419003834
 31
0.0
1001
ACAD
1000
RTMaterial
1005
0
  0
LINE
  5
2E2
330
24E
100
AcDbEntity
  8
0
  6
Continuous
 62
     7
100
AcDbLine
 10
1193.1877441919
 20
117.6419003834
 30
0.0
 11
1193.1877441919
 21
115.2419003834
 31
0.0
1001
ACAD
1000
RTMaterial
1005
0
  0
LINE
  5
2E3
330
24E
100
AcDbEntity
  8
0
  6
Continuous
 62
     7
100
AcDbLine
 10
1193.1877441919
 20
113.6419003834
 30
0.0
 11
1193.1877441919
 21
111.9419003834
 31
0.0
1001
ACAD
1000
RTMaterial
1005
0
  0
LINE
  5
2E4
330
24E
100
AcDbEntity
  8
0
  6
Continuous
 62
     7
100
AcDbLine
 10
1194.6877441919
 20
115.2419003834
 30
0.0
 11
1194.6877441919
 21
117.6419003834
 31
0.0
1001
ACAD
1000
RTMaterial
1005
0
  0
LINE
  5
2E5
330
24E
100
AcDbEntity
  8
0
  6
Continuous
 62
     7
100
AcDbLine
 10
1194.6877441919
 20
119.2419003834
 30
0.0
 11
1194.6877441919
 21
121.6419003834
 31
0.0
1001
ACAD
1000
RTMaterial
1005
0
  0
LINE
  5
2E6
330
24E
100
AcDbEntity
  8
0
  6
Continuous
 62
     7
100
AcDbLine
 10
1194.6877441919
 20
123.2419003834
 30
0.0
 11
1194.6877441919
 21
125.6419003834
 31
0.0
1001
ACAD
1000
RTMaterial
1005
0
  0
LINE
  5
2E7
330
24E
100
AcDbEntity
  8
0
  6
Continuous
 62
     7
100
AcDbLine
 10
1194.6877441919
 20
127.2419003834
 30
0.0
 11
1194.6877441919
 21
127.9419003834
 31
0.0
1001
ACAD
1000
RTMaterial
1005
0
  0
LINE
  5
2E8
330
24E
100
AcDbEntity
  8
0
  6
Continuous
 62
     7
100
AcDbLine
 10
1201.6877441919
 20
58.2641947219
 30
0.0
 11
1201.6877441919
 21
59.94190038340001
 31
0.0
1001
ACAD
1000
RTMaterial
1005
0
  0
LINE
  5
2E9
330
24E
100
AcDbEntity
  8
0
  6
Continuous
 62
     7
100
AcDbLine
 10
1204.6877441919
 20
59.94190038340001
 30
0.0
 11
1204.6877441919
 21
58.2641947219
 31
0.0
1001
ACAD
1000
RTMaterial
1005
0
  0
LINE
  5
2EA
330
24E
100
AcDbEntity
  8
0
  6
Continuous
 62
     7
100
AcDbLine
 10
1204.894174401
 20
113.734117677
 30
0.0
 11
1204.8941744011
 21
113.4419003834
 31
0.0
1001
ACAD
1000
RTMaterial
1005
0
  0
LINE
  5
2EB
330
24E
100
AcDbEntity
  8
0
  6
Continuous
 62
     7
100
AcDbLine
 10
1205.1877441919
 20
114.4419003834
 30
0.0
 11
1205.1877441919
 21
127.9419003834
 31
0.0
1001
ACAD
1000
RTMaterial
1005
0
  0
LINE
  5
2EC
330
24E
100
AcDbEntity
  8
0
  6
Continuous
 62
     7
100
AcDbLine
 10
1206.6877441919
 20
111.9419003834
 30
0.0
 11
1206.6877441919
 21
127.9419003834
 31
0.0
1001
ACAD
1000
RTMaterial
1005
0
  0
LINE
  5
2ED
330
24E
100
AcDbEntity
  8
0
  6
Continuous
 62
     7
100
AcDbLine
 10
1207.5929429687
 20
127.2419003834
 30
0.0
 11
1207.5929429687
 21
125.6419003834
 31
0.0
1001
ACAD
1000
RTMaterial
1005
0
  0
LINE
  5
2EE
330
24E
100
AcDbEntity
  8
0
  6
Continuous
 62
     7
100
AcDbLine
 10
1207.5929429687
 20
123.2419003834
 30
0.0
 11
1207.5929429687
 21
121.6419003834
 31
0.0
1001
ACAD
1000
RTMaterial
1005
0
  0
LINE
  5
2EF
330
24E
100
AcDbEntity
  8
0
  6
Continuous
 62
     7
100
AcDbLine
 10
1207.5929429687
 20
119.2419003834
 30
0.0
 11
1207.5929429687
 21
117.6419003834
 31
0.0
1001
ACAD
1000
RTMaterial
1005
0
  0
LINE
  5
2F0
330
24E
100
AcDbEntity
  8
0
  6
Continuous
 62
     7
100
AcDbLine
 10
1207.5929429687
 20
115.2419003834
 30
0.0
 11
1207.5929429687
 21
113.6419003834
 31
0.0
1001
ACAD
1000
RTMaterial
1005
0
  0
LINE
  5
2F1
330
24E
100
AcDbEntity
  8
0
  6
Continuous
 62
     7
100
AcDbLine
 10
1218.1877441919
 20
40.9419003834
 30
0.0
 11
1218.1877441919
 21
53.5611292129
 31
0.0
1001
ACAD
1000
RTMaterial
1005
0
  0
LINE
  5
2F2
330
24E
100
AcDbEntity
  8
0
  6
Continuous
 62
     7
100
AcDbLine
 10
1222.4448913635
 20
127.9419003834
 30
0.0
 11
1222.4448913635
 21
124.9419003834
 31
0.0
1001
ACAD
1000
RTMaterial
1005
0
  0
LINE
  5
2F3
330
24E
100
AcDbEntity
  8
0
  6
Continuous
 62
     7
100
AcDbLine
 10
1222.4448913635
 20
123.9419003834
 30
0.0
 11
1222.4448913635
 21
120.9419003834
 31
0.0
1001
ACAD
1000
RTMaterial
1005
0
  0
LINE
  5
2F4
330
24E
100
AcDbEntity
  8
0
  6
Continuous
 62
     7
100
AcDbLine
 10
1222.4448913635
 20
119.9419003834
 30
0.0
 11
1222.4448913635
 21
116.9419003834
 31
0.0
1001
ACAD
1000
RTMaterial
1005
0
  0
LINE
  5
2F5
330
24E
100
AcDbEntity
  8
0
  6
Continuous
 62
     7
100
AcDbLine
 10
1222.4448913635
 20
115.9419003834
 30
0.0
 11
1222.4448913635
 21
112.9419003834
 31
0.0
1001
ACAD
1000
RTMaterial
1005
0
  0
LINE
  5
2F6
330
24E
100
AcDbEntity
  8
0
  6
Continuous
 62
     7
100
AcDbLine
 10
1226.1877441919
 20
111.6419003834
 30
0.0
 11
1226.1877441919
 21
110.2419003834
 31
0.0
1001
ACAD
1000
RTMaterial
1005
0
  0
LINE
  5
2F7
330
24E
100
AcDbEntity
  8
0
  6
Continuous
 62
     7
100
AcDbLine
 10
1230.5996445786
 20
112.9419003834
 30
0.0
 11
1230.5996445786
 21
115.9419003834
 31
0.0
1001
ACAD
1000
RTMaterial
1005
0
  0
LINE
  5
2F8
330
24E
100
AcDbEntity
  8
0
  6
Continuous
 62
     7
100
AcDbLine
 10
1230.5996445786
 20
116.9419003834
 30
0.0
 11
1230.5996445786
 21
119.9419003834
 31
0.0
1001
ACAD
1000
RTMaterial
1005
0
  0
LINE
  5
2F9
330
24E
100
AcDbEntity
  8
0
  6
Continuous
 62
     7
100
AcDbLine
 10
1230.5996445786
 20
120.9419003834
 30
0.0
 11
1230.5996445786
 21
123.9419003834
 31
0.0
1001
ACAD
1000
RTMaterial
1005
0
  0
LINE
  5
2FA
330
24E
100
AcDbEntity
  8
0
  6
Continuous
 62
     7
100
AcDbLine
 10
1230.5996445786
 20
124.9419003834
 30
0.0
 11
1230.5996445786
 21
127.9419003834
 31
0.0
1001
ACAD
1000
RTMaterial
1005
0
  0
LINE
  5
2FB
330
24E
100
AcDbEntity
  8
06___PRT_ALL_SURFS
  6
Continuous
 62
     7
100
AcDbLine
 10
1232.1845234172
 20
106.9419003834
 30
0.0
 11
1232.1845234172
 21
108.4419003834
 31
0.0
1001
ACAD
1000
RTMaterial
1005
0
  0
LINE
  5
2FC
330
24E
100
AcDbEntity
  8
0
  6
Continuous
 62
     7
100
AcDbLine
 10
1233.6877441919
 20
108.4419003834
 30
0.0
 11
1233.6877441919
 21
106.9419003834
 31
0.0
1001
ACAD
1000
RTMaterial
1005
0
  0
LINE
  5
2FD
330
24E
100
AcDbEntity
  8
0
  6
Continuous
 62
     7
100
AcDbLine
 10
1234.6877441919
 20
108.4419003834
 30
0.0
 11
1234.6877441919
 21
106.9419003834
 31
0.0
1001
ACAD
1000
RTMaterial
1005
0
  0
LINE
  5
2FE
330
24E
100
AcDbEntity
  8
0
  6
Continuous
 62
     7
100
AcDbLine
 10
1236.6840126408
 20
127.3147454907
 30
0.0
 11
1236.6840126408
 21
125.5690783993
 31
0.0
1001
ACAD
1000
RTMaterial
1005
0
  0
LINE
  5
2FF
330
24E
100
AcDbEntity
  8
0
  6
Continuous
 62
     7
100
AcDbLine
 10
1236.6840126408
 20
123.3147454907
 30
0.0
 11
1236.6840126408
 21
121.5690783993
 31
0.0
1001
ACAD
1000
RTMaterial
1005
0
  0
LINE
  5
300
330
24E
100
AcDbEntity
  8
0
  6
Continuous
 62
     7
100
AcDbLine
 10
1236.6840126408
 20
119.3147454907
 30
0.0
 11
1236.6840126408
 21
117.5690783993
 31
0.0
1001
ACAD
1000
RTMaterial
1005
0
  0
LINE
  5
301
330
24E
100
AcDbEntity
  8
0
  6
Continuous
 62
     7
100
AcDbLine
 10
1236.6840126408
 20
115.3147454907
 30
0.0
 11
1236.6840126408
 21
113.6419003834
 31
0.0
1001
ACAD
1000
RTMaterial
1005
0
  0
LINE
  5
302
330
24E
100
AcDbEntity
  8
0
  6
Continuous
 62
     7
100
AcDbLine
 10
1236.6877441919
 20
108.4419003834
 30
0.0
 11
1236.6877441919
 21
106.9419003834
 31
0.0
1001
ACAD
1000
RTMaterial
1005
0
  0
LINE
  5
303
330
24E
100
AcDbEntity
  8
0
  6
Continuous
 62
     7
100
AcDbLine
 10
1237.6877441919
 20
108.4419003834
 30
0.0
 11
1237.6877441919
 21
106.9419003834
 31
0.0
1001
ACAD
1000
RTMaterial
1005
0
  0
LINE
  5
304
330
24E
100
AcDbEntity
  8
0
  6
Continuous
 62
     7
100
AcDbLine
 10
1237.9907613025
 20
111.6419003834
 30
0.0
 11
1237.9907613025
 21
110.2419003834
 31
0.0
1001
ACAD
1000
RTMaterial
1005
0
  0
LINE
  5
305
330
24E
100
AcDbEntity
  8
0
  6
Continuous
 62
     7
100
AcDbLine
 10
1238.5607565035
 20
111.5419003834
 30
0.0
 11
1238.5607565035
 21
108.4419003834
 31
0.0
1001
ACAD
1000
RTMaterial
1005
0
  0
LINE
  5
306
330
24E
100
AcDbEntity
  8
0
  6
Continuous
 62
     7
100
AcDbLine
 10
1238.6877441919
 20
111.9419003834
 30
0.0
 11
1238.6877441919
 21
108.4419003834
 31
0.0
1001
ACAD
1000
RTMaterial
1005
0
  0
LINE
  5
307
330
24E
100
AcDbEntity
  8
0
  6
Continuous
 62
     7
100
AcDbLine
 10
1239.104314184
 20
110.4419003834
 30
0.0
 11
1239.104314184
 21
108.4419003834
 31
0.0
1001
ACAD
1000
RTMaterial
1005
0
  0
LINE
  5
308
330
24E
100
AcDbEntity
  8
0
  6
Continuous
 62
     7
100
AcDbLine
 10
1239.5195484411
 20
111.8419003834
 30
0.0
 11
1239.5195484411
 21
110.6419003834
 31
0.0
1001
ACAD
1000
RTMaterial
1005
0
  0
LINE
  5
309
330
24E
100
AcDbEntity
  8
0
  6
Continuous
 62
     7
100
AcDbLine
 10
1239.6843193737
 20
124.9419003834
 30
0.0
 11
1239.6843193737
 21
123.9419003834
 31
0.0
1001
ACAD
1000
RTMaterial
1005
0
  0
LINE
  5
30A
330
24E
100
AcDbEntity
  8
0
  6
Continuous
 62
     7
100
AcDbLine
 10
1239.6843193737
 20
120.9419003834
 30
0.0
 11
1239.6843193737
 21
119.9419003834
 31
0.0
1001
ACAD
1000
RTMaterial
1005
0
  0
LINE
  5
30B
330
24E
100
AcDbEntity
  8
0
  6
Continuous
 62
     7
100
AcDbLine
 10
1239.6843193737
 20
116.9419003834
 30
0.0
 11
1239.6843193737
 21
115.9419003834
 31
0.0
1001
ACAD
1000
RTMaterial
1005
0
  0
LINE
  5
30C
330
24E
100
AcDbEntity
  8
0
  6
Continuous
 62
     7
100
AcDbLine
 10
1239.6843193737
 20
110.5957465373
 30
0.0
 11
1239.6843193737
 21
112.9419003834
 31
0.0
1001
ACAD
1000
RTMaterial
1005
0
  0
LWPOLYLINE
  5
30D
330
24E
100
AcDbEntity
  8
06___PRT_ALL_SURFS
  6
Continuous
 62
     7
100
AcDbPolyline
 90
        6
 70
     0
 43
0.0
 10
1231.4073275992
 20
87.9387519085
 10
1231.7723617909
 20
90.7514224614
 10
1232.0362824081
 20
94.35933380709998
 10
1232.1523567963
 20
98.2647833116
 10
1232.1830220966
 20
102.61319574
 10
1232.1845230877
 20
106.9419003834
  0
LINE
  5
30E
330
24E
100
AcDbEntity
  8
06___PRT_ALL_SURFS
  6
Continuous
 62
     7
100
AcDbLine
 10
1231.4065442158
 20
87.93382829030001
 30
0.0
 11
1231.4073275992
 21
87.9387519085
 31
0.0
1001
ACAD
1000
RTMaterial
1005
0
  0
LINE
  5
30F
330
24E
100
AcDbEntity
  8
06___PRT_ALL_SURFS
  6
Continuous
 62
     7
100
AcDbLine
 10
1231.3453199133
 20
87.57039790749999
 30
0.0
 11
1231.4065442158
 21
87.93382829030001
 31
0.0
1001
ACAD
1000
RTMaterial
1005
0
  0
LINE
  5
310
330
24E
100
AcDbEntity
  8
0
  6
Continuous
 62
     7
100
AcDbLine
 10
1167.1911690101
 20
113.4419003834
 30
0.0
 11
1166.6911690101
 21
112.9419003834
 31
0.0
1001
ACAD
1000
RTMaterial
1005
0
  0
LINE
  5
311
330
24E
100
AcDbEntity
  8
0
  6
Continuous
 62
     7
100
AcDbLine
 10
1164.6625900205
 20
125.8639147666
 30
0.0
 11
1080.570556766
 21
76.2938741114
 31
0.0
1001
ACAD
1000
RTMaterial
1005
0
  0
LINE
  5
312
330
24E
100
AcDbEntity
  8
0
  6
Continuous
 62
     7
100
AcDbLine
 10
1311.8634679285
 20
61.96030487369999
 30
0.0
 11
1311.7877441919
 21
62.9419003834
 31
0.0
1001
ACAD
1000
RTMaterial
1005
0
  0
LINE
  5
313
330
24E
100
AcDbEntity
  8
0
  6
Continuous
 62
     7
100
AcDbLine
 10
1293.1877441919
 20
-243.0580996166
 30
0.0
 11
1293.1877441919
 21
95.52084775190001
 31
0.0
1001
ACAD
1000
RTMaterial
1005
0
  0
LINE
  5
314
330
24E
100
AcDbEntity
  8
0
  6
Continuous
 62
     7
100
AcDbLine
 10
1333.1877441919
 20
18.9419003834
 30
0.0
 11
1333.1877441919
 21
63.3718597282
 31
0.0
1001
ACAD
1000
RTMaterial
1005
0
  0
LINE
  5
315
330
24E
100
AcDbEntity
  8
0
  6
Continuous
 62
     7
100
AcDbLine
 10
1336.6877441919
 20
-255.0580996166
 30
0.0
 11
1336.6877441919
 21
-253.0580996166
 31
0.0
1001
ACAD
1000
RTMaterial
1005
0
  0
LINE
  5
316
330
24E
100
AcDbEntity
  8
0
  6
Continuous
 62
     7
100
AcDbLine
 10
1347.6877441919
 20
-255.0580996166
 30
0.0
 11
1347.6877441919
 21
-253.0580996166
 31
0.0
1001
ACAD
1000
RTMaterial
1005
0
  0
LINE
  5
317
330
24E
100
AcDbEntity
  8
0
  6
Continuous
 62
     7
100
AcDbLine
 10
1389.6877441919
 20
-255.0580996166
 30
0.0
 11
1389.6877441919
 21
-253.0580996166
 31
0.0
1001
ACAD
1000
RTMaterial
1005
0
  0
LINE
  5
318
330
24E
100
AcDbEntity
  8
0
  6
Continuous
 62
     7
100
AcDbLine
 10
1396.6877441919
 20
-253.0580996166
 30
0.0
 11
1396.6877441919
 21
-255.0580996166
 31
0.0
1001
ACAD
1000
RTMaterial
1005
0
  0
LINE
  5
319
330
24E
100
AcDbEntity
  8
0
  6
Continuous
 62
     7
100
AcDbLine
 10
1438.1877441919
 20
-257.0580996166
 30
0.0
 11
1438.1877441919
 21
-252.759737071
 31
0.0
1001
ACAD
1000
RTMaterial
1005
0
  0
LINE
  5
31A
330
24E
100
AcDbEntity
  8
0
  6
Continuous
 62
     7
100
AcDbLine
 10
1440.3877441919
 20
-249.0580996166
 30
0.0
 11
1440.3877441919
 21
737.9419003833999
 31
0.0
1001
ACAD
1000
RTMaterial
1005
0
  0
LINE
  5
31B
330
24E
100
AcDbEntity
  8
0
  6
Continuous
 62
     7
100
AcDbLine
 10
1440.6877441919
 20
-249.0580996166
 30
0.0
 11
1440.6877441919
 21
737.9419003833999
 31
0.0
1001
ACAD
1000
RTMaterial
1005
0
  0
LINE
  5
31C
330
24E
100
AcDbEntity
  8
0
  6
Continuous
 62
     7
100
AcDbLine
 10
1436.6877441919
 20
741.6419003834
 30
0.0
 11
969.6877441918999
 21
741.6419003834
 31
0.0
1001
ACAD
1000
RTMaterial
1005
0
  0
LINE
  5
31D
330
24E
100
AcDbEntity
  8
0
  6
Continuous
 62
     7
100
AcDbLine
 10
1436.6877441919
 20
741.9419003833999
 30
0.0
 11
969.6877441918999
 21
741.9419003833999
 31
0.0
1001
ACAD
1000
RTMaterial
1005
0
  0
LINE
  5
31E
330
24E
100
AcDbEntity
  8
0
  6
Continuous
 62
     7
100
AcDbLine
 10
1918.3226037237
 20
739.9419003833998
 30
0.0
 11
1918.0226037237
 21
739.6419003833999
 31
0.0
1001
ACAD
1000
RTMaterial
1005
0
  0
LINE
  5
31F
330
24E
100
AcDbEntity
  8
0
  6
Continuous
 62
     7
100
AcDbLine
 10
1909.0319846268
 20
698.0914581713999
 30
0.0
 11
1918.4038419174
 21
704.7856419503999
 31
0.0
1001
ACAD
1000
RTMaterial
1005
0
  0
LINE
  5
320
330
24E
100
AcDbEntity
  8
0
  6
Continuous
 62
     7
100
AcDbLine
 10
1918.5226037237
 20
704.1633650308
 30
0.0
 11
1909.8394447406
 21
697.9611086144
 31
0.0
1001
ACAD
1000
RTMaterial
1005
0
  0
LINE
  5
321
330
24E
100
AcDbEntity
  8
0
  6
Continuous
 62
     7
100
AcDbLine
 10
2023.5226037237
 20
741.6419003834
 30
0.0
 11
2023.8226037237
 21
741.9419003833999
 31
0.0
1001
ACAD
1000
RTMaterial
1005
0
  0
LINE
  5
322
330
24E
100
AcDbEntity
  8
0
  6
Continuous
 62
     7
100
AcDbLine
 10
2022.5226037237
 20
-257.0580996166
 30
0.0
 11
1908.5226037237
 21
-257.0580996166
 31
0.0
1001
ACAD
1000
RTMaterial
1005
0
  0
LINE
  5
323
330
24E
100
AcDbEntity
  8
0
  6
Continuous
 62
     7
100
AcDbLine
 10
2028.2226037237
 20
-253.0580996166
 30
0.0
 11
2023.8226037237
 21
-253.0580996166
 31
0.0
1001
ACAD
1000
RTMaterial
1005
0
  0
LINE
  5
324
330
24E
100
AcDbEntity
  8
0
  6
Continuous
 62
     7
100
AcDbLine
 10
2022.7226037237
 20
734.9419003833999
 30
0.0
 11
2023.0226037237
 21
735.2419003834
 31
0.0
1001
ACAD
1000
RTMaterial
1005
0
  0
LINE
  5
325
330
24E
100
AcDbEntity
  8
0
  6
Continuous
 62
     7
100
AcDbLine
 10
2022.5226037237
 20
-230.0580996166
 30
0.0
 11
2023.5226037237
 21
-230.0580996166
 31
0.0
1001
ACAD
1000
RTMaterial
1005
0
  0
LINE
  5
326
330
24E
100
AcDbEntity
  8
0
  6
Continuous
 62
     7
100
AcDbLine
 10
2023.5226037237
 20
-252.7580996166
 30
0.0
 11
2023.8226036852
 21
-253.0580995781
 31
0.0
1001
ACAD
1000
RTMaterial
1005
0
  0
LINE
  5
327
330
24E
100
AcDbEntity
  8
0
  6
Continuous
 62
     7
100
AcDbLine
 10
1908.5226037237
 20
-257.0580996166
 30
0.0
 11
1908.5226037237
 21
-120.9914690964
 31
0.0
1001
ACAD
1000
RTMaterial
1005
0
  0
LINE
  5
328
330
24E
100
AcDbEntity
  8
0
  6
Continuous
 62
     7
100
AcDbLine
 10
1908.5226037237
 20
-93.12473013669999
 30
0.0
 11
1908.5226037237
 21
674.9419003833999
 31
0.0
1001
ACAD
1000
RTMaterial
1005
0
  0
LINE
  5
329
330
24E
100
AcDbEntity
  8
0
  6
Continuous
 62
     7
100
AcDbLine
 10
1908.8226037237
 20
675.4419003833999
 30
0.0
 11
1908.8226037237
 21
697.6845914358
 31
0.0
1001
ACAD
1000
RTMaterial
1005
0
  0
LINE
  5
32A
330
24E
100
AcDbEntity
  8
0
  6
Continuous
 62
     7
100
AcDbLine
 10
1910.0226037237
 20
-94.9202881068
 30
0.0
 11
1910.0226037237
 21
-119.194872596
 31
0.0
1001
ACAD
1000
RTMaterial
1005
0
  0
LINE
  5
32B
330
24E
100
AcDbEntity
  8
0
  6
Continuous
 62
     7
100
AcDbLine
 10
1918.0226037237
 20
739.6419003833999
 30
0.0
 11
1918.0226037237
 21
735.2419003834
 31
0.0
1001
ACAD
1000
RTMaterial
1005
0
  0
LINE
  5
32C
330
24E
100
AcDbEntity
  8
0
  6
Continuous
 62
     7
100
AcDbLine
 10
1918.5226037237
 20
-257.0580996166
 30
0.0
 11
1918.5226037237
 21
734.9419003833999
 31
0.0
1001
ACAD
1000
RTMaterial
1005
0
  0
LINE
  5
32D
330
24E
100
AcDbEntity
  8
0
  6
Continuous
 62
     7
100
AcDbLine
 10
2022.5226037237
 20
-257.0580996166
 30
0.0
 11
2022.5226037237
 21
734.9419003833999
 31
0.0
1001
ACAD
1000
RTMaterial
1005
0
  0
LINE
  5
32E
330
24E
100
AcDbEntity
  8
0
  6
Continuous
 62
     7
100
AcDbLine
 10
2023.0226037237
 20
739.6419003833999
 30
0.0
 11
2023.0226037237
 21
735.2419003834
 31
0.0
1001
ACAD
1000
RTMaterial
1005
0
  0
LINE
  5
32F
330
24E
100
AcDbEntity
  8
0
  6
Continuous
 62
     7
100
AcDbLine
 10
2023.5226037237
 20
-252.7580996166
 30
0.0
 11
2023.5226037237
 21
741.6419003834
 31
0.0
1001
ACAD
1000
RTMaterial
1005
0
  0
LINE
  5
330
330
24E
100
AcDbEntity
  8
0
  6
Continuous
 62
     7
100
AcDbLine
 10
2023.8226037237
 20
-253.0580996166
 30
0.0
 11
2023.8226037237
 21
741.9419003833999
 31
0.0
1001
ACAD
1000
RTMaterial
1005
0
  0
LINE
  5
331
330
24E
100
AcDbEntity
  8
0
  6
Continuous
 62
     7
100
AcDbLine
 10
2028.2226037237
 20
741.9419003833999
 30
0.0
 11
2028.2226037237
 21
-253.0580996166
 31
0.0
1001
ACAD
1000
RTMaterial
1005
0
  0
LINE
  5
332
330
24E
100
AcDbEntity
  8
0
  6
Continuous
 62
     7
100
AcDbLine
 10
2028.5226037237
 20
741.6419003834
 30
0.0
 11
2028.5226037237
 21
-252.7580996166
 31
0.0
1001
ACAD
1000
RTMaterial
1005
0
  0
LINE
  5
333
330
24E
100
AcDbEntity
  8
0
  6
Continuous
 62
     7
100
AcDbLine
 10
2028.5226037237
 20
-252.7580996166
 30
0.0
 11
2028.2226037237
 21
-253.0580996166
 31
0.0
1001
ACAD
1000
RTMaterial
1005
0
  0
LINE
  5
334
330
24E
100
AcDbEntity
  8
0
  6
Continuous
 62
     7
100
AcDbLine
 10
1918.3226037237
 20
734.9419003833999
 30
0.0
 11
1918.0226037237
 21
735.2419003834
 31
0.0
1001
ACAD
1000
RTMaterial
1005
0
  0
LINE
  5
335
330
24E
100
AcDbEntity
  8
0
  6
Continuous
 62
     7
100
AcDbLine
 10
2022.7226037237
 20
739.9419003833998
 30
0.0
 11
2023.0226037237
 21
739.6419003833999
 31
0.0
1001
ACAD
1000
RTMaterial
1005
0
  0
LINE
  5
336
330
24E
100
AcDbEntity
  8
0
  6
Continuous
 62
     7
100
AcDbLine
 10
2028.5226037237
 20
741.6419003834
 30
0.0
 11
2028.2226037237
 21
741.9419003833999
 31
0.0
1001
ACAD
1000
RTMaterial
1005
0
  0
LINE
  5
337
330
24E
100
AcDbEntity
  8
0
  6
Continuous
 62
     7
100
AcDbLine
 10
1908.5226037237
 20
674.9419003833999
 30
0.0
 11
1918.5221770259
 21
674.9419003833999
 31
0.0
1001
ACAD
1000
RTMaterial
1005
0
  0
LINE
  5
338
330
24E
100
AcDbEntity
  8
0
  6
Continuous
 62
     7
100
AcDbLine
 10
1918.5226037237
 20
675.4419003833999
 30
0.0
 11
1908.8226037237
 21
675.4419003833999
 31
0.0
1001
ACAD
1000
RTMaterial
1005
0
  0
LINE
  5
339
330
24E
100
AcDbEntity
  8
0
  6
Continuous
 62
     7
100
AcDbLine
 10
2022.5226037237
 20
719.9419003833999
 30
0.0
 11
2023.5226037237
 21
719.9419003833999
 31
0.0
1001
ACAD
1000
RTMaterial
1005
0
  0
LINE
  5
33A
330
24E
100
AcDbEntity
  8
0
  6
Continuous
 62
     7
100
AcDbLine
 10
2022.7226037237
 20
734.9419003833999
 30
0.0
 11
1918.3226037237
 21
734.9419003833999
 31
0.0
1001
ACAD
1000
RTMaterial
1005
0
  0
LINE
  5
33B
330
24E
100
AcDbEntity
  8
0
  6
Continuous
 62
     7
100
AcDbLine
 10
2023.0226037237
 20
735.2419003834
 30
0.0
 11
1918.0226037237
 21
735.2419003834
 31
0.0
1001
ACAD
1000
RTMaterial
1005
0
  0
LINE
  5
33C
330
24E
100
AcDbEntity
  8
0
  6
Continuous
 62
     7
100
AcDbLine
 10
1918.0226037237
 20
739.6419003833999
 30
0.0
 11
2023.0226037237
 21
739.6419003833999
 31
0.0
1001
ACAD
1000
RTMaterial
1005
0
  0
LINE
  5
33D
330
24E
100
AcDbEntity
  8
0
  6
Continuous
 62
     7
100
AcDbLine
 10
1918.3226037237
 20
739.9419003833998
 30
0.0
 11
2022.7226037237
 21
739.9419003833998
 31
0.0
1001
ACAD
1000
RTMaterial
1005
0
  0
LINE
  5
33E
330
24E
100
AcDbEntity
  8
0
  6
Continuous
 62
     7
100
AcDbLine
 10
1981.9515419015
 20
741.3419003833999
 30
0.0
 11
1959.0936655459
 21
741.3419003833999
 31
0.0
1001
ACAD
1000
RTMaterial
1005
0
  0
LINE
  5
33F
330
24E
100
AcDbEntity
  8
0
  6
Continuous
 62
     7
100
AcDbLine
 10
2028.2226037237
 20
741.9419003833999
 30
0.0
 11
2023.8226037237
 21
741.9419003833999
 31
0.0
1001
ACAD
1000
RTMaterial
1005
0
  0
LINE
  5
340
330
24E
100
AcDbEntity
  8
0
  6
Continuous
 62
     7
100
AcDbLine
 10
979.5039135674
 20
-640.277059524
 30
0.0
 11
985.3096081316
 21
-631.9832101465
 31
0.0
1001
ACAD
1000
RTMaterial
1005
0
  0
LINE
  5
341
330
24E
100
AcDbEntity
  8
0
  6
Continuous
 62
     7
100
AcDbLine
 10
980.1163156204999
 20
-640.6301348352999
 30
0.0
 11
986.0895130400999
 21
-632.2676584477999
 31
0.0
1001
ACAD
1000
RTMaterial
1005
0
  0
LINE
  5
342
330
24E
100
AcDbEntity
  8
0
  6
Continuous
 62
     7
100
AcDbLine
 10
980.8234224016999
 20
-640.6301348352999
 30
0.0
 11
986.668535961
 21
-632.4469758522
 31
0.0
1001
ACAD
1000
RTMaterial
1005
0
  0
LINE
  5
343
330
24E
100
AcDbEntity
  8
0
  6
Continuous
 62
     7
100
AcDbLine
 10
965.9877441919
 20
-746.1301348352999
 30
0.0
 11
965.6877441919
 21
-746.4301348353
 31
0.0
1001
ACAD
1000
RTMaterial
1005
0
  0
LINE
  5
344
330
24E
100
AcDbEntity
  8
0
  6
Continuous
 62
     7
100
AcDbLine
 10
986.8149166589999
 20
-631.9410652356999
 30
0.0
 11
986.8150367241
 21
-631.9520009079
 31
0.0
1001
ACAD
1000
RTMaterial
1005
0
  0
LINE
  5
345
330
24E
100
AcDbEntity
  8
0
  6
Continuous
 62
     7
100
AcDbLine
 10
965.6877441919
 20
-750.8301348353
 30
0.0
 11
965.6877441919
 21
-746.4301348353
 31
0.0
1001
ACAD
1000
RTMaterial
1005
0
  0
LINE
  5
346
330
24E
100
AcDbEntity
  8
0
  6
Continuous
 62
     7
100
AcDbLine
 10
967.1877441919001
 20
-642.6301348352999
 30
0.0
 11
967.1877441919001
 21
-743.6301348352999
 31
0.0
1001
ACAD
1000
RTMaterial
1005
0
  0
LINE
  5
347
330
24E
100
AcDbEntity
  8
0
  6
Continuous
 62
     7
100
AcDbLine
 10
967.4877441918999
 20
-642.6301348352999
 30
0.0
 11
967.4877441918999
 21
-743.6301348352999
 31
0.0
1001
ACAD
1000
RTMaterial
1005
0
  0
LINE
  5
348
330
24E
100
AcDbEntity
  8
0
  6
Continuous
 62
     7
100
AcDbLine
 10
973.1877441918999
 20
-745.6301348352999
 30
0.0
 11
973.1877441918999
 21
-746.1301348352999
 31
0.0
1001
ACAD
1000
RTMaterial
1005
0
  0
LINE
  5
349
330
24E
100
AcDbEntity
  8
0
  6
Continuous
 62
     7
100
AcDbLine
 10
989.1877441919
 20
-745.6301348352999
 30
0.0
 11
989.1877441919
 21
-746.1301348352999
 31
0.0
1001
ACAD
1000
RTMaterial
1005
0
  0
LINE
  5
34A
330
24E
100
AcDbEntity
  8
0
  6
Continuous
 62
     7
100
AcDbLine
 10
996.6877441919001
 20
-631.4301348353
 30
0.0
 11
996.6877441919001
 21
-631.1301348352999
 31
0.0
1001
ACAD
1000
RTMaterial
1005
0
  0
LINE
  5
34B
330
24E
100
AcDbEntity
  8
0
  6
Continuous
 62
     7
100
AcDbLine
 10
1063.1877441919
 20
-745.6301348352999
 30
0.0
 11
1063.1877441919
 21
-746.1301348352999
 31
0.0
1001
ACAD
1000
RTMaterial
1005
0
  0
LINE
  5
34C
330
24E
100
AcDbEntity
  8
0
  6
Continuous
 62
     7
100
AcDbLine
 10
1108.1877441919
 20
-745.6301348352999
 30
0.0
 11
1108.1877441919
 21
-746.1301348352999
 31
0.0
1001
ACAD
1000
RTMaterial
1005
0
  0
LINE
  5
34D
330
24E
100
AcDbEntity
  8
0
  6
Continuous
 62
     7
100
AcDbLine
 10
965.9877441919
 20
-751.1301348352999
 30
0.0
 11
965.6877441919
 21
-750.8301348353
 31
0.0
1001
ACAD
1000
RTMaterial
1005
0
  0
LINE
  5
34E
330
24E
100
AcDbEntity
  8
0
  6
Continuous
 62
     7
100
AcDbLine
 10
1147.6877441919
 20
-708.0666506111001
 30
0.0
 11
1147.6877441919
 21
-708.3248359005999
 31
0.0
1001
ACAD
1000
RTMaterial
1005
0
  0
LINE
  5
34F
330
24E
100
AcDbEntity
  8
0
  6
Continuous
 62
     7
100
AcDbLine
 10
1149.1877441919
 20
-708.5338669796
 30
0.0
 11
1149.1877441919
 21
-708.7966271012
 31
0.0
1001
ACAD
1000
RTMaterial
1005
0
  0
LINE
  5
350
330
24E
100
AcDbEntity
  8
0
  6
Continuous
 62
     7
100
AcDbLine
 10
1149.8877441919
 20
-677.5464171168001
 30
0.0
 11
1149.8877441919
 21
-677.3113674905999
 31
0.0
1001
ACAD
1000
RTMaterial
1005
0
  0
LINE
  5
351
330
24E
100
AcDbEntity
  8
0
  6
Continuous
 62
     7
100
AcDbLine
 10
1156.4877441919
 20
-677.3113674915999
 30
0.0
 11
1156.4877441919
 21
-677.4951839882
 31
0.0
1001
ACAD
1000
RTMaterial
1005
0
  0
LINE
  5
352
330
24E
100
AcDbEntity
  8
0
  6
Continuous
 62
     7
100
AcDbLine
 10
1157.1877441919
 20
-708.6151461781
 30
0.0
 11
1157.1877441919
 21
-708.7966271022
 31
0.0
1001
ACAD
1000
RTMaterial
1005
0
  0
LINE
  5
353
330
24E
100
AcDbEntity
  8
0
  6
Continuous
 62
     7
100
AcDbLine
 10
1157.9877441919
 20
-677.8882873899999
 30
0.0
 11
1157.9877441919
 21
-677.6743479944
 31
0.0
1001
ACAD
1000
RTMaterial
1005
0
  0
LINE
  5
354
330
24E
100
AcDbEntity
  8
0
  6
Continuous
 62
     7
100
AcDbLine
 10
1298.1877441919
 20
-745.6301348352999
 30
0.0
 11
1298.1877441919
 21
-746.1301348352999
 31
0.0
1001
ACAD
1000
RTMaterial
1005
0
  0
LINE
  5
355
330
24E
100
AcDbEntity
  8
0
  6
Continuous
 62
     7
100
AcDbLine
 10
1440.3877441919
 20
-751.1301348352999
 30
0.0
 11
1440.6877441919
 21
-750.8301348353
 31
0.0
1001
ACAD
1000
RTMaterial
1005
0
  0
LINE
  5
356
330
24E
100
AcDbEntity
  8
0
  6
Continuous
 62
     7
100
AcDbLine
 10
1440.3877441919
 20
-751.1301348352999
 30
0.0
 11
965.9877441919
 21
-751.1301348352999
 31
0.0
1001
ACAD
1000
RTMaterial
1005
0
  0
LINE
  5
357
330
24E
100
AcDbEntity
  8
0
  6
Continuous
 62
     7
100
AcDbLine
 10
1440.6877441919
 20
-750.8301348353
 30
0.0
 11
965.6877441919
 21
-750.8301348353
 31
0.0
1001
ACAD
1000
RTMaterial
1005
0
  0
LINE
  5
358
330
24E
100
AcDbEntity
  8
0
  6
Continuous
 62
     7
100
AcDbLine
 10
965.6877441919
 20
-746.4301348353
 30
0.0
 11
1440.6877441919
 21
-746.4301348353
 31
0.0
1001
ACAD
1000
RTMaterial
1005
0
  0
LINE
  5
359
330
24E
100
AcDbEntity
  8
0
  6
Continuous
 62
     7
100
AcDbLine
 10
965.9877441919
 20
-746.1301348352999
 30
0.0
 11
1440.3877441919
 21
-746.1301348352999
 31
0.0
1001
ACAD
1000
RTMaterial
1005
0
  0
LINE
  5
35A
330
24E
100
AcDbEntity
  8
0
  6
Continuous
 62
     7
100
AcDbLine
 10
969.1877441919
 20
-745.6301348352999
 30
0.0
 11
1437.1877441919
 21
-745.6301348352999
 31
0.0
1001
ACAD
1000
RTMaterial
1005
0
  0
LINE
  5
35B
330
24E
100
AcDbEntity
  8
0
  6
Continuous
 62
     7
100
AcDbLine
 10
969.1877441919
 20
-745.3301348353
 30
0.0
 11
1437.1877441919
 21
-745.3301348353
 31
0.0
1001
ACAD
1000
RTMaterial
1005
0
  0
LINE
  5
35C
330
24E
100
AcDbEntity
  8
0
  6
Continuous
 62
     7
100
AcDbLine
 10
1343.1877441919
 20
-745.6301348352999
 30
0.0
 11
1343.1877441919
 21
-746.1301348352999
 31
0.0
1001
ACAD
1000
RTMaterial
1005
0
  0
LINE
  5
35D
330
24E
100
AcDbEntity
  8
0
  6
Continuous
 62
     7
100
AcDbLine
 10
1137.7316088233
 20
-697.9292036536
 30
0.0
 11
1137.9471652761
 21
-697.9288731225999
 31
0.0
1001
ACAD
1000
RTMaterial
1005
0
  0
LINE
  5
35E
330
24E
100
AcDbEntity
  8
0
  6
Continuous
 62
     7
100
AcDbLine
 10
1137.3688950627
 20
-696.4297580701
 30
0.0
 11
1137.5454060766
 21
-696.4294874107
 31
0.0
1001
ACAD
1000
RTMaterial
1005
0
  0
LINE
  5
35F
330
24E
100
AcDbEntity
  8
0
  6
Continuous
 62
     7
100
AcDbLine
 10
1168.8542355682
 20
-689.1301348352999
 30
0.0
 11
1168.6058430939
 21
-689.1301348352999
 31
0.0
1001
ACAD
1000
RTMaterial
1005
0
  0
LINE
  5
360
330
24E
100
AcDbEntity
  8
0
  6
Continuous
 62
     7
100
AcDbLine
 10
1168.3824455399
 20
-687.6301348352999
 30
0.0
 11
1168.2078191894
 21
-687.6301348352999
 31
0.0
1001
ACAD
1000
RTMaterial
1005
0
  0
LINE
  5
361
330
24E
100
AcDbEntity
  8
0
  6
Continuous
 62
     7
100
AcDbLine
 10
1409.6877441919
 20
-631.1301348352999
 30
0.0
 11
1409.6877441919
 21
-631.4301348353
 31
0.0
1001
ACAD
1000
RTMaterial
1005
0
  0
LINE
  5
362
330
24E
100
AcDbEntity
  8
0
  6
Continuous
 62
     7
100
AcDbLine
 10
1417.1877441919
 20
-745.6301348352999
 30
0.0
 11
1417.1877441919
 21
-746.1301348352999
 31
0.0
1001
ACAD
1000
RTMaterial
1005
0
  0
LINE
  5
363
330
24E
100
AcDbEntity
  8
0
  6
Continuous
 62
     7
100
AcDbLine
 10
1419.560447267
 20
-631.9520008941999
 30
0.0
 11
1419.5605667153
 21
-631.9410622489
 31
0.0
1001
ACAD
1000
RTMaterial
1005
0
  0
LINE
  5
364
330
24E
100
AcDbEntity
  8
0
  6
Continuous
 62
     7
100
AcDbLine
 10
1437.1877441919
 20
-640.9301348352999
 30
0.0
 11
969.1877441919
 21
-640.9301348352999
 31
0.0
1001
ACAD
1000
RTMaterial
1005
0
  0
LINE
  5
365
330
24E
100
AcDbEntity
  8
0
  6
Continuous
 62
     7
100
AcDbLine
 10
1437.1877441919
 20
-640.6301348352999
 30
0.0
 11
969.1877441919
 21
-640.6301348352999
 31
0.0
1001
ACAD
1000
RTMaterial
1005
0
  0
LINE
  5
366
330
24E
100
AcDbEntity
  8
0
  6
Continuous
 62
     7
100
AcDbLine
 10
1433.1877441919
 20
-745.6301348352999
 30
0.0
 11
1433.1877441919
 21
-746.1301348352999
 31
0.0
1001
ACAD
1000
RTMaterial
1005
0
  0
LINE
  5
367
330
24E
100
AcDbEntity
  8
0
  6
Continuous
 62
     7
100
AcDbLine
 10
1438.8877441919
 20
-743.6301348352999
 30
0.0
 11
1438.8877441919
 21
-642.6301348352999
 31
0.0
1001
ACAD
1000
RTMaterial
1005
0
  0
LINE
  5
368
330
24E
100
AcDbEntity
  8
0
  6
Continuous
 62
     7
100
AcDbLine
 10
1439.1877441919
 20
-743.6301348352999
 30
0.0
 11
1439.1877441919
 21
-642.6301348352999
 31
0.0
1001
ACAD
1000
RTMaterial
1005
0
  0
LINE
  5
369
330
24E
100
AcDbEntity
  8
0
  6
Continuous
 62
     7
100
AcDbLine
 10
1440.6877441919
 20
-750.8301348353
 30
0.0
 11
1440.6877441919
 21
-746.4301348353
 31
0.0
1001
ACAD
1000
RTMaterial
1005
0
  0
LINE
  5
36A
330
24E
100
AcDbEntity
  8
0
  6
Continuous
 62
     7
100
AcDbLine
 10
1418.6585084013
 20
-631.4301348353
 30
0.0
 11
987.7169799824999
 21
-631.4301348353
 31
0.0
1001
ACAD
1000
RTMaterial
1005
0
  0
LINE
  5
36B
330
24E
100
AcDbEntity
  8
0
  6
Continuous
 62
     7
100
AcDbLine
 10
986.9480719727
 20
-631.1301348352999
 30
0.0
 11
996.6877441919001
 21
-631.1301348352999
 31
0.0
1001
ACAD
1000
RTMaterial
1005
0
  0
LINE
  5
36C
330
24E
100
AcDbEntity
  8
0
  6
Continuous
 62
     7
100
AcDbLine
 10
1409.6877441919
 20
-631.1301348352999
 30
0.0
 11
1419.4274164111
 21
-631.1301348352999
 31
0.0
1001
ACAD
1000
RTMaterial
1005
0
  0
LINE
  5
36D
330
24E
100
AcDbEntity
  8
0
  6
Continuous
 62
     7
100
AcDbLine
 10
1440.3877441919
 20
-746.1301348352999
 30
0.0
 11
1440.6877441919
 21
-746.4301348353
 31
0.0
1001
ACAD
1000
RTMaterial
1005
0
  0
LINE
  5
36E
330
24E
100
AcDbEntity
  8
0
  6
Continuous
 62
     7
100
AcDbLine
 10
1425.5520659821
 20
-640.6301348352999
 30
0.0
 11
1419.7069524228
 21
-632.4469758522
 31
0.0
1001
ACAD
1000
RTMaterial
1005
0
  0
LINE
  5
36F
330
24E
100
AcDbEntity
  8
0
  6
Continuous
 62
     7
100
AcDbLine
 10
1420.2859753437
 20
-632.2676584477999
 30
0.0
 11
1426.2591727633
 21
-640.6301348352999
 31
0.0
1001
ACAD
1000
RTMaterial
1005
0
  0
LINE
  5
370
330
24E
100
AcDbEntity
  8
0
  6
Continuous
 62
     7
100
AcDbLine
 10
1421.0658802521
 20
-631.9832101465
 30
0.0
 11
1426.8715748164
 21
-640.277059524
 31
0.0
1001
ACAD
1000
RTMaterial
1005
0
  0
ARC
  5
371
330
24E
100
AcDbEntity
  8
0
  6
Continuous
 62
     7
100
AcDbCircle
 10
969.6877441918999
 20
-249.0580996166
 30
0.0
 40
4.0
100
AcDbArc
 50
180.0
 51
270.0
1001
ACAD
1000
RTMaterial
1005
0
  0
ARC
  5
372
330
24E
100
AcDbEntity
  8
0
  6
Continuous
 62
     7
100
AcDbCircle
 10
969.6877441918999
 20
-249.0580996166
 30
0.0
 40
3.7
100
AcDbArc
 50
180.0
 51
270.0
1001
ACAD
1000
RTMaterial
1005
0
  0
ARC
  5
373
330
24E
100
AcDbEntity
  8
0
  6
Continuous
 62
     7
100
AcDbCircle
 10
1014.6877441919
 20
-255.0580996166
 30
0.0
 40
2.0
100
AcDbArc
 50
270.0
 51
360.0
1001
ACAD
1000
RTMaterial
1005
0
  0
ARC
  5
374
330
24E
100
AcDbEntity
  8
0
  6
Continuous
 62
     7
100
AcDbCircle
 10
1060.6877441919
 20
-255.0580996166
 30
0.0
 40
2.0
100
AcDbArc
 50
180.0
 51
270.0
1001
ACAD
1000
RTMaterial
1005
0
  0
ARC
  5
375
330
24E
100
AcDbEntity
  8
0
  6
Continuous
 62
     7
100
AcDbCircle
 10
1067.6877441919
 20
-255.0580996166
 30
0.0
 40
2.0
100
AcDbArc
 50
270.0
 51
360.0
1001
ACAD
1000
RTMaterial
1005
0
  0
ARC
  5
376
330
24E
100
AcDbEntity
  8
0
  6
Continuous
 62
     7
100
AcDbCircle
 10
1083.1877441919
 20
18.9419003834
 30
0.0
 40
10.0
100
AcDbArc
 50
180.0
 51
270.0
1001
ACAD
1000
RTMaterial
1005
0
  0
ARC
  5
377
330
24E
100
AcDbEntity
  8
0
  6
Continuous
 62
     7
100
AcDbCircle
 10
1103.1877441919
 20
-243.0580996166
 30
0.0
 40
10.0
100
AcDbArc
 50
270.0
 51
360.0
1001
ACAD
1000
RTMaterial
1005
0
  0
ARC
  5
378
330
24E
100
AcDbEntity
  8
0
  6
Continuous
 62
     7
100
AcDbCircle
 10
1088.1713458528
 20
62.9270180418
 30
0.0
 40
7.3278553096
100
AcDbArc
 50
221.6660730094
 51
221.9186693968
1001
ACAD
1000
RTMaterial
1005
0
  0
ARC
  5
379
330
24E
100
AcDbEntity
  8
0
  6
Continuous
 62
     7
100
AcDbCircle
 10
1088.1681019325
 20
62.924105462
 30
0.0
 40
7.3234957063
100
AcDbArc
 50
221.9186690004
 51
222.1714155356
1001
ACAD
1000
RTMaterial
1005
0
  0
ARC
  5
37A
330
24E
100
AcDbEntity
  8
0
  6
Continuous
 62
     7
100
AcDbCircle
 10
1088.1867093827
 20
62.9337377433
 30
0.0
 40
7.3417764173
100
AcDbArc
 50
259.5056233666
 51
260.3805318516
1001
ACAD
1000
RTMaterial
1005
0
  0
ARC
  5
37B
330
24E
100
AcDbEntity
  8
0
  6
Continuous
 62
     7
100
AcDbCircle
 10
1088.1863291762
 20
62.93256894069999
 30
0.0
 40
7.340561901699999
100
AcDbArc
 50
260.2143232536
 51
261.2569882555
1001
ACAD
1000
RTMaterial
1005
0
  0
ARC
  5
37C
330
24E
100
AcDbEntity
  8
0
  6
Continuous
 62
     7
100
AcDbCircle
 10
1088.1845196363
 20
62.92080512560001
 30
0.0
 40
7.328659726199999
100
AcDbArc
 50
260.3805151837
 51
261.2569912256
1001
ACAD
1000
RTMaterial
1005
0
  0
CIRCLE
  5
37D
330
24E
100
AcDbEntity
  8
02___PRT_ALL_AXES
  6
Continuous
 62
     7
100
AcDbCircle
 10
1088.1877441919
 20
62.9419003834
 30
0.0
 40
7.5
1001
ACAD
1000
RTMaterial
1005
0
  0
ARC
  5
37E
330
24E
100
AcDbEntity
  8
0
  6
Continuous
 62
     7
100
AcDbCircle
 10
1088.1894554327
 20
62.9497931671
 30
0.0
 40
7.3580686859
100
AcDbArc
 50
257.7927217238
 51
258.0538751898
1001
ACAD
1000
RTMaterial
1005
0
  0
ARC
  5
37F
330
24E
100
AcDbEntity
  8
0
  6
Continuous
 62
     7
100
AcDbCircle
 10
1088.1893931478
 20
62.9494986679
 30
0.0
 40
7.3577676723
100
AcDbArc
 50
258.0538750105
 51
258.2859515262
1001
ACAD
1000
RTMaterial
1005
0
  0
ARC
  5
380
330
24E
100
AcDbEntity
  8
0
  6
Continuous
 62
     7
100
AcDbCircle
 10
1088.1893443889
 20
62.9492905912
 30
0.0
 40
7.357553993699999
100
AcDbArc
 50
256.609432454
 51
257.7927393527
1001
ACAD
1000
RTMaterial
1005
0
  0
ARC
  5
381
330
24E
100
AcDbEntity
  8
0
  6
Continuous
 62
     7
100
AcDbCircle
 10
1088.1929472229
 20
62.9472230588
 30
0.0
 40
7.357436021099999
100
AcDbArc
 50
224.6361308467
 51
225.6420658399
1001
ACAD
1000
RTMaterial
1005
0
  0
ARC
  5
382
330
24E
100
AcDbEntity
  8
0
  6
Continuous
 62
     7
100
AcDbCircle
 10
1088.1927437867
 20
62.94700704090001
 30
0.0
 40
7.357139341199999
100
AcDbArc
 50
225.6420224434
 51
227.0042185097
1001
ACAD
1000
RTMaterial
1005
0
  0
ARC
  5
383
330
24E
100
AcDbEntity
  8
0
  6
Continuous
 62
     7
100
AcDbCircle
 10
1088.1891282894
 20
62.9482100428
 30
0.0
 40
7.356452111799999
100
AcDbArc
 50
258.2859337374
 51
259.0338725994
1001
ACAD
1000
RTMaterial
1005
0
  0
ARC
  5
384
330
24E
100
AcDbEntity
  8
0
  6
Continuous
 62
     7
100
AcDbCircle
 10
1088.1897474071
 20
62.94615406630001
 30
0.0
 40
7.3546968559
100
AcDbArc
 50
242.2606800394
 51
246.4943169946
1001
ACAD
1000
RTMaterial
1005
0
  0
ARC
  5
385
330
24E
100
AcDbEntity
  8
0
  6
Continuous
 62
     7
100
AcDbCircle
 10
1088.1902081777
 20
62.94588619529999
 30
0.0
 40
7.3546817925
100
AcDbArc
 50
237.8718645495
 51
238.6966311144
1001
ACAD
1000
RTMaterial
1005
0
  0
ARC
  5
386
330
24E
100
AcDbEntity
  8
0
  6
Continuous
 62
     7
100
AcDbCircle
 10
1088.1899853345
 20
62.94553063729999
 30
0.0
 40
7.354262173099999
100
AcDbArc
 50
237.4697895981
 51
237.8718616375
1001
ACAD
1000
RTMaterial
1005
0
  0
ARC
  5
387
330
24E
100
AcDbEntity
  8
0
  6
Continuous
 62
     7
100
AcDbCircle
 10
1088.188551897
 20
62.94594683119999
 30
0.0
 40
7.354117605599999
100
AcDbArc
 50
255.9892888449001
 51
256.6094057576
1001
ACAD
1000
RTMaterial
1005
0
  0
ARC
  5
388
330
24E
100
AcDbEntity
  8
0
  6
Continuous
 62
     7
100
AcDbCircle
 10
1088.1895857847
 20
62.944858721
 30
0.0
 40
7.353480513099999
100
AcDbArc
 50
238.6966151100999
 51
239.8625197122
1001
ACAD
1000
RTMaterial
1005
0
  0
ARC
  5
389
330
24E
100
AcDbEntity
  8
0
  6
Continuous
 62
     7
100
AcDbCircle
 10
1088.1895548022
 20
62.943884078
 30
0.0
 40
7.3526760575
100
AcDbArc
 50
223.4064538979
 51
224.6361897493
1001
ACAD
1000
RTMaterial
1005
0
  0
ARC
  5
38A
330
24E
100
AcDbEntity
  8
0
  6
Continuous
 62
     7
100
AcDbCircle
 10
1088.1883969651
 20
62.9437860843
 30
0.0
 40
7.351995248699999
100
AcDbArc
 50
250.0743864141
 51
252.0594083896
1001
ACAD
1000
RTMaterial
1005
0
  0
ARC
  5
38B
330
24E
100
AcDbEntity
  8
0
  6
Continuous
 62
     7
100
AcDbCircle
 10
1088.1887040374
 20
62.94315166189999
 30
0.0
 40
7.3515768109
100
AcDbArc
 50
231.6249660419
 51
233.8890721916
1001
ACAD
1000
RTMaterial
1005
0
  0
ARC
  5
38C
330
24E
100
AcDbEntity
  8
0
  6
Continuous
 62
     7
100
AcDbCircle
 10
1088.1885146577
 20
62.94291253939999
 30
0.0
 40
7.3512717794
100
AcDbArc
 50
231.3353444473
 51
231.6249661832
1001
ACAD
1000
RTMaterial
1005
0
  0
ARC
  5
38D
330
24E
100
AcDbEntity
  8
0
  6
Continuous
 62
     7
100
AcDbCircle
 10
1088.1881258569
 20
62.94298681449999
 30
0.0
 40
7.351133569299999
100
AcDbArc
 50
259.0337987135
 51
260.2143241495
1001
ACAD
1000
RTMaterial
1005
0
  0
ARC
  5
38E
330
24E
100
AcDbEntity
  8
0
  6
Continuous
 62
     7
100
AcDbCircle
 10
1088.1878194539
 20
62.9430016886
 30
0.0
 40
7.3510827527
100
AcDbArc
 50
255.6726722232
 51
255.9892703301
1001
ACAD
1000
RTMaterial
1005
0
  0
ARC
  5
38F
330
24E
100
AcDbEntity
  8
0
  6
Continuous
 62
     7
100
AcDbCircle
 10
1088.1883125182
 20
62.9426775218
 30
0.0
 40
7.350954884199999
100
AcDbArc
 50
239.8625666451
 51
240.2045540635
1001
ACAD
1000
RTMaterial
1005
0
  0
ARC
  5
390
330
24E
100
AcDbEntity
  8
0
  6
Continuous
 62
     7
100
AcDbCircle
 10
1088.1878978826
 20
62.9422401623
 30
0.0
 40
7.3503654321
100
AcDbArc
 50
234.0009097564
 51
237.4697156517
1001
ACAD
1000
RTMaterial
1005
0
  0
ARC
  5
391
330
24E
100
AcDbEntity
  8
0
  6
Continuous
 62
     7
100
AcDbCircle
 10
1088.1878381694
 20
62.9422151306
 30
0.0
 40
7.3503279013
100
AcDbArc
 50
249.7158378427
 51
250.0743081761
1001
ACAD
1000
RTMaterial
1005
0
  0
ARC
  5
392
330
24E
100
AcDbEntity
  8
0
  6
Continuous
 62
     7
100
AcDbCircle
 10
1088.1879110235
 20
62.9420298881
 30
0.0
 40
7.350182476699999
100
AcDbArc
 50
246.4946218949
 51
247.7009449777
1001
ACAD
1000
RTMaterial
1005
0
  0
ARC
  5
393
330
24E
100
AcDbEntity
  8
0
  6
Continuous
 62
     7
100
AcDbCircle
 10
1088.1881594504
 20
62.94162459439999
 30
0.0
 40
7.349795457299999
100
AcDbArc
 50
259.0520563967
 51
259.5057067109999
1001
ACAD
1000
RTMaterial
1005
0
  0
ARC
  5
394
330
24E
100
AcDbEntity
  8
0
  6
Continuous
 62
     7
100
AcDbCircle
 10
1088.187320166
 20
62.94142943979999
 30
0.0
 40
7.3493674795
100
AcDbArc
 50
229.745104347
 51
231.3353919656
1001
ACAD
1000
RTMaterial
1005
0
  0
ARC
  5
395
330
24E
100
AcDbEntity
  8
0
  6
Continuous
 62
     7
100
AcDbCircle
 10
1088.1872831691
 20
62.940877195
 30
0.0
 40
7.348881062999999
100
AcDbArc
 50
240.2045437947
 51
240.7536174449
1001
ACAD
1000
RTMaterial
1005
0
  0
ARC
  5
396
330
24E
100
AcDbEntity
  8
0
  6
Continuous
 62
     7
100
AcDbCircle
 10
1088.1871212149
 20
62.9402872483
 30
0.0
 40
7.348271025899999
100
AcDbArc
 50
248.6251711952
 51
249.7158701326
1001
ACAD
1000
RTMaterial
1005
0
  0
ARC
  5
397
330
24E
100
AcDbEntity
  8
0
  6
Continuous
 62
     7
100
AcDbCircle
 10
1088.1871911088
 20
62.94016459649999
 30
0.0
 40
7.34817841
100
AcDbArc
 50
252.0596555146
 51
255.6719449871
1001
ACAD
1000
RTMaterial
1005
0
  0
ARC
  5
398
330
24E
100
AcDbEntity
  8
0
  6
Continuous
 62
     7
100
AcDbCircle
 10
1088.186152423999
 20
62.93990713479999
 30
0.0
 40
7.347451498499999
100
AcDbArc
 50
227.0040563606
 51
229.4335471344
1001
ACAD
1000
RTMaterial
1005
0
  0
ARC
  5
399
330
24E
100
AcDbEntity
  8
0
  6
Continuous
 62
     7
100
AcDbCircle
 10
1088.1848341443
 20
62.93846939899999
 30
0.0
 40
7.3455020034
100
AcDbArc
 50
229.4340653125
 51
229.7449836703
1001
ACAD
1000
RTMaterial
1005
0
  0
ARC
  5
39A
330
24E
100
AcDbEntity
  8
0
  6
Continuous
 62
     7
100
AcDbCircle
 10
1088.1860688078
 20
62.9375604778
 30
0.0
 40
7.345348291299999
100
AcDbArc
 50
247.8106661128
 51
248.1049954142
1001
ACAD
1000
RTMaterial
1005
0
  0
ARC
  5
39B
330
24E
100
AcDbEntity
  8
0
  6
Continuous
 62
     7
100
AcDbCircle
 10
1088.1858685084
 20
62.9370692984
 30
0.0
 40
7.3448178483
100
AcDbArc
 50
248.1050163781
 51
248.6251220609
1001
ACAD
1000
RTMaterial
1005
0
  0
ARC
  5
39C
330
24E
100
AcDbEntity
  8
0
  6
Continuous
 62
     7
100
AcDbCircle
 10
1088.1837912519
 20
62.9379823439
 30
0.0
 40
7.3444413587
100
AcDbArc
 50
219.642489485
 51
221.6654265243
1001
ACAD
1000
RTMaterial
1005
0
  0
ARC
  5
39D
330
24E
100
AcDbEntity
  8
0
  6
Continuous
 62
     7
100
AcDbCircle
 10
1088.1849745101
 20
62.9367407758
 30
0.0
 40
7.3441439935
100
AcDbArc
 50
240.7535663646
 51
241.792392902
1001
ACAD
1000
RTMaterial
1005
0
  0
ARC
  5
39E
330
24E
100
AcDbEntity
  8
0
  6
Continuous
 62
     7
100
AcDbCircle
 10
1088.1845958477
 20
62.93606476499999
 30
0.0
 40
7.343369283799999
100
AcDbArc
 50
241.7925034163999
 51
242.2596146451
1001
ACAD
1000
RTMaterial
1005
0
  0
ARC
  5
39F
330
24E
100
AcDbEntity
  8
0
  6
Continuous
 62
     7
100
AcDbCircle
 10
1088.1816742992
 20
62.93643856439999
 30
0.0
 40
7.3418345648
100
AcDbArc
 50
222.1716397443
 51
223.4065014622
1001
ACAD
1000
RTMaterial
1005
0
  0
ARC
  5
3A0
330
24E
100
AcDbEntity
  8
0
  6
Continuous
 62
     7
100
AcDbCircle
 10
1088.1877441919
 20
62.9419003834
 30
0.0
 40
6.4
100
AcDbArc
 50
188.8225230501
 51
180.0
1001
ACAD
1000
RTMaterial
1005
0
  0
ARC
  5
3A1
330
24E
100
AcDbEntity
  8
0
  6
Continuous
 62
     7
100
AcDbCircle
 10
1088.1877441919
 20
63.3718597282
 30
0.0
 40
15.0
100
AcDbArc
 50
120.5182306789
 51
180.0
1001
ACAD
1000
RTMaterial
1005
0
  0
ARC
  5
3A2
330
24E
100
AcDbEntity
  8
0
  6
Continuous
 62
     7
100
AcDbCircle
 10
1088.4767849541
 20
62.5567187847
 30
0.0
 40
7.321347811499999
100
AcDbArc
 50
216.9411801837
 51
218.0389138404
1001
ACAD
1000
RTMaterial
1005
0
  0
ARC
  5
3A3
330
24E
100
AcDbEntity
  8
0
  6
Continuous
 62
     7
100
AcDbCircle
 10
1088.4752461709
 20
62.55552070930001
 30
0.0
 40
7.319397627599999
100
AcDbArc
 50
218.0389498316
 51
218.2245409038
1001
ACAD
1000
RTMaterial
1005
0
  0
ARC
  5
3A4
330
24E
100
AcDbEntity
  8
0
  6
Continuous
 62
     7
100
AcDbCircle
 10
1088.4745482883
 20
62.5549709976
 30
0.0
 40
7.318509245299999
100
AcDbArc
 50
218.2245406078
 51
218.4162388197
1001
ACAD
1000
RTMaterial
1005
0
  0
ARC
  5
3A5
330
24E
100
AcDbEntity
  8
0
  6
Continuous
 62
     7
100
AcDbCircle
 10
1103.1877441919
 20
-1.0580996166
 30
0.0
 40
10.0
100
AcDbArc
 50
0.0
 51
90.0
1001
ACAD
1000
RTMaterial
1005
0
  0
ARC
  5
3A6
330
24E
100
AcDbEntity
  8
0
  6
Continuous
 62
     7
100
AcDbCircle
 10
1168.4179934417
 20
44.69428647229999
 30
0.0
 40
101.4820521914
100
AcDbArc
 50
45.391758375
 51
45.795185085
1001
ACAD
1000
RTMaterial
1005
0
  0
ARC
  5
3A7
330
24E
100
AcDbEntity
  8
0
  6
Continuous
 62
     7
100
AcDbCircle
 10
1168.4179934417
 20
48.69428647229999
 30
0.0
 40
101.4820521914
100
AcDbArc
 50
45.391758375
 51
45.795185085
1001
ACAD
1000
RTMaterial
1005
0
  0
ARC
  5
3A8
330
24E
100
AcDbEntity
  8
0
  6
Continuous
 62
     7
100
AcDbCircle
 10
1168.4179934443
 20
52.69428647499999
 30
0.0
 40
101.4820521877
100
AcDbArc
 50
45.3917583749
 51
45.795185085
1001
ACAD
1000
RTMaterial
1005
0
  0
ARC
  5
3A9
330
24E
100
AcDbEntity
  8
06___PRT_ALL_SURFS
  6
Continuous
 62
     7
100
AcDbCircle
 10
1203.1732558153
 20
78.9373425758
 30
0.0
 40
25.9954462299
100
AcDbArc
 50
270.0319333958
 51
280.3073942564
1001
ACAD
1000
RTMaterial
1005
0
  0
ARC
  5
3AA
330
24E
100
AcDbEntity
  8
06___PRT_ALL_SURFS
  6
Continuous
 62
     7
100
AcDbCircle
 10
1203.1737804441
 20
78.9534233506
 30
0.0
 40
25.9884807842
100
AcDbArc
 50
79.8891439586
 51
89.9692146741
1001
ACAD
1000
RTMaterial
1005
0
  0
ARC
  5
3AB
330
24E
100
AcDbEntity
  8
0
  6
Continuous
 62
     7
100
AcDbCircle
 10
1168.4179829955
 20
192.1895356759
 30
0.0
 40
101.482074802
100
AcDbArc
 50
314.2048107262
 51
314.6082373767
1001
ACAD
1000
RTMaterial
1005
0
  0
ARC
  5
3AC
330
24E
100
AcDbEntity
  8
0
  6
Continuous
 62
     7
100
AcDbCircle
 10
1168.4179830061
 20
188.189535665
 30
0.0
 40
101.4820747868
100
AcDbArc
 50
314.2048107262
 51
314.6082373767
1001
ACAD
1000
RTMaterial
1005
0
  0
ARC
  5
3AD
330
24E
100
AcDbEntity
  8
0
  6
Continuous
 62
     7
100
AcDbCircle
 10
1168.4179830061
 20
196.189535665
 30
0.0
 40
101.4820747868
100
AcDbArc
 50
314.2048107262
 51
314.6082373767
1001
ACAD
1000
RTMaterial
1005
0
  0
ARC
  5
3AE
330
24E
100
AcDbEntity
  8
0
  6
Continuous
 62
     7
100
AcDbCircle
 10
1172.2797774464
 20
112.9419003834
 30
0.0
 40
15.0
100
AcDbArc
 50
90.0
 51
120.5182306789
1001
ACAD
1000
RTMaterial
1005
0
  0
ARC
  5
3AF
330
24E
100
AcDbEntity
  8
0
  6
Continuous
 62
     7
100
AcDbCircle
 10
1169.5000945681
 20
115.2326860046
 30
0.0
 40
0.209607012
100
AcDbArc
 50
23.1291341184
 51
37.1940488211
1001
ACAD
1000
RTMaterial
1005
0
  0
ARC
  5
3B0
330
24E
100
AcDbEntity
  8
0
  6
Continuous
 62
     7
100
AcDbCircle
 10
1179.9877441919
 20
111.6419003834
 30
0.0
 40
0.2
100
AcDbArc
 50
0.0
 51
89.9999999999
1001
ACAD
1000
RTMaterial
1005
0
  0
ARC
  5
3B1
330
24E
100
AcDbEntity
  8
0
  6
Continuous
 62
     7
100
AcDbCircle
 10
1179.9877441919
 20
110.2419003834
 30
0.0
 40
0.2
100
AcDbArc
 50
270.0000000001
 51
360.0
1001
ACAD
1000
RTMaterial
1005
0
  0
ARC
  5
3B2
330
24E
100
AcDbEntity
  8
0
  6
Continuous
 62
     7
100
AcDbCircle
 10
1169.4915315586
 20
113.6418445604
 30
0.0
 40
0.1999441921
100
AcDbArc
 50
269.9776587839
 51
0.01599659
1001
ACAD
1000
RTMaterial
1005
0
  0
ARC
  5
3B3
330
24E
100
AcDbEntity
  8
0
  6
Continuous
 62
     7
100
AcDbCircle
 10
969.6877441918999
 20
737.9419003833999
 30
0.0
 40
4.0
100
AcDbArc
 50
90.0
 51
180.0
1001
ACAD
1000
RTMaterial
1005
0
  0
ARC
  5
3B4
330
24E
100
AcDbEntity
  8
0
  6
Continuous
 62
     7
100
AcDbCircle
 10
969.6877441918999
 20
737.9419003833999
 30
0.0
 40
3.7
100
AcDbArc
 50
90.0
 51
180.0
1001
ACAD
1000
RTMaterial
1005
0
  0
ARC
  5
3B5
330
24E
100
AcDbEntity
  8
0
  6
Continuous
 62
     7
100
AcDbCircle
 10
1303.1877441919
 20
-243.0580996166
 30
0.0
 40
10.0
100
AcDbArc
 50
180.0
 51
270.0
1001
ACAD
1000
RTMaterial
1005
0
  0
ARC
  5
3B6
330
24E
100
AcDbEntity
  8
0
  6
Continuous
 62
     7
100
AcDbCircle
 10
1237.9575053789
 20
52.6942651006
 30
0.0
 40
101.4820747886
100
AcDbArc
 50
134.2048107262
 51
134.6082373767
1001
ACAD
1000
RTMaterial
1005
0
  0
ARC
  5
3B7
330
24E
100
AcDbEntity
  8
0
  6
Continuous
 62
     7
100
AcDbCircle
 10
1237.9575053777
 20
44.69426510189999
 30
0.0
 40
101.4820747868
100
AcDbArc
 50
134.2048107262
 51
134.6082373767
1001
ACAD
1000
RTMaterial
1005
0
  0
ARC
  5
3B8
330
24E
100
AcDbEntity
  8
0
  6
Continuous
 62
     7
100
AcDbCircle
 10
1237.9575053777
 20
48.69426510189999
 30
0.0
 40
101.4820747868
100
AcDbArc
 50
134.2048107262
 51
134.6082373767
1001
ACAD
1000
RTMaterial
1005
0
  0
CIRCLE
  5
3B9
330
24E
100
AcDbEntity
  8
0
  6
Continuous
 62
     7
100
AcDbCircle
 10
1203.1877441919
 20
78.94190038339999
 30
0.0
 40
29.5
1001
ACAD
1000
RTMaterial
1005
0
  0
ARC
  5
3BA
330
24E
100
AcDbEntity
  8
06___PRT_ALL_SURFS
  6
Continuous
 62
     7
100
AcDbCircle
 10
1203.2022325685
 20
78.94645819109999
 30
0.0
 40
25.9954462299
100
AcDbArc
 50
90.03193339579999
 51
100.3073942564
1001
ACAD
1000
RTMaterial
1005
0
  0
ARC
  5
3BB
330
24E
100
AcDbEntity
  8
06___PRT_ALL_SURFS
  6
Continuous
 62
     7
100
AcDbCircle
 10
1203.2017079397
 20
78.9303774162
 30
0.0
 40
25.9884807842
100
AcDbArc
 50
259.8891439587
 51
269.9692146741
1001
ACAD
1000
RTMaterial
1005
0
  0
CIRCLE
  5
3BC
330
24E
100
AcDbEntity
  8
02___PRT_ALL_AXES
  6
Continuous
 62
     7
100
AcDbCircle
 10
1203.1877441919
 20
78.94190038339999
 30
0.0
 40
20.75
1001
ACAD
1000
RTMaterial
1005
0
  0
ARC
  5
3BD
330
24E
100
AcDbEntity
  8
0
  6
Continuous
 62
     7
100
AcDbCircle
 10
1237.9574949427
 20
192.1895142952
 30
0.0
 40
101.4820521923
100
AcDbArc
 50
225.391758375
 51
225.795185085
1001
ACAD
1000
RTMaterial
1005
0
  0
ARC
  5
3BE
330
24E
100
AcDbEntity
  8
0
  6
Continuous
 62
     7
100
AcDbCircle
 10
1237.957494942
 20
188.1895142946
 30
0.0
 40
101.4820521914
100
AcDbArc
 50
225.391758375
 51
225.795185085
1001
ACAD
1000
RTMaterial
1005
0
  0
ARC
  5
3BF
330
24E
100
AcDbEntity
  8
0
  6
Continuous
 62
     7
100
AcDbCircle
 10
1237.9574949395
 20
196.1895142919
 30
0.0
 40
101.4820521877
100
AcDbArc
 50
225.3917583749
 51
225.795185085
1001
ACAD
1000
RTMaterial
1005
0
  0
ARC
  5
3C0
330
24E
100
AcDbEntity
  8
0
  6
Continuous
 62
     7
100
AcDbCircle
 10
1234.0957109374
 20
112.9419003834
 30
0.0
 40
15.0
100
AcDbArc
 50
59.48176932109999
 51
90.0
1001
ACAD
1000
RTMaterial
1005
0
  0
ARC
  5
3C1
330
24E
100
AcDbEntity
  8
0
  6
Continuous
 62
     7
100
AcDbCircle
 10
1204.1877441919
 20
114.4419003834
 30
0.0
 40
1.0
100
AcDbArc
 50
314.9452045982
 51
360.0
1001
ACAD
1000
RTMaterial
1005
0
  0
ARC
  5
3C2
330
24E
100
AcDbEntity
  8
0
  6
Continuous
 62
     7
100
AcDbCircle
 10
1226.3877441919
 20
110.2419003834
 30
0.0
 40
0.2
100
AcDbArc
 50
180.0
 51
270.0000000001
1001
ACAD
1000
RTMaterial
1005
0
  0
ARC
  5
3C3
330
24E
100
AcDbEntity
  8
0
  6
Continuous
 62
     7
100
AcDbCircle
 10
1226.3877441919
 20
111.6419003834
 30
0.0
 40
0.2
100
AcDbArc
 50
89.9999999999
 51
180.0
1001
ACAD
1000
RTMaterial
1005
0
  0
ARC
  5
3C4
330
24E
100
AcDbEntity
  8
0
  6
Continuous
 62
     7
100
AcDbCircle
 10
1236.8839568251
 20
113.6418445604
 30
0.0
 40
0.1999441921
100
AcDbArc
 50
179.98400341
 51
270.0223412161
1001
ACAD
1000
RTMaterial
1005
0
  0
ARC
  5
3C5
330
24E
100
AcDbEntity
  8
0
  6
Continuous
 62
     7
100
AcDbCircle
 10
1303.1877441919
 20
-1.0580996166
 30
0.0
 40
10.0
100
AcDbArc
 50
90.0
 51
180.0
1001
ACAD
1000
RTMaterial
1005
0
  0
ARC
  5
3C6
330
24E
100
AcDbEntity
  8
0
  6
Continuous
 62
     7
100
AcDbCircle
 10
1318.1713458367
 20
62.92701802739999
 30
0.0
 40
7.327855287899999
100
AcDbArc
 50
221.6660730086
 51
221.9186693967
1001
ACAD
1000
RTMaterial
1005
0
  0
ARC
  5
3C7
330
24E
100
AcDbEntity
  8
0
  6
Continuous
 62
     7
100
AcDbCircle
 10
1318.1681019146
 20
62.924105446
 30
0.0
 40
7.323495682299999
100
AcDbArc
 50
221.9186690005
 51
222.1714155366
1001
ACAD
1000
RTMaterial
1005
0
  0
ARC
  5
3C8
330
24E
100
AcDbEntity
  8
0
  6
Continuous
 62
     7
100
AcDbCircle
 10
1318.1867093829
 20
62.9337377444
 30
0.0
 40
7.3417764184
100
AcDbArc
 50
259.5056233666
 51
260.3805318515
1001
ACAD
1000
RTMaterial
1005
0
  0
ARC
  5
3C9
330
24E
100
AcDbEntity
  8
0
  6
Continuous
 62
     7
100
AcDbCircle
 10
1318.1863291763
 20
62.932568941
 30
0.0
 40
7.340561902
100
AcDbArc
 50
260.2143232536
 51
261.2569882555
1001
ACAD
1000
RTMaterial
1005
0
  0
ARC
  5
3CA
330
24E
100
AcDbEntity
  8
0
  6
Continuous
 62
     7
100
AcDbCircle
 10
1318.184519636
 20
62.9208051239
 30
0.0
 40
7.3286597245
100
AcDbArc
 50
260.3805151836
 51
261.2569912257
1001
ACAD
1000
RTMaterial
1005
0
  0
CIRCLE
  5
3CB
330
24E
100
AcDbEntity
  8
02___PRT_ALL_AXES
  6
Continuous
 62
     7
100
AcDbCircle
 10
1318.1877441919
 20
62.9419003834
 30
0.0
 40
7.5
1001
ACAD
1000
RTMaterial
1005
0
  0
ARC
  5
3CC
330
24E
100
AcDbEntity
  8
0
  6
Continuous
 62
     7
100
AcDbCircle
 10
1318.1894554287
 20
62.94979314829999
 30
0.0
 40
7.358068666699999
100
AcDbArc
 50
257.7927217234
 51
258.0538751901
1001
ACAD
1000
RTMaterial
1005
0
  0
ARC
  5
3CD
330
24E
100
AcDbEntity
  8
0
  6
Continuous
 62
     7
100
AcDbCircle
 10
1318.1893931471
 20
62.9494986643
 30
0.0
 40
7.3577676686
100
AcDbArc
 50
258.0538750105
 51
258.2859515263
1001
ACAD
1000
RTMaterial
1005
0
  0
ARC
  5
3CE
330
24E
100
AcDbEntity
  8
0
  6
Continuous
 62
     7
100
AcDbCircle
 10
1318.189344389
 20
62.9492905917
 30
0.0
 40
7.357553994199999
100
AcDbArc
 50
256.6094324541
 51
257.7927393527
1001
ACAD
1000
RTMaterial
1005
0
  0
ARC
  5
3CF
330
24E
100
AcDbEntity
  8
0
  6
Continuous
 62
     7
100
AcDbCircle
 10
1318.1929472206
 20
62.94722305649999
 30
0.0
 40
7.357436017899999
100
AcDbArc
 50
224.6361308464
 51
225.6420658401
1001
ACAD
1000
RTMaterial
1005
0
  0
ARC
  5
3D0
330
24E
100
AcDbEntity
  8
0
  6
Continuous
 62
     7
100
AcDbCircle
 10
1318.1927437874
 20
62.9470070416
 30
0.0
 40
7.357139342199999
100
AcDbArc
 50
225.6420224435
 51
227.0042185096
1001
ACAD
1000
RTMaterial
1005
0
  0
ARC
  5
3D1
330
24E
100
AcDbEntity
  8
0
  6
Continuous
 62
     7
100
AcDbCircle
 10
1318.1891282897
 20
62.94821004390001
 30
0.0
 40
7.356452112899999
100
AcDbArc
 50
258.2859337375
 51
259.0338725993
1001
ACAD
1000
RTMaterial
1005
0
  0
ARC
  5
3D2
330
24E
100
AcDbEntity
  8
0
  6
Continuous
 62
     7
100
AcDbCircle
 10
1318.1897474071
 20
62.94615406640001
 30
0.0
 40
7.3546968561
100
AcDbArc
 50
242.2606800394
 51
246.4943169946
1001
ACAD
1000
RTMaterial
1005
0
  0
ARC
  5
3D3
330
24E
100
AcDbEntity
  8
0
  6
Continuous
 62
     7
100
AcDbCircle
 10
1318.1902081782
 20
62.9458861962
 30
0.0
 40
7.3546817936
100
AcDbArc
 50
237.8718645495
 51
238.6966311143
1001
ACAD
1000
RTMaterial
1005
0
  0
ARC
  5
3D4
330
24E
100
AcDbEntity
  8
0
  6
Continuous
 62
     7
100
AcDbCircle
 10
1318.1899853434
 20
62.9455306512
 30
0.0
 40
7.354262189599999
100
AcDbArc
 50
237.4697895986
 51
237.8718616371
1001
ACAD
1000
RTMaterial
1005
0
  0
ARC
  5
3D5
330
24E
100
AcDbEntity
  8
0
  6
Continuous
 62
     7
100
AcDbCircle
 10
1318.1885518972
 20
62.9459468321
 30
0.0
 40
7.3541176065
100
AcDbArc
 50
255.9892888448
 51
256.6094057575
1001
ACAD
1000
RTMaterial
1005
0
  0
ARC
  5
3D6
330
24E
100
AcDbEntity
  8
0
  6
Continuous
 62
     7
100
AcDbCircle
 10
1318.189585785
 20
62.9448587214
 30
0.0
 40
7.3534805136
100
AcDbArc
 50
238.6966151102
 51
239.8625197123
1001
ACAD
1000
RTMaterial
1005
0
  0
ARC
  5
3D7
330
24E
100
AcDbEntity
  8
0
  6
Continuous
 62
     7
100
AcDbCircle
 10
1318.1895548005
 20
62.9438840763
 30
0.0
 40
7.352676055099999
100
AcDbArc
 50
223.4064538978
 51
224.6361897496
1001
ACAD
1000
RTMaterial
1005
0
  0
ARC
  5
3D8
330
24E
100
AcDbEntity
  8
0
  6
Continuous
 62
     7
100
AcDbCircle
 10
1318.188396965
 20
62.9437860842
 30
0.0
 40
7.351995248599999
100
AcDbArc
 50
250.0743864141
 51
252.0594083896
1001
ACAD
1000
RTMaterial
1005
0
  0
ARC
  5
3D9
330
24E
100
AcDbEntity
  8
0
  6
Continuous
 62
     7
100
AcDbCircle
 10
1318.1887040401
 20
62.9431516655
 30
0.0
 40
7.351576815399999
100
AcDbArc
 50
231.624966042
 51
233.8890721916
1001
ACAD
1000
RTMaterial
1005
0
  0
ARC
  5
3DA
330
24E
100
AcDbEntity
  8
0
  6
Continuous
 62
     7
100
AcDbCircle
 10
1318.1885146798
 20
62.94291256720001
 30
0.0
 40
7.3512718149
100
AcDbArc
 50
231.3353444481
 51
231.6249661826
1001
ACAD
1000
RTMaterial
1005
0
  0
ARC
  5
3DB
330
24E
100
AcDbEntity
  8
0
  6
Continuous
 62
     7
100
AcDbCircle
 10
1318.1881258568
 20
62.9429868139
 30
0.0
 40
7.351133568699999
100
AcDbArc
 50
259.0337987134
 51
260.2143241496
1001
ACAD
1000
RTMaterial
1005
0
  0
ARC
  5
3DC
330
24E
100
AcDbEntity
  8
0
  6
Continuous
 62
     7
100
AcDbCircle
 10
1318.1878194515
 20
62.9430016791
 30
0.0
 40
7.351082742899999
100
AcDbArc
 50
255.6726722232
 51
255.9892703305
1001
ACAD
1000
RTMaterial
1005
0
  0
ARC
  5
3DD
330
24E
100
AcDbEntity
  8
0
  6
Continuous
 62
     7
100
AcDbCircle
 10
1318.1883125153
 20
62.9426775168
 30
0.0
 40
7.3509548785
100
AcDbArc
 50
239.8625666447999
 51
240.2045540634
1001
ACAD
1000
RTMaterial
1005
0
  0
ARC
  5
3DE
330
24E
100
AcDbEntity
  8
0
  6
Continuous
 62
     7
100
AcDbCircle
 10
1318.1878978827
 20
62.9422401624
 30
0.0
 40
7.3503654322
100
AcDbArc
 50
234.0009097564
 51
237.4697156516
1001
ACAD
1000
RTMaterial
1005
0
  0
ARC
  5
3DF
330
24E
100
AcDbEntity
  8
0
  6
Continuous
 62
     7
100
AcDbCircle
 10
1318.1878381642
 20
62.94221511629999
 30
0.0
 40
7.3503278861
100
AcDbArc
 50
249.7158378423
 51
250.0743081763999
1001
ACAD
1000
RTMaterial
1005
0
  0
ARC
  5
3E0
330
24E
100
AcDbEntity
  8
0
  6
Continuous
 62
     7
100
AcDbCircle
 10
1318.1879110235
 20
62.942029888
 30
0.0
 40
7.350182476599999
100
AcDbArc
 50
246.494621895
 51
247.7009449777
1001
ACAD
1000
RTMaterial
1005
0
  0
ARC
  5
3E1
330
24E
100
AcDbEntity
  8
0
  6
Continuous
 62
     7
100
AcDbCircle
 10
1318.1881594502
 20
62.9416245934
 30
0.0
 40
7.349795456299999
100
AcDbArc
 50
259.0520563966
 51
259.5057067109999
1001
ACAD
1000
RTMaterial
1005
0
  0
ARC
  5
3E2
330
24E
100
AcDbEntity
  8
0
  6
Continuous
 62
     7
100
AcDbCircle
 10
1318.187320167
 20
62.941429441
 30
0.0
 40
7.349367481099999
100
AcDbArc
 50
229.7451043471
 51
231.3353919654
1001
ACAD
1000
RTMaterial
1005
0
  0
ARC
  5
3E3
330
24E
100
AcDbEntity
  8
0
  6
Continuous
 62
     7
100
AcDbCircle
 10
1318.1872831714
 20
62.9408771992
 30
0.0
 40
7.348881067799999
100
AcDbArc
 50
240.204543795
 51
240.7536174449
1001
ACAD
1000
RTMaterial
1005
0
  0
ARC
  5
3E4
330
24E
100
AcDbEntity
  8
0
  6
Continuous
 62
     7
100
AcDbCircle
 10
1318.1871212142
 20
62.9402872467
 30
0.0
 40
7.348271024099999
100
AcDbArc
 50
248.625171195
 51
249.7158701327
1001
ACAD
1000
RTMaterial
1005
0
  0
ARC
  5
3E5
330
24E
100
AcDbEntity
  8
0
  6
Continuous
 62
     7
100
AcDbCircle
 10
1318.1871911088
 20
62.94016459659999
 30
0.0
 40
7.34817841
100
AcDbArc
 50
252.0596555146
 51
255.6719449871
1001
ACAD
1000
RTMaterial
1005
0
  0
ARC
  5
3E6
330
24E
100
AcDbEntity
  8
0
  6
Continuous
 62
     7
100
AcDbCircle
 10
1318.1861524239
 20
62.9399071346
 30
0.0
 40
7.3474514983
100
AcDbArc
 50
227.0040563606
 51
229.4335471345
1001
ACAD
1000
RTMaterial
1005
0
  0
ARC
  5
3E7
330
24E
100
AcDbEntity
  8
0
  6
Continuous
 62
     7
100
AcDbCircle
 10
1318.1848341006
 20
62.93846934760001
 30
0.0
 40
7.345501936
100
AcDbArc
 50
229.4340653109
 51
229.7449836715
1001
ACAD
1000
RTMaterial
1005
0
  0
ARC
  5
3E8
330
24E
100
AcDbEntity
  8
0
  6
Continuous
 62
     7
100
AcDbCircle
 10
1318.1860688076
 20
62.9375604772
 30
0.0
 40
7.3453482907
100
AcDbArc
 50
247.8106661128
 51
248.1049954143
1001
ACAD
1000
RTMaterial
1005
0
  0
ARC
  5
3E9
330
24E
100
AcDbEntity
  8
0
  6
Continuous
 62
     7
100
AcDbCircle
 10
1318.1858685074
 20
62.9370692958
 30
0.0
 40
7.344817845499999
100
AcDbArc
 50
248.1050163779
 51
248.625122061
1001
ACAD
1000
RTMaterial
1005
0
  0
ARC
  5
3EA
330
24E
100
AcDbEntity
  8
0
  6
Continuous
 62
     7
100
AcDbCircle
 10
1318.1837912521
 20
62.9379823441
 30
0.0
 40
7.344441359099999
100
AcDbArc
 50
219.642489485
 51
221.6654265243
1001
ACAD
1000
RTMaterial
1005
0
  0
ARC
  5
3EB
330
24E
100
AcDbEntity
  8
0
  6
Continuous
 62
     7
100
AcDbCircle
 10
1318.1849745099
 20
62.93674077560001
 30
0.0
 40
7.3441439932
100
AcDbArc
 50
240.7535663645
 51
241.792392902
1001
ACAD
1000
RTMaterial
1005
0
  0
ARC
  5
3EC
330
24E
100
AcDbEntity
  8
0
  6
Continuous
 62
     7
100
AcDbCircle
 10
1318.1845958511
 20
62.93606477149999
 30
0.0
 40
7.3433692912
100
AcDbArc
 50
241.7925034167
 51
242.2596146449
1001
ACAD
1000
RTMaterial
1005
0
  0
ARC
  5
3ED
330
24E
100
AcDbEntity
  8
0
  6
Continuous
 62
     7
100
AcDbCircle
 10
1318.1816742998
 20
62.93643856500001
 30
0.0
 40
7.3418345657
100
AcDbArc
 50
222.1716397442
 51
223.406501462
1001
ACAD
1000
RTMaterial
1005
0
  0
ARC
  5
3EE
330
24E
100
AcDbEntity
  8
0
  6
Continuous
 62
     7
100
AcDbCircle
 10
1318.1877441919
 20
62.9419003834
 30
0.0
 40
6.4
100
AcDbArc
 50
188.8225230501
 51
180.0
1001
ACAD
1000
RTMaterial
1005
0
  0
ARC
  5
3EF
330
24E
100
AcDbEntity
  8
0
  6
Continuous
 62
     7
100
AcDbCircle
 10
1318.1877441919
 20
63.3718597282
 30
0.0
 40
15.0
100
AcDbArc
 50
0.0
 51
59.48176932109999
1001
ACAD
1000
RTMaterial
1005
0
  0
ARC
  5
3F0
330
24E
100
AcDbEntity
  8
0
  6
Continuous
 62
     7
100
AcDbCircle
 10
1318.4767849507
 20
62.5567187822
 30
0.0
 40
7.3213478073
100
AcDbArc
 50
216.9411801836
 51
218.0389138409
1001
ACAD
1000
RTMaterial
1005
0
  0
ARC
  5
3F1
330
24E
100
AcDbEntity
  8
0
  6
Continuous
 62
     7
100
AcDbCircle
 10
1318.4752462278
 20
62.55552075399999
 30
0.0
 40
7.319397699899999
100
AcDbArc
 50
218.0389498322
 51
218.2245409026
1001
ACAD
1000
RTMaterial
1005
0
  0
ARC
  5
3F2
330
24E
100
AcDbEntity
  8
0
  6
Continuous
 62
     7
100
AcDbCircle
 10
1318.4745482798
 20
62.5549709909
 30
0.0
 40
7.3185092345
100
AcDbArc
 50
218.2245406078
 51
218.4162388199
1001
ACAD
1000
RTMaterial
1005
0
  0
ARC
  5
3F3
330
24E
100
AcDbEntity
  8
0
  6
Continuous
 62
     7
100
AcDbCircle
 10
1436.6877441919
 20
-249.0580996166
 30
0.0
 40
4.0
100
AcDbArc
 50
270.0
 51
360.0
1001
ACAD
1000
RTMaterial
1005
0
  0
ARC
  5
3F4
330
24E
100
AcDbEntity
  8
0
  6
Continuous
 62
     7
100
AcDbCircle
 10
1436.6877441919
 20
-249.0580996166
 30
0.0
 40
3.7
100
AcDbArc
 50
270.0
 51
360.0
1001
ACAD
1000
RTMaterial
1005
0
  0
ARC
  5
3F5
330
24E
100
AcDbEntity
  8
0
  6
Continuous
 62
     7
100
AcDbCircle
 10
1391.6877441919
 20
-255.0580996166
 30
0.0
 40
2.0
100
AcDbArc
 50
180.0
 51
270.0
1001
ACAD
1000
RTMaterial
1005
0
  0
ARC
  5
3F6
330
24E
100
AcDbEntity
  8
0
  6
Continuous
 62
     7
100
AcDbCircle
 10
1345.6877441919
 20
-255.0580996166
 30
0.0
 40
2.0
100
AcDbArc
 50
270.0
 51
360.0
1001
ACAD
1000
RTMaterial
1005
0
  0
ARC
  5
3F7
330
24E
100
AcDbEntity
  8
0
  6
Continuous
 62
     7
100
AcDbCircle
 10
1338.6877441919
 20
-255.0580996166
 30
0.0
 40
2.0
100
AcDbArc
 50
180.0
 51
270.0
1001
ACAD
1000
RTMaterial
1005
0
  0
ARC
  5
3F8
330
24E
100
AcDbEntity
  8
0
  6
Continuous
 62
     7
100
AcDbCircle
 10
1398.6877441919
 20
-255.0580996166
 30
0.0
 40
2.0
100
AcDbArc
 50
180.0
 51
270.0
1001
ACAD
1000
RTMaterial
1005
0
  0
ARC
  5
3F9
330
24E
100
AcDbEntity
  8
0
  6
Continuous
 62
     7
100
AcDbCircle
 10
1323.1877441919
 20
18.9419003834
 30
0.0
 40
10.0
100
AcDbArc
 50
270.0
 51
360.0
1001
ACAD
1000
RTMaterial
1005
0
  0
ARC
  5
3FA
330
24E
100
AcDbEntity
  8
0
  6
Continuous
 62
     7
100
AcDbCircle
 10
1436.6877441919
 20
737.9419003833999
 30
0.0
 40
4.0
100
AcDbArc
 50
0.0
 51
90.0
1001
ACAD
1000
RTMaterial
1005
0
  0
ARC
  5
3FB
330
24E
100
AcDbEntity
  8
0
  6
Continuous
 62
     7
100
AcDbCircle
 10
1436.6877441919
 20
737.9419003833999
 30
0.0
 40
3.7
100
AcDbArc
 50
0.0
 51
90.0
1001
ACAD
1000
RTMaterial
1005
0
  0
ARC
  5
3FC
330
24E
100
AcDbEntity
  8
0
  6
Continuous
 62
     7
100
AcDbCircle
 10
1981.9515419015
 20
733.3419003833999
 30
0.0
 40
8.0
100
AcDbArc
 50
57.57863652899999
 51
90.0
1001
ACAD
1000
RTMaterial
1005
0
  0
ARC
  5
3FD
330
24E
100
AcDbEntity
  8
0
  6
Continuous
 62
     7
100
AcDbCircle
 10
1959.0936655459
 20
733.3419003833999
 30
0.0
 40
8.0
100
AcDbArc
 50
90.0
 51
122.421363471
1001
ACAD
1000
RTMaterial
1005
0
  0
ARC
  5
3FE
330
24E
100
AcDbEntity
  8
0
  6
Continuous
 62
     7
100
AcDbCircle
 10
1985.9726037237
 20
739.67286096
 30
0.0
 40
0.5
100
AcDbArc
 50
32.9423194676
 51
57.57863652899999
1001
ACAD
1000
RTMaterial
1005
0
  0
ARC
  5
3FF
330
24E
100
AcDbEntity
  8
0
  6
Continuous
 62
     7
100
AcDbCircle
 10
1955.0726037237
 20
739.67286096
 30
0.0
 40
0.5
100
AcDbArc
 50
122.421363471
 51
147.0576805323999
1001
ACAD
1000
RTMaterial
1005
0
  0
ARC
  5
400
330
24E
100
AcDbEntity
  8
0
  6
Continuous
 62
     7
100
AcDbCircle
 10
1909.3226148047
 20
697.6845993508
 30
0.0
 40
0.5
100
AcDbArc
 50
125.5392382365
 51
180.0009014327
1001
ACAD
1000
RTMaterial
1005
0
  0
ARC
  5
401
330
24E
100
AcDbEntity
  8
0
  6
Continuous
 62
     7
100
AcDbCircle
 10
969.1877441919
 20
-743.6301348352999
 30
0.0
 40
2.0
100
AcDbArc
 50
180.0
 51
270.0
1001
ACAD
1000
RTMaterial
1005
0
  0
ARC
  5
402
330
24E
100
AcDbEntity
  8
0
  6
Continuous
 62
     7
100
AcDbCircle
 10
969.1877441919
 20
-743.6301348352999
 30
0.0
 40
1.7
100
AcDbArc
 50
180.0
 51
270.0
1001
ACAD
1000
RTMaterial
1005
0
  0
ARC
  5
403
330
24E
100
AcDbEntity
  8
0
  6
Continuous
 62
     7
100
AcDbCircle
 10
1141.7903554169
 20
-702.8738582033001
 30
0.0
 40
1.0053140193
100
AcDbArc
 50
220.571332164
 51
235.9779111659
1001
ACAD
1000
RTMaterial
1005
0
  0
ARC
  5
404
330
24E
100
AcDbEntity
  8
0
  6
Continuous
 62
     7
100
AcDbCircle
 10
1150.4463626456
 20
-707.8777239836
 30
0.0
 40
0.9997813868999999
100
AcDbArc
 50
237.0713127675
 51
259.4723271784
1001
ACAD
1000
RTMaterial
1005
0
  0
ARC
  5
405
330
24E
100
AcDbEntity
  8
0
  6
Continuous
 62
     7
100
AcDbCircle
 10
1141.7850229327
 20
-702.8807638321
 30
0.0
 40
0.9966070462999999
100
AcDbArc
 50
236.0098700089
 51
240.1351339508
1001
ACAD
1000
RTMaterial
1005
0
  0
ARC
  5
406
330
24E
100
AcDbEntity
  8
0
  6
Continuous
 62
     7
100
AcDbCircle
 10
1138.3877441919
 20
-693.1301348352999
 30
0.0
 40
1.5
100
AcDbArc
 50
136.3547883269
 51
159.0890319175
1001
ACAD
1000
RTMaterial
1005
0
  0
ARC
  5
407
330
24E
100
AcDbEntity
  8
0
  6
Continuous
 62
     7
100
AcDbCircle
 10
1138.3877441919
 20
-693.1301348352999
 30
0.0
 40
1.5
100
AcDbArc
 50
200.9109680825
 51
223.5336926714
1001
ACAD
1000
RTMaterial
1005
0
  0
ARC
  5
408
330
24E
100
AcDbEntity
  8
02___PRT_ALL_AXES
  6
Continuous
 62
     7
100
AcDbCircle
 10
1140.3705682159
 20
-700.5301348353
 30
0.0
 40
1.5
100
AcDbArc
 50
171.4217050032
 51
184.0145882182
1001
ACAD
1000
RTMaterial
1005
0
  0
ARC
  5
409
330
24E
100
AcDbEntity
  8
02___PRT_ALL_AXES
  6
Continuous
 62
     7
100
AcDbCircle
 10
1140.3705682159
 20
-700.5301348353
 30
0.0
 40
1.5
100
AcDbArc
 50
232.7569435135
 51
248.5782949968
1001
ACAD
1000
RTMaterial
1005
0
  0
ARC
  5
40A
330
24E
100
AcDbEntity
  8
02___PRT_ALL_AXES
  6
Continuous
 62
     7
100
AcDbCircle
 10
1153.1877441919
 20
-707.9301348352999
 30
0.0
 40
1.5
100
AcDbArc
 50
231.4217050032
 51
244.5764556953
1001
ACAD
1000
RTMaterial
1005
0
  0
ARC
  5
40B
330
24E
100
AcDbEntity
  8
02___PRT_ALL_AXES
  6
Continuous
 62
     7
100
AcDbCircle
 10
1153.1877441919
 20
-707.9301348352999
 30
0.0
 40
1.5
100
AcDbArc
 50
286.922140293
 51
308.5782949968
1001
ACAD
1000
RTMaterial
1005
0
  0
ARC
  5
40C
330
24E
100
AcDbEntity
  8
02___PRT_ALL_AXES
  6
Continuous
 62
     7
100
AcDbCircle
 10
1160.5877441919
 20
-705.9473108113
 30
0.0
 40
1.5
100
AcDbArc
 50
261.4217050032
 51
274.014567576
1001
ACAD
1000
RTMaterial
1005
0
  0
ARC
  5
40D
330
24E
100
AcDbEntity
  8
02___PRT_ALL_AXES
  6
Continuous
 62
     7
100
AcDbCircle
 10
1160.5877441919
 20
-705.9473108113
 30
0.0
 40
1.5
100
AcDbArc
 50
322.7568231657
 51
338.5782949968
1001
ACAD
1000
RTMaterial
1005
0
  0
CIRCLE
  5
40E
330
24E
100
AcDbEntity
  8
0
  6
Continuous
 62
     7
100
AcDbCircle
 10
1153.1877441919
 20
-693.1301348352999
 30
0.0
 40
18.65
1001
ACAD
1000
RTMaterial
1005
0
  0
CIRCLE
  5
40F
330
24E
100
AcDbEntity
  8
02___PRT_ALL_AXES
  6
Continuous
 62
     7
100
AcDbCircle
 10
1153.1877441919
 20
-693.1301348352999
 30
0.0
 40
18.2
1001
ACAD
1000
RTMaterial
1005
0
  0
CIRCLE
  5
410
330
24E
100
AcDbEntity
  8
0
  6
Continuous
 62
     7
100
AcDbCircle
 10
1153.1877441919
 20
-693.1301348352999
 30
0.0
 40
16.2
1001
ACAD
1000
RTMaterial
1005
0
  0
ARC
  5
411
330
24E
100
AcDbEntity
  8
02___PRT_ALL_AXES
  6
Continuous
 62
     7
100
AcDbCircle
 10
1153.1877441919
 20
-693.1301348352999
 30
0.0
 40
16.0
100
AcDbArc
 50
273.3514767444
 51
296.6485232556
1001
ACAD
1000
RTMaterial
1005
0
  0
ARC
  5
412
330
24E
100
AcDbEntity
  8
02___PRT_ALL_AXES
  6
Continuous
 62
     7
100
AcDbCircle
 10
1153.1877441919
 20
-693.1301348352999
 30
0.0
 40
16.0
100
AcDbArc
 50
303.3514767444
 51
326.6485232556
1001
ACAD
1000
RTMaterial
1005
0
  0
ARC
  5
413
330
24E
100
AcDbEntity
  8
02___PRT_ALL_AXES
  6
Continuous
 62
     7
100
AcDbCircle
 10
1153.1877441919
 20
-693.1301348352999
 30
0.0
 40
16.0
100
AcDbArc
 50
33.3514767444
 51
56.6485232556
1001
ACAD
1000
RTMaterial
1005
0
  0
ARC
  5
414
330
24E
100
AcDbEntity
  8
02___PRT_ALL_AXES
  6
Continuous
 62
     7
100
AcDbCircle
 10
1153.1877441919
 20
-693.1301348352999
 30
0.0
 40
16.0
100
AcDbArc
 50
63.35147674439999
 51
86.6485232556
1001
ACAD
1000
RTMaterial
1005
0
  0
ARC
  5
415
330
24E
100
AcDbEntity
  8
0
  6
Continuous
 62
     7
100
AcDbCircle
 10
1153.1877441919
 20
-693.1301348352999
 30
0.0
 40
16.0
100
AcDbArc
 50
183.3514767443999
 51
206.6485232556
1001
ACAD
1000
RTMaterial
1005
0
  0
ARC
  5
416
330
24E
100
AcDbEntity
  8
0
  6
Continuous
 62
     7
100
AcDbCircle
 10
1153.1877441919
 20
-693.1301348352999
 30
0.0
 40
16.0
100
AcDbArc
 50
153.3514767444
 51
176.6485232556
1001
ACAD
1000
RTMaterial
1005
0
  0
ARC
  5
417
330
24E
100
AcDbEntity
  8
0
  6
Continuous
 62
     7
100
AcDbCircle
 10
1153.1877441919
 20
-693.1301348352999
 30
0.0
 40
16.0
100
AcDbArc
 50
333.3514767444
 51
340.5301700858
1001
ACAD
1000
RTMaterial
1005
0
  0
ARC
  5
418
330
24E
100
AcDbEntity
  8
0
  6
Continuous
 62
     7
100
AcDbCircle
 10
1153.1877441919
 20
-693.1301348352999
 30
0.0
 40
16.0
100
AcDbArc
 50
19.4698299142
 51
26.6485232556
1001
ACAD
1000
RTMaterial
1005
0
  0
ARC
  5
419
330
24E
100
AcDbEntity
  8
0
  6
Continuous
 62
     7
100
AcDbCircle
 10
1153.1877441919
 20
-693.1301348352999
 30
0.0
 40
16.0
100
AcDbArc
 50
93.35147674439999
 51
100.5301700858
1001
ACAD
1000
RTMaterial
1005
0
  0
ARC
  5
41A
330
24E
100
AcDbEntity
  8
0
  6
Continuous
 62
     7
100
AcDbCircle
 10
1153.1877441919
 20
-693.1301348352999
 30
0.0
 40
16.0
100
AcDbArc
 50
139.4698299142
 51
146.6485232556
1001
ACAD
1000
RTMaterial
1005
0
  0
ARC
  5
41B
330
24E
100
AcDbEntity
  8
0
  6
Continuous
 62
     7
100
AcDbCircle
 10
1153.1877441919
 20
-693.1301348352999
 30
0.0
 40
16.0
100
AcDbArc
 50
213.3514767444
 51
220.5301700858
1001
ACAD
1000
RTMaterial
1005
0
  0
ARC
  5
41C
330
24E
100
AcDbEntity
  8
0
  6
Continuous
 62
     7
100
AcDbCircle
 10
1153.1877441919
 20
-693.1301348352999
 30
0.0
 40
16.0
100
AcDbArc
 50
259.4698299142
 51
266.6485232556
1001
ACAD
1000
RTMaterial
1005
0
  0
CIRCLE
  5
41D
330
24E
100
AcDbEntity
  8
0
  6
Continuous
 62
     7
100
AcDbCircle
 10
1153.1877441919
 20
-693.1301348352999
 30
0.0
 40
15.95
1001
ACAD
1000
RTMaterial
1005
0
  0
ARC
  5
41E
330
24E
100
AcDbEntity
  8
02___PRT_ALL_AXES
  6
Continuous
 62
     7
100
AcDbCircle
 10
1166.0049201679
 20
-700.5301348353
 30
0.0
 40
1.5
100
AcDbArc
 50
291.4217050032
 51
307.2430563718
1001
ACAD
1000
RTMaterial
1005
0
  0
ARC
  5
41F
330
24E
100
AcDbEntity
  8
02___PRT_ALL_AXES
  6
Continuous
 62
     7
100
AcDbCircle
 10
1166.0049201679
 20
-700.5301348353
 30
0.0
 40
1.5
100
AcDbArc
 50
346.9221402931
 51
8.578294996799998
1001
ACAD
1000
RTMaterial
1005
0
  0
ARC
  5
420
330
24E
100
AcDbEntity
  8
0
  6
Continuous
 62
     7
100
AcDbCircle
 10
1167.3302582712
 20
-698.1298282617
 30
0.0
 40
0.9997453755
100
AcDbArc
 50
340.5272417388
 51
3.5175056973
1001
ACAD
1000
RTMaterial
1005
0
  0
ARC
  5
421
330
24E
100
AcDbEntity
  8
0
  6
Continuous
 62
     7
100
AcDbCircle
 10
977.8654497264
 20
-639.1301348352999
 30
0.0
 40
2.0
100
AcDbArc
 50
310.8357937994
 51
325.0079798014
1001
ACAD
1000
RTMaterial
1005
0
  0
ARC
  5
422
330
24E
100
AcDbEntity
  8
0
  6
Continuous
 62
     7
100
AcDbCircle
 10
986.9480719727
 20
-633.1301348352999
 30
0.0
 40
2.0
100
AcDbArc
 50
90.0
 51
145.0079798014
1001
ACAD
1000
RTMaterial
1005
0
  0
ARC
  5
423
330
24E
100
AcDbEntity
  8
0
  6
Continuous
 62
     7
100
AcDbCircle
 10
987.7169799824999
 20
-633.4301348353
 30
0.0
 40
2.0
100
AcDbArc
 50
90.0
 51
125.2195502922
1001
ACAD
1000
RTMaterial
1005
0
  0
ARC
  5
424
330
24E
100
AcDbEntity
  8
0
  6
Continuous
 62
     7
100
AcDbCircle
 10
987.7169799824999
 20
-633.4301348353
 30
0.0
 40
2.0
100
AcDbArc
 50
125.2281608084
 51
144.4623222079
1001
ACAD
1000
RTMaterial
1005
0
  0
ARC
  5
425
330
24E
100
AcDbEntity
  8
0
  6
Continuous
 62
     7
100
AcDbCircle
 10
969.1877441919
 20
-642.6301348352999
 30
0.0
 40
2.0
100
AcDbArc
 50
90.0
 51
180.0
1001
ACAD
1000
RTMaterial
1005
0
  0
ARC
  5
426
330
24E
100
AcDbEntity
  8
0
  6
Continuous
 62
     7
100
AcDbCircle
 10
969.1877441919
 20
-642.6301348352999
 30
0.0
 40
1.7
100
AcDbArc
 50
90.0
 51
180.0
1001
ACAD
1000
RTMaterial
1005
0
  0
ARC
  5
427
330
24E
100
AcDbEntity
  8
02___PRT_ALL_AXES
  6
Continuous
 62
     7
100
AcDbCircle
 10
1166.0049201679
 20
-685.7301348352999
 30
0.0
 40
1.5
100
AcDbArc
 50
351.4217050032
 51
4.0145882182
1001
ACAD
1000
RTMaterial
1005
0
  0
ARC
  5
428
330
24E
100
AcDbEntity
  8
02___PRT_ALL_AXES
  6
Continuous
 62
     7
100
AcDbCircle
 10
1166.0049201679
 20
-685.7301348352999
 30
0.0
 40
1.5
100
AcDbArc
 50
52.75694351350001
 51
68.5782949968
1001
ACAD
1000
RTMaterial
1005
0
  0
ARC
  5
429
330
24E
100
AcDbEntity
  8
02___PRT_ALL_AXES
  6
Continuous
 62
     7
100
AcDbCircle
 10
1160.5877441919
 20
-680.3129588592
 30
0.0
 40
1.5
100
AcDbArc
 50
21.4217050032
 51
37.2431767424
1001
ACAD
1000
RTMaterial
1005
0
  0
ARC
  5
42A
330
24E
100
AcDbEntity
  8
02___PRT_ALL_AXES
  6
Continuous
 62
     7
100
AcDbCircle
 10
1160.5877441919
 20
-680.3129588592
 30
0.0
 40
1.5
100
AcDbArc
 50
76.922140293
 51
98.57829499680001
1001
ACAD
1000
RTMaterial
1005
0
  0
ARC
  5
42B
330
24E
100
AcDbEntity
  8
02___PRT_ALL_AXES
  6
Continuous
 62
     7
100
AcDbCircle
 10
1153.1877441919
 20
-678.3301348352999
 30
0.0
 40
1.5
100
AcDbArc
 50
51.42170500319999
 51
64.5764556953
1001
ACAD
1000
RTMaterial
1005
0
  0
ARC
  5
42C
330
24E
100
AcDbEntity
  8
02___PRT_ALL_AXES
  6
Continuous
 62
     7
100
AcDbCircle
 10
1153.1877441919
 20
-678.3301348352999
 30
0.0
 40
1.5
100
AcDbArc
 50
106.922140293
 51
128.5782949968
1001
ACAD
1000
RTMaterial
1005
0
  0
ARC
  5
42D
330
24E
100
AcDbEntity
  8
02___PRT_ALL_AXES
  6
Continuous
 62
     7
100
AcDbCircle
 10
1140.3705682159
 20
-685.7301348352999
 30
0.0
 40
1.5
100
AcDbArc
 50
111.4217050032
 51
127.2430563719
1001
ACAD
1000
RTMaterial
1005
0
  0
ARC
  5
42E
330
24E
100
AcDbEntity
  8
02___PRT_ALL_AXES
  6
Continuous
 62
     7
100
AcDbCircle
 10
1140.3705682159
 20
-685.7301348352999
 30
0.0
 40
1.5
100
AcDbArc
 50
166.922140293
 51
188.5782949968
1001
ACAD
1000
RTMaterial
1005
0
  0
ARC
  5
42F
330
24E
100
AcDbEntity
  8
0
  6
Continuous
 62
     7
100
AcDbCircle
 10
1167.3302400615
 20
-688.1304437422999
 30
0.0
 40
0.9997633215
100
AcDbArc
 50
356.8317545384
 51
19.4725364538
1001
ACAD
1000
RTMaterial
1005
0
  0
ARC
  5
430
330
24E
100
AcDbEntity
  8
0
  6
Continuous
 62
     7
100
AcDbCircle
 10
1141.7866201145
 20
-683.3821972644999
 30
0.0
 40
0.9997361000999999
100
AcDbArc
 50
116.1157472802
 51
139.4728932789
1001
ACAD
1000
RTMaterial
1005
0
  0
CIRCLE
  5
431
330
24E
100
AcDbEntity
  8
0
  6
Continuous
 62
     7
100
AcDbCircle
 10
1253.1877441919
 20
-693.1301348352999
 30
0.0
 40
15.65
1001
ACAD
1000
RTMaterial
1005
0
  0
CIRCLE
  5
432
330
24E
100
AcDbEntity
  8
02___PRT_ALL_AXES
  6
Continuous
 62
     7
100
AcDbCircle
 10
1253.1877441919
 20
-693.1301348352999
 30
0.0
 40
15.2
1001
ACAD
1000
RTMaterial
1005
0
  0
CIRCLE
  5
433
330
24E
100
AcDbEntity
  8
0
  6
Continuous
 62
     7
100
AcDbCircle
 10
1253.1877441919
 20
-693.1301348352999
 30
0.0
 40
13.2
1001
ACAD
1000
RTMaterial
1005
0
  0
CIRCLE
  5
434
330
24E
100
AcDbEntity
  8
0
  6
Continuous
 62
     7
100
AcDbCircle
 10
1253.1877441919
 20
-693.1301348352999
 30
0.0
 40
12.95
1001
ACAD
1000
RTMaterial
1005
0
  0
ARC
  5
435
330
24E
100
AcDbEntity
  8
0
  6
Continuous
 62
     7
100
AcDbCircle
 10
1437.1877441919
 20
-743.6301348352999
 30
0.0
 40
2.0
100
AcDbArc
 50
270.0
 51
360.0
1001
ACAD
1000
RTMaterial
1005
0
  0
ARC
  5
436
330
24E
100
AcDbEntity
  8
0
  6
Continuous
 62
     7
100
AcDbCircle
 10
1437.1877441919
 20
-743.6301348352999
 30
0.0
 40
1.7
100
AcDbArc
 50
270.0
 51
360.0
1001
ACAD
1000
RTMaterial
1005
0
  0
ARC
  5
437
330
24E
100
AcDbEntity
  8
0
  6
Continuous
 62
     7
100
AcDbCircle
 10
1428.5100386574
 20
-639.1301348352999
 30
0.0
 40
2.0
100
AcDbArc
 50
214.9920201986
 51
229.1642062006
1001
ACAD
1000
RTMaterial
1005
0
  0
ARC
  5
438
330
24E
100
AcDbEntity
  8
0
  6
Continuous
 62
     7
100
AcDbCircle
 10
1419.4274164111
 20
-633.1301348352999
 30
0.0
 40
2.0
100
AcDbArc
 50
34.9920201986
 51
90.0
1001
ACAD
1000
RTMaterial
1005
0
  0
ARC
  5
439
330
24E
100
AcDbEntity
  8
0
  6
Continuous
 62
     7
100
AcDbCircle
 10
1418.6585084013
 20
-633.4301348353
 30
0.0
 40
2.0
100
AcDbArc
 50
35.5376777916
 51
90.0
1001
ACAD
1000
RTMaterial
1005
0
  0
ARC
  5
43A
330
24E
100
AcDbEntity
  8
0
  6
Continuous
 62
     7
100
AcDbCircle
 10
1437.1877441919
 20
-642.6301348352999
 30
0.0
 40
2.0
100
AcDbArc
 50
0.0
 51
90.0
1001
ACAD
1000
RTMaterial
1005
0
  0
ARC
  5
43B
330
24E
100
AcDbEntity
  8
0
  6
Continuous
 62
     7
100
AcDbCircle
 10
1437.1877441919
 20
-642.6301348352999
 30
0.0
 40
1.7
100
AcDbArc
 50
0.0
 51
90.0
1001
ACAD
1000
RTMaterial
1005
0
  0
SPLINE
  5
43C
330
24E
100
AcDbEntity
  8
0
  6
Continuous
 62
     7
100
AcDbSpline
210
0.0
220
0.0
230
1.0
 70
     8
 71
     3
 72
    15
 73
    11
 74
     0
 42
0.0000000001
 43
0.0000000001
 40
0.0
 40
0.0
 40
0.0
 40
0.0
 40
0.1250185744
 40
0.2500267831
 40
0.3750402662
 40
0.5000576141
 40
0.6250627357000001
 40
0.7500526841
 40
0.8750305879
 40
1.0
 40
1.0
 40
1.0
 40
1.0
 10
1312.6251763955
 20
58.1566266205
 30
0.0
 10
1312.2908152181
 20
58.6012877251
 30
0.0
 10
1311.7217264886
 20
59.57087722729999
 30
0.0
 10
1311.226656639
 20
61.1800143926
 30
0.0
 10
1311.1204923521
 20
62.8615567572
 30
0.0
 10
1311.4165122564
 20
64.52058256149999
 30
0.0
 10
1312.1039887757
 20
66.0597044724
 30
0.0
 10
1313.1486061355
 20
67.38353948550001
 30
0.0
 10
1314.4898991749
 20
68.40471380689999
 30
0.0
 10
1315.5310608179
 20
68.8365046033
 30
0.0
 10
1316.0681629006
 20
68.9807227148
 30
0.0
1001
ACAD_OBJECT_CHANGE_GUID
1070
     0
1071
        0
1070
     0
1070
     0
1070
     0
1070
     0
1070
     0
1070
     0
1070
     0
1070
     0
1070
     0
1070
     0
1070
     0
1071
        0
1070
     0
1070
     0
1070
     0
1070
     0
1070
     0
1070
     0
1070
     0
1070
     0
1070
     0
1070
     0
  0
LINE
  5
43D
330
24E
100
AcDbEntity
  8
0
  6
Continuous
 62
     7
100
AcDbLine
 10
1315.4119627146
 20
56.1362020176
 30
0.0
 11
1315.3989511692
 21
56.1415236296
 31
0.0
1001
ACAD
1000
RTMaterial
1005
0
  0
LINE
  5
43E
330
24E
100
AcDbEntity
  8
0
  6
Continuous
 62
     7
100
AcDbLine
 10
1313.8675559043
 20
56.99560101270001
 30
0.0
 11
1313.8560474686
 21
57.00397936539999
 31
0.0
1001
ACAD
1000
RTMaterial
1005
0
  0
SPLINE
  5
43F
330
24E
100
AcDbEntity
  8
0
  6
Continuous
 62
     7
100
AcDbSpline
210
0.0
220
0.0
230
1.0
 70
     8
 71
     3
 72
    15
 73
    11
 74
     0
 42
0.0000000001
 43
0.0000000001
 40
0.0
 40
0.0
 40
0.0
 40
0.0
 40
0.1249431813
 40
0.2499034823
 40
0.3749081729999999
 40
0.4999496094
 40
0.6249908992000001
 40
0.7500069175000001
 40
0.8750026309999999
 40
1.0
 40
1.0
 40
1.0
 40
1.0
 10
1324.3952547289
 20
64.4997235225
 30
0.0
 10
1324.5732047041
 20
63.96473981899999
 30
0.0
 10
1324.7874098683
 20
62.84182656229999
 30
0.0
 10
1324.6633750945
 20
61.1365738247
 30
0.0
 10
1324.1122091773
 20
59.51717508739999
 30
0.0
 10
1323.1759098303
 20
58.0861470543
 30
0.0
 10
1321.9188140611
 20
56.927549159
 30
0.0
 10
1320.4206156023
 20
56.1053368333
 30
0.0
 10
1318.7721542136
 20
55.66060286159999
 30
0.0
 10
1317.6324546032
 20
55.628264898
 30
0.0
 10
1317.0705429456
 20
55.6773039476
 30
0.0
1001
ACAD_OBJECT_CHANGE_GUID
1070
     0
1071
        0
1070
     0
1070
     0
1070
     0
1070
     0
1070
     0
1070
     0
1070
     0
1070
     0
1070
     0
1070
     0
1070
     0
1071
        0
1070
     0
1070
     0
1070
     0
1070
     0
1070
     0
1070
     0
1070
     0
1070
     0
1070
     0
1070
     0
  0
SPLINE
  5
440
330
24E
100
AcDbEntity
  8
0
  6
Continuous
 62
     7
100
AcDbSpline
210
0.0
220
0.0
230
1.0
 70
     8
 71
     3
 72
    15
 73
    11
 74
     0
 42
0.0000000001
 43
0.0000000001
 40
0.0
 40
0.0
 40
0.0
 40
0.0
 40
0.1250185744
 40
0.2500267831
 40
0.3750402662
 40
0.5000576141
 40
0.6250627357000001
 40
0.7500526841
 40
0.8750305879
 40
1.0
 40
1.0
 40
1.0
 40
1.0
 10
1082.6251763955
 20
58.1566266205
 30
0.0
 10
1082.2908152181
 20
58.6012877251
 30
0.0
 10
1081.7217264886
 20
59.57087722729999
 30
0.0
 10
1081.226656639
 20
61.1800143926
 30
0.0
 10
1081.1204923521
 20
62.8615567572
 30
0.0
 10
1081.4165122564
 20
64.52058256149999
 30
0.0
 10
1082.1039887757
 20
66.0597044724
 30
0.0
 10
1083.1486061355
 20
67.38353948550001
 30
0.0
 10
1084.4898991749
 20
68.40471380689999
 30
0.0
 10
1085.5310608179
 20
68.8365046033
 30
0.0
 10
1086.0681629006
 20
68.9807227148
 30
0.0
1001
ACAD_OBJECT_CHANGE_GUID
1070
     0
1071
        0
1070
     0
1070
     0
1070
     0
1070
     0
1070
     0
1070
     0
1070
     0
1070
     0
1070
     0
1070
     0
1070
     0
1071
        0
1070
     0
1070
     0
1070
     0
1070
     0
1070
     0
1070
     0
1070
     0
1070
     0
1070
     0
1070
     0
  0
LINE
  5
441
330
24E
100
AcDbEntity
  8
0
  6
Continuous
 62
     7
100
AcDbLine
 10
1085.4119627146
 20
56.1362020176
 30
0.0
 11
1085.3989511692
 21
56.1415236296
 31
0.0
1001
ACAD
1000
RTMaterial
1005
0
  0
LINE
  5
442
330
24E
100
AcDbEntity
  8
0
  6
Continuous
 62
     7
100
AcDbLine
 10
1083.8675559043
 20
56.99560101270001
 30
0.0
 11
1083.8560474686
 21
57.00397936539999
 31
0.0
1001
ACAD
1000
RTMaterial
1005
0
  0
SPLINE
  5
443
330
24E
100
AcDbEntity
  8
0
  6
Continuous
 62
     7
100
AcDbSpline
210
0.0
220
0.0
230
1.0
 70
     8
 71
     3
 72
    15
 73
    11
 74
     0
 42
0.0000000001
 43
0.0000000001
 40
0.0
 40
0.0
 40
0.0
 40
0.0
 40
0.1249431813
 40
0.2499034823
 40
0.3749081729999999
 40
0.4999496094
 40
0.6249908992000001
 40
0.7500069175000001
 40
0.8750026309999999
 40
1.0
 40
1.0
 40
1.0
 40
1.0
 10
1094.3952547289
 20
64.4997235225
 30
0.0
 10
1094.5732047041
 20
63.96473981899999
 30
0.0
 10
1094.7874098683
 20
62.84182656229999
 30
0.0
 10
1094.6633750945
 20
61.1365738247
 30
0.0
 10
1094.1122091773
 20
59.51717508739999
 30
0.0
 10
1093.1759098303
 20
58.0861470543
 30
0.0
 10
1091.9188140611
 20
56.927549159
 30
0.0
 10
1090.4206156023
 20
56.1053368333
 30
0.0
 10
1088.7721542136
 20
55.66060286159999
 30
0.0
 10
1087.6324546032
 20
55.628264898
 30
0.0
 10
1087.0705429456
 20
55.6773039476
 30
0.0
1001
ACAD_OBJECT_CHANGE_GUID
1070
     0
1071
        0
1070
     0
1070
     0
1070
     0
1070
     0
1070
     0
1070
     0
1070
     0
1070
     0
1070
     0
1070
     0
1070
     0
1071
        0
1070
     0
1070
     0
1070
     0
1070
     0
1070
     0
1070
     0
1070
     0
1070
     0
1070
     0
1070
     0
  0
LINE
  5
444
330
24E
100
AcDbEntity
  8
0
  6
Continuous
 62
     7
100
AcDbLine
 10
1167.6103637375
 20
113.4419003834
 30
0.0
 11
1167.358099751
 21
113.1925773448
 31
0.0
1001
ACAD
1000
RTMaterial
1005
0
  0
LINE
  5
445
330
24E
100
AcDbEntity
  8
0
  6
Continuous
 62
     7
100
AcDbLine
 10
1167.358099751
 20
113.1925773448
 30
0.0
 11
1167.1888020457
 21
113.025230634
 31
0.0
1001
ACAD
1000
RTMaterial
1005
0
  0
LINE
  5
446
330
24E
100
AcDbEntity
  8
0
  6
Continuous
 62
     7
100
AcDbLine
 10
1167.1888020457
 20
113.025230634
 30
0.0
 11
1167.1045070866
 21
112.9419003834
 31
0.0
1001
ACAD
1000
RTMaterial
1005
0
  0
SPLINE
  5
447
330
24E
100
AcDbEntity
  8
0
  6
Continuous
 62
     7
100
AcDbSpline
210
0.0
220
0.0
230
1.0
 70
     8
 71
     3
 72
    12
 73
     8
 74
     0
 42
0.0000000001
 43
0.0000000001
 40
0.0
 40
0.0
 40
0.0
 40
0.0
 40
0.3647663448
 40
0.6742723068
 40
0.7950240649
 40
0.8891528492
 40
1.0
 40
1.0
 40
1.0
 40
1.0
 10
1238.5607565035
 20
111.5419003834
 30
0.0
 10
1238.5607565035
 20
111.6065826487
 30
0.0
 10
1238.5667264283
 20
111.7263955475
 30
0.0
 10
1238.5877093724
 20
111.8655642479
 30
0.0
 10
1238.6148455183
 20
111.955938953
 30
0.0
 10
1238.6364665652
 20
112.0066797878
 30
0.0
 10
1238.6645668972
 20
112.0419003834
 30
0.0
 10
1238.6842228905
 20
112.0419003834
 30
0.0
1001
ACAD_OBJECT_CHANGE_GUID
1070
     0
1071
        0
1070
     0
1070
     0
1070
     0
1070
     0
1070
     0
1070
     0
1070
     0
1070
     0
1070
     0
1070
     0
1070
     0
1071
        0
1070
     0
1070
     0
1070
     0
1070
     0
1070
     0
1070
     0
1070
     0
1070
     0
1070
     0
1070
     0
  0
SPLINE
  5
448
330
24E
100
AcDbEntity
  8
0
  6
Continuous
 62
     7
100
AcDbSpline
210
0.0
220
0.0
230
1.0
 70
     8
 71
     3
 72
     9
 73
     5
 74
     0
 42
0.0000000001
 43
0.0000000001
 40
0.0
 40
0.0
 40
0.0
 40
0.0
 40
0.5441292461
 40
1.0
 40
1.0
 40
1.0
 40
1.0
 10
1236.8729041292
 20
115.4419003834
 30
0.0
 10
1236.8296293597
 20
115.4419003834
 30
0.0
 10
1236.7480280068
 20
115.4143904808
 30
0.0
 10
1236.6968567423
 20
115.3483902923
 30
0.0
 10
1236.6826418819
 20
115.3150375982
 30
0.0
1001
ACAD_OBJECT_CHANGE_GUID
1070
     0
1071
        0
1070
     0
1070
     0
1070
     0
1070
     0
1070
     0
1070
     0
1070
     0
1070
     0
1070
     0
1070
     0
1070
     0
1071
        0
1070
     0
1070
     0
1070
     0
1070
     0
1070
     0
1070
     0
1070
     0
1070
     0
1070
     0
1070
     0
  0
SPLINE
  5
449
330
24E
100
AcDbEntity
  8
0
  6
Continuous
 62
     7
100
AcDbSpline
210
0.0
220
0.0
230
1.0
 70
     8
 71
     3
 72
     8
 73
     4
 74
     0
 42
0.0000000001
 43
0.0000000001
 40
0.0
 40
0.0
 40
0.0
 40
0.0
 40
1.0
 40
1.0
 40
1.0
 40
1.0
 10
1236.6826418819
 20
115.3150375982
 30
0.0
 10
1236.6728462014
 20
115.2920537398
 30
0.0
 10
1236.6671397142
 20
115.2668686063
 30
0.0
 10
1236.6662447557
 20
115.2419003834
 30
0.0
1001
ACAD_OBJECT_CHANGE_GUID
1070
     0
1071
        0
1070
     0
1070
     0
1070
     0
1070
     0
1070
     0
1070
     0
1070
     0
1070
     0
1070
     0
1070
     0
1070
     0
1071
        0
1070
     0
1070
     0
1070
     0
1070
     0
1070
     0
1070
     0
1070
     0
1070
     0
1070
     0
1070
     0
  0
SPLINE
  5
44A
330
24E
100
AcDbEntity
  8
0
  6
Continuous
 62
     7
100
AcDbSpline
210
0.0
220
0.0
230
1.0
 70
     8
 71
     3
 72
     9
 73
     5
 74
     0
 42
0.0000000001
 43
0.0000000001
 40
0.0
 40
0.0
 40
0.0
 40
0.0
 40
0.5441292461
 40
1.0
 40
1.0
 40
1.0
 40
1.0
 10
1236.8729041292
 20
119.4419003834
 30
0.0
 10
1236.8296293597
 20
119.4419003834
 30
0.0
 10
1236.7480280068
 20
119.4143904808
 30
0.0
 10
1236.6968567423
 20
119.3483902923
 30
0.0
 10
1236.6826418819
 20
119.3150375982
 30
0.0
1001
ACAD_OBJECT_CHANGE_GUID
1070
     0
1071
        0
1070
     0
1070
     0
1070
     0
1070
     0
1070
     0
1070
     0
1070
     0
1070
     0
1070
     0
1070
     0
1070
     0
1071
        0
1070
     0
1070
     0
1070
     0
1070
     0
1070
     0
1070
     0
1070
     0
1070
     0
1070
     0
1070
     0
  0
SPLINE
  5
44B
330
24E
100
AcDbEntity
  8
0
  6
Continuous
 62
     7
100
AcDbSpline
210
0.0
220
0.0
230
1.0
 70
     8
 71
     3
 72
     8
 73
     4
 74
     0
 42
0.0000000001
 43
0.0000000001
 40
0.0
 40
0.0
 40
0.0
 40
0.0
 40
1.0
 40
1.0
 40
1.0
 40
1.0
 10
1236.6826418819
 20
119.3150375982
 30
0.0
 10
1236.6728462014
 20
119.2920537398
 30
0.0
 10
1236.6671397142
 20
119.2668686063
 30
0.0
 10
1236.6662447557
 20
119.2419003834
 30
0.0
1001
ACAD_OBJECT_CHANGE_GUID
1070
     0
1071
        0
1070
     0
1070
     0
1070
     0
1070
     0
1070
     0
1070
     0
1070
     0
1070
     0
1070
     0
1070
     0
1070
     0
1071
        0
1070
     0
1070
     0
1070
     0
1070
     0
1070
     0
1070
     0
1070
     0
1070
     0
1070
     0
1070
     0
  0
SPLINE
  5
44C
330
24E
100
AcDbEntity
  8
0
  6
Continuous
 62
     7
100
AcDbSpline
210
0.0
220
0.0
230
1.0
 70
     8
 71
     3
 72
     9
 73
     5
 74
     0
 42
0.0000000001
 43
0.0000000001
 40
0.0
 40
0.0
 40
0.0
 40
0.0
 40
0.5441292461
 40
1.0
 40
1.0
 40
1.0
 40
1.0
 10
1236.8729041292
 20
123.4419003834
 30
0.0
 10
1236.8296293597
 20
123.4419003834
 30
0.0
 10
1236.7480280068
 20
123.4143904808
 30
0.0
 10
1236.6968567423
 20
123.3483902923
 30
0.0
 10
1236.6826418819
 20
123.3150375982
 30
0.0
1001
ACAD_OBJECT_CHANGE_GUID
1070
     0
1071
        0
1070
     0
1070
     0
1070
     0
1070
     0
1070
     0
1070
     0
1070
     0
1070
     0
1070
     0
1070
     0
1070
     0
1071
        0
1070
     0
1070
     0
1070
     0
1070
     0
1070
     0
1070
     0
1070
     0
1070
     0
1070
     0
1070
     0
  0
SPLINE
  5
44D
330
24E
100
AcDbEntity
  8
0
  6
Continuous
 62
     7
100
AcDbSpline
210
0.0
220
0.0
230
1.0
 70
     8
 71
     3
 72
     8
 73
     4
 74
     0
 42
0.0000000001
 43
0.0000000001
 40
0.0
 40
0.0
 40
0.0
 40
0.0
 40
1.0
 40
1.0
 40
1.0
 40
1.0
 10
1236.6826418819
 20
123.3150375982
 30
0.0
 10
1236.6728462014
 20
123.2920537398
 30
0.0
 10
1236.6671397142
 20
123.2668686063
 30
0.0
 10
1236.6662447557
 20
123.2419003834
 30
0.0
1001
ACAD_OBJECT_CHANGE_GUID
1070
     0
1071
        0
1070
     0
1070
     0
1070
     0
1070
     0
1070
     0
1070
     0
1070
     0
1070
     0
1070
     0
1070
     0
1070
     0
1071
        0
1070
     0
1070
     0
1070
     0
1070
     0
1070
     0
1070
     0
1070
     0
1070
     0
1070
     0
1070
     0
  0
SPLINE
  5
44E
330
24E
100
AcDbEntity
  8
0
  6
Continuous
 62
     7
100
AcDbSpline
210
0.0
220
0.0
230
1.0
 70
     8
 71
     3
 72
     9
 73
     5
 74
     0
 42
0.0000000001
 43
0.0000000001
 40
0.0
 40
0.0
 40
0.0
 40
0.0
 40
0.5441292461
 40
1.0
 40
1.0
 40
1.0
 40
1.0
 10
1236.8729041292
 20
127.4419003834
 30
0.0
 10
1236.8296293597
 20
127.4419003834
 30
0.0
 10
1236.7480280068
 20
127.4143904808
 30
0.0
 10
1236.6968567423
 20
127.3483902923
 30
0.0
 10
1236.6826418819
 20
127.3150375982
 30
0.0
1001
ACAD_OBJECT_CHANGE_GUID
1070
     0
1071
        0
1070
     0
1070
     0
1070
     0
1070
     0
1070
     0
1070
     0
1070
     0
1070
     0
1070
     0
1070
     0
1070
     0
1071
        0
1070
     0
1070
     0
1070
     0
1070
     0
1070
     0
1070
     0
1070
     0
1070
     0
1070
     0
1070
     0
  0
SPLINE
  5
44F
330
24E
100
AcDbEntity
  8
0
  6
Continuous
 62
     7
100
AcDbSpline
210
0.0
220
0.0
230
1.0
 70
     8
 71
     3
 72
     8
 73
     4
 74
     0
 42
0.0000000001
 43
0.0000000001
 40
0.0
 40
0.0
 40
0.0
 40
0.0
 40
1.0
 40
1.0
 40
1.0
 40
1.0
 10
1236.6826418819
 20
127.3150375982
 30
0.0
 10
1236.6728462014
 20
127.2920537398
 30
0.0
 10
1236.6671397142
 20
127.2668686063
 30
0.0
 10
1236.6662447557
 20
127.2419003834
 30
0.0
1001
ACAD_OBJECT_CHANGE_GUID
1070
     0
1071
        0
1070
     0
1070
     0
1070
     0
1070
     0
1070
     0
1070
     0
1070
     0
1070
     0
1070
     0
1070
     0
1070
     0
1071
        0
1070
     0
1070
     0
1070
     0
1070
     0
1070
     0
1070
     0
1070
     0
1070
     0
1070
     0
1070
     0
  0
SPLINE
  5
450
330
24E
100
AcDbEntity
  8
0
  6
Continuous
 62
     7
100
AcDbSpline
210
0.0
220
0.0
230
1.0
 70
     8
 71
     3
 72
     8
 73
     4
 74
     0
 42
0.0000000001
 43
0.0000000001
 40
0.0
 40
0.0
 40
0.0
 40
0.0
 40
1.0
 40
1.0
 40
1.0
 40
1.0
 10
1236.6662447557
 20
117.6419003834
 30
0.0
 10
1236.6671394422
 20
117.6169397465
 30
0.0
 10
1236.6728430577
 20
117.5917626461
 30
0.0
 10
1236.6826326107
 20
117.5687844279
 30
0.0
1001
ACAD_OBJECT_CHANGE_GUID
1070
     0
1071
        0
1070
     0
1070
     0
1070
     0
1070
     0
1070
     0
1070
     0
1070
     0
1070
     0
1070
     0
1070
     0
1070
     0
1071
        0
1070
     0
1070
     0
1070
     0
1070
     0
1070
     0
1070
     0
1070
     0
1070
     0
1070
     0
1070
     0
  0
SPLINE
  5
451
330
24E
100
AcDbEntity
  8
0
  6
Continuous
 62
     7
100
AcDbSpline
210
0.0
220
0.0
230
1.0
 70
     8
 71
     3
 72
     9
 73
     5
 74
     0
 42
0.0000000001
 43
0.0000000001
 40
0.0
 40
0.0
 40
0.0
 40
0.0
 40
0.4559724869
 40
1.0
 40
1.0
 40
1.0
 40
1.0
 10
1236.6826326107
 20
117.5687844279
 30
0.0
 10
1236.6968474393
 20
117.5354191213
 30
0.0
 10
1236.7480247532
 20
117.4694087323
 30
0.0
 10
1236.8296332752
 20
117.4419003834
 30
0.0
 10
1236.8729041292
 20
117.4419003834
 30
0.0
1001
ACAD_OBJECT_CHANGE_GUID
1070
     0
1071
        0
1070
     0
1070
     0
1070
     0
1070
     0
1070
     0
1070
     0
1070
     0
1070
     0
1070
     0
1070
     0
1070
     0
1071
        0
1070
     0
1070
     0
1070
     0
1070
     0
1070
     0
1070
     0
1070
     0
1070
     0
1070
     0
1070
     0
  0
SPLINE
  5
452
330
24E
100
AcDbEntity
  8
0
  6
Continuous
 62
     7
100
AcDbSpline
210
0.0
220
0.0
230
1.0
 70
     8
 71
     3
 72
     8
 73
     4
 74
     0
 42
0.0000000001
 43
0.0000000001
 40
0.0
 40
0.0
 40
0.0
 40
0.0
 40
1.0
 40
1.0
 40
1.0
 40
1.0
 10
1236.6662447557
 20
121.6419003834
 30
0.0
 10
1236.6671394422
 20
121.6169397465
 30
0.0
 10
1236.6728430577
 20
121.5917626461
 30
0.0
 10
1236.6826326107
 20
121.5687844279
 30
0.0
1001
ACAD_OBJECT_CHANGE_GUID
1070
     0
1071
        0
1070
     0
1070
     0
1070
     0
1070
     0
1070
     0
1070
     0
1070
     0
1070
     0
1070
     0
1070
     0
1070
     0
1071
        0
1070
     0
1070
     0
1070
     0
1070
     0
1070
     0
1070
     0
1070
     0
1070
     0
1070
     0
1070
     0
  0
SPLINE
  5
453
330
24E
100
AcDbEntity
  8
0
  6
Continuous
 62
     7
100
AcDbSpline
210
0.0
220
0.0
230
1.0
 70
     8
 71
     3
 72
     9
 73
     5
 74
     0
 42
0.0000000001
 43
0.0000000001
 40
0.0
 40
0.0
 40
0.0
 40
0.0
 40
0.4559724869
 40
1.0
 40
1.0
 40
1.0
 40
1.0
 10
1236.6826326107
 20
121.5687844279
 30
0.0
 10
1236.6968474393
 20
121.5354191213
 30
0.0
 10
1236.7480247532
 20
121.4694087323
 30
0.0
 10
1236.8296332752
 20
121.4419003834
 30
0.0
 10
1236.8729041292
 20
121.4419003834
 30
0.0
1001
ACAD_OBJECT_CHANGE_GUID
1070
     0
1071
        0
1070
     0
1070
     0
1070
     0
1070
     0
1070
     0
1070
     0
1070
     0
1070
     0
1070
     0
1070
     0
1070
     0
1071
        0
1070
     0
1070
     0
1070
     0
1070
     0
1070
     0
1070
     0
1070
     0
1070
     0
1070
     0
1070
     0
  0
SPLINE
  5
454
330
24E
100
AcDbEntity
  8
0
  6
Continuous
 62
     7
100
AcDbSpline
210
0.0
220
0.0
230
1.0
 70
     8
 71
     3
 72
     8
 73
     4
 74
     0
 42
0.0000000001
 43
0.0000000001
 40
0.0
 40
0.0
 40
0.0
 40
0.0
 40
1.0
 40
1.0
 40
1.0
 40
1.0
 10
1236.6662447557
 20
125.6419003834
 30
0.0
 10
1236.6671394422
 20
125.6169397465
 30
0.0
 10
1236.6728430577
 20
125.5917626461
 30
0.0
 10
1236.6826326107
 20
125.5687844279
 30
0.0
1001
ACAD_OBJECT_CHANGE_GUID
1070
     0
1071
        0
1070
     0
1070
     0
1070
     0
1070
     0
1070
     0
1070
     0
1070
     0
1070
     0
1070
     0
1070
     0
1070
     0
1071
        0
1070
     0
1070
     0
1070
     0
1070
     0
1070
     0
1070
     0
1070
     0
1070
     0
1070
     0
1070
     0
  0
SPLINE
  5
455
330
24E
100
AcDbEntity
  8
0
  6
Continuous
 62
     7
100
AcDbSpline
210
0.0
220
0.0
230
1.0
 70
     8
 71
     3
 72
     9
 73
     5
 74
     0
 42
0.0000000001
 43
0.0000000001
 40
0.0
 40
0.0
 40
0.0
 40
0.0
 40
0.4559724869
 40
1.0
 40
1.0
 40
1.0
 40
1.0
 10
1236.6826326107
 20
125.5687844279
 30
0.0
 10
1236.6968474393
 20
125.5354191213
 30
0.0
 10
1236.7480247532
 20
125.4694087323
 30
0.0
 10
1236.8296332752
 20
125.4419003834
 30
0.0
 10
1236.8729041292
 20
125.4419003834
 30
0.0
1001
ACAD_OBJECT_CHANGE_GUID
1070
     0
1071
        0
1070
     0
1070
     0
1070
     0
1070
     0
1070
     0
1070
     0
1070
     0
1070
     0
1070
     0
1070
     0
1070
     0
1071
        0
1070
     0
1070
     0
1070
     0
1070
     0
1070
     0
1070
     0
1070
     0
1070
     0
1070
     0
1070
     0
  0
LINE
  5
456
330
24E
100
AcDbEntity
  8
0
  6
Continuous
 62
     7
100
AcDbLine
 10
1167.2711741998
 20
112.9419003834
 30
0.0
 11
1167.7794118392
 21
113.4419003834
 31
0.0
1001
ACAD
1000
RTMaterial
1005
0
  0
SPLINE
  5
457
330
24E
100
AcDbEntity
  8
0
  6
Continuous
 62
     7
100
AcDbSpline
210
0.0
220
0.0
230
1.0
 70
     8
 71
     3
 72
     9
 73
     5
 74
     0
 42
0.0000000001
 43
0.0000000001
 40
0.0
 40
0.0
 40
0.0
 40
0.0
 40
0.54401794
 40
1.0
 40
1.0
 40
1.0
 40
1.0
 10
1169.5025842546
 20
125.4419003834
 30
0.0
 10
1169.5458503486
 20
125.4419003834
 30
0.0
 10
1169.6274509393
 20
125.4694026071
 30
0.0
 10
1169.6786291856
 20
125.5354018172
 30
0.0
 10
1169.6928466607
 20
125.5687631807
 30
0.0
1001
ACAD_OBJECT_CHANGE_GUID
1070
     0
1071
        0
1070
     0
1070
     0
1070
     0
1070
     0
1070
     0
1070
     0
1070
     0
1070
     0
1070
     0
1070
     0
1070
     0
1071
        0
1070
     0
1070
     0
1070
     0
1070
     0
1070
     0
1070
     0
1070
     0
1070
     0
1070
     0
1070
     0
  0
SPLINE
  5
458
330
24E
100
AcDbEntity
  8
0
  6
Continuous
 62
     7
100
AcDbSpline
210
0.0
220
0.0
230
1.0
 70
     8
 71
     3
 72
     8
 73
     4
 74
     0
 42
0.0000000001
 43
0.0000000001
 40
0.0
 40
0.0
 40
0.0
 40
0.0
 40
1.0
 40
1.0
 40
1.0
 40
1.0
 10
1169.6928466607
 20
125.5687631807
 30
0.0
 10
1169.7026417055
 20
125.5917472932
 30
0.0
 10
1169.7083486702
 20
125.6169321761
 30
0.0
 10
1169.7092436281
 20
125.6419003834
 30
0.0
1001
ACAD_OBJECT_CHANGE_GUID
1070
     0
1071
        0
1070
     0
1070
     0
1070
     0
1070
     0
1070
     0
1070
     0
1070
     0
1070
     0
1070
     0
1070
     0
1070
     0
1071
        0
1070
     0
1070
     0
1070
     0
1070
     0
1070
     0
1070
     0
1070
     0
1070
     0
1070
     0
1070
     0
  0
SPLINE
  5
459
330
24E
100
AcDbEntity
  8
0
  6
Continuous
 62
     7
100
AcDbSpline
210
0.0
220
0.0
230
1.0
 70
     8
 71
     3
 72
     8
 73
     4
 74
     0
 42
0.0000000001
 43
0.0000000001
 40
0.0
 40
0.0
 40
0.0
 40
0.0
 40
1.0
 40
1.0
 40
1.0
 40
1.0
 10
1169.7092436281
 20
127.2419003834
 30
0.0
 10
1169.7083488862
 20
127.2668625654
 30
0.0
 10
1169.7026450943
 20
127.2920415005
 30
0.0
 10
1169.6928537626
 20
127.3150206413
 30
0.0
1001
ACAD_OBJECT_CHANGE_GUID
1070
     0
1071
        0
1070
     0
1070
     0
1070
     0
1070
     0
1070
     0
1070
     0
1070
     0
1070
     0
1070
     0
1070
     0
1070
     0
1071
        0
1070
     0
1070
     0
1070
     0
1070
     0
1070
     0
1070
     0
1070
     0
1070
     0
1070
     0
1070
     0
  0
SPLINE
  5
45A
330
24E
100
AcDbEntity
  8
0
  6
Continuous
 62
     7
100
AcDbSpline
210
0.0
220
0.0
230
1.0
 70
     8
 71
     3
 72
     9
 73
     5
 74
     0
 42
0.0000000001
 43
0.0000000001
 40
0.0
 40
0.0
 40
0.0
 40
0.0
 40
0.4558615332000001
 40
1.0
 40
1.0
 40
1.0
 40
1.0
 10
1169.6928537626
 20
127.3150206413
 30
0.0
 10
1169.6786410126
 20
127.3483763475
 30
0.0
 10
1169.6274707424
 20
127.4143856017
 30
0.0
 10
1169.5458629527
 20
127.4419003834
 30
0.0
 10
1169.5025842546
 20
127.4419003834
 30
0.0
1001
ACAD_OBJECT_CHANGE_GUID
1070
     0
1071
        0
1070
     0
1070
     0
1070
     0
1070
     0
1070
     0
1070
     0
1070
     0
1070
     0
1070
     0
1070
     0
1070
     0
1071
        0
1070
     0
1070
     0
1070
     0
1070
     0
1070
     0
1070
     0
1070
     0
1070
     0
1070
     0
1070
     0
  0
SPLINE
  5
45B
330
24E
100
AcDbEntity
  8
0
  6
Continuous
 62
     7
100
AcDbSpline
210
0.0
220
0.0
230
1.0
 70
     8
 71
     3
 72
     8
 73
     4
 74
     0
 42
0.0000000001
 43
0.0000000001
 40
0.0
 40
0.0
 40
0.0
 40
0.0
 40
1.0
 40
1.0
 40
1.0
 40
1.0
 10
1169.7092436281
 20
123.2419003834
 30
0.0
 10
1169.7083488862
 20
123.2668625654
 30
0.0
 10
1169.7026450943
 20
123.2920415005
 30
0.0
 10
1169.6928537626
 20
123.3150206413
 30
0.0
1001
ACAD_OBJECT_CHANGE_GUID
1070
     0
1071
        0
1070
     0
1070
     0
1070
     0
1070
     0
1070
     0
1070
     0
1070
     0
1070
     0
1070
     0
1070
     0
1070
     0
1071
        0
1070
     0
1070
     0
1070
     0
1070
     0
1070
     0
1070
     0
1070
     0
1070
     0
1070
     0
1070
     0
  0
SPLINE
  5
45C
330
24E
100
AcDbEntity
  8
0
  6
Continuous
 62
     7
100
AcDbSpline
210
0.0
220
0.0
230
1.0
 70
     8
 71
     3
 72
     9
 73
     5
 74
     0
 42
0.0000000001
 43
0.0000000001
 40
0.0
 40
0.0
 40
0.0
 40
0.0
 40
0.4558615332000001
 40
1.0
 40
1.0
 40
1.0
 40
1.0
 10
1169.6928537626
 20
123.3150206413
 30
0.0
 10
1169.6786410126
 20
123.3483763475
 30
0.0
 10
1169.6274707424
 20
123.4143856017
 30
0.0
 10
1169.5458629527
 20
123.4419003834
 30
0.0
 10
1169.5025842546
 20
123.4419003834
 30
0.0
1001
ACAD_OBJECT_CHANGE_GUID
1070
     0
1071
        0
1070
     0
1070
     0
1070
     0
1070
     0
1070
     0
1070
     0
1070
     0
1070
     0
1070
     0
1070
     0
1070
     0
1071
        0
1070
     0
1070
     0
1070
     0
1070
     0
1070
     0
1070
     0
1070
     0
1070
     0
1070
     0
1070
     0
  0
SPLINE
  5
45D
330
24E
100
AcDbEntity
  8
0
  6
Continuous
 62
     7
100
AcDbSpline
210
0.0
220
0.0
230
1.0
 70
     8
 71
     3
 72
     8
 73
     4
 74
     0
 42
0.0000000001
 43
0.0000000001
 40
0.0
 40
0.0
 40
0.0
 40
0.0
 40
1.0
 40
1.0
 40
1.0
 40
1.0
 10
1169.7092436281
 20
119.2419003834
 30
0.0
 10
1169.7083488862
 20
119.2668625654
 30
0.0
 10
1169.7026450943
 20
119.2920415005
 30
0.0
 10
1169.6928537626
 20
119.3150206413
 30
0.0
1001
ACAD_OBJECT_CHANGE_GUID
1070
     0
1071
        0
1070
     0
1070
     0
1070
     0
1070
     0
1070
     0
1070
     0
1070
     0
1070
     0
1070
     0
1070
     0
1070
     0
1071
        0
1070
     0
1070
     0
1070
     0
1070
     0
1070
     0
1070
     0
1070
     0
1070
     0
1070
     0
1070
     0
  0
SPLINE
  5
45E
330
24E
100
AcDbEntity
  8
0
  6
Continuous
 62
     7
100
AcDbSpline
210
0.0
220
0.0
230
1.0
 70
     8
 71
     3
 72
     9
 73
     5
 74
     0
 42
0.0000000001
 43
0.0000000001
 40
0.0
 40
0.0
 40
0.0
 40
0.0
 40
0.4558615332000001
 40
1.0
 40
1.0
 40
1.0
 40
1.0
 10
1169.6928537626
 20
119.3150206413
 30
0.0
 10
1169.6786410126
 20
119.3483763475
 30
0.0
 10
1169.6274707424
 20
119.4143856017
 30
0.0
 10
1169.5458629527
 20
119.4419003834
 30
0.0
 10
1169.5025842546
 20
119.4419003834
 30
0.0
1001
ACAD_OBJECT_CHANGE_GUID
1070
     0
1071
        0
1070
     0
1070
     0
1070
     0
1070
     0
1070
     0
1070
     0
1070
     0
1070
     0
1070
     0
1070
     0
1070
     0
1071
        0
1070
     0
1070
     0
1070
     0
1070
     0
1070
     0
1070
     0
1070
     0
1070
     0
1070
     0
1070
     0
  0
SPLINE
  5
45F
330
24E
100
AcDbEntity
  8
0
  6
Continuous
 62
     7
100
AcDbSpline
210
0.0
220
0.0
230
1.0
 70
     8
 71
     3
 72
     8
 73
     4
 74
     0
 42
0.0000000001
 43
0.0000000001
 40
0.0
 40
0.0
 40
0.0
 40
0.0
 40
1.0
 40
1.0
 40
1.0
 40
1.0
 10
1169.7092436281
 20
115.2419003834
 30
0.0
 10
1169.7083488862
 20
115.2668625654
 30
0.0
 10
1169.7026450943
 20
115.2920415005
 30
0.0
 10
1169.6928537626
 20
115.3150206413
 30
0.0
1001
ACAD_OBJECT_CHANGE_GUID
1070
     0
1071
        0
1070
     0
1070
     0
1070
     0
1070
     0
1070
     0
1070
     0
1070
     0
1070
     0
1070
     0
1070
     0
1070
     0
1071
        0
1070
     0
1070
     0
1070
     0
1070
     0
1070
     0
1070
     0
1070
     0
1070
     0
1070
     0
1070
     0
  0
SPLINE
  5
460
330
24E
100
AcDbEntity
  8
0
  6
Continuous
 62
     7
100
AcDbSpline
210
0.0
220
0.0
230
1.0
 70
     8
 71
     3
 72
     9
 73
     5
 74
     0
 42
0.0000000001
 43
0.0000000001
 40
0.0
 40
0.0
 40
0.0
 40
0.0
 40
0.4651002614000001
 40
1.0
 40
1.0
 40
1.0
 40
1.0
 10
1169.6670659863
 20
115.3593968762
 30
0.0
 10
1169.6493549784
 20
115.382732825
 30
0.0
 10
1169.6003020296
 20
115.4254134371
 30
0.0
 10
1169.5362766411
 20
115.4419003834
 30
0.0
 10
1169.5025842546
 20
115.4419003834
 30
0.0
1001
ACAD_OBJECT_CHANGE_GUID
1070
     0
1071
        0
1070
     0
1070
     0
1070
     0
1070
     0
1070
     0
1070
     0
1070
     0
1070
     0
1070
     0
1070
     0
1070
     0
1071
        0
1070
     0
1070
     0
1070
     0
1070
     0
1070
     0
1070
     0
1070
     0
1070
     0
1070
     0
1070
     0
  0
SPLINE
  5
461
330
24E
100
AcDbEntity
  8
0
  6
Continuous
 62
     7
100
AcDbSpline
210
0.0
220
0.0
230
1.0
 70
     8
 71
     3
 72
     9
 73
     5
 74
     0
 42
0.0000000001
 43
0.0000000001
 40
0.0
 40
0.0
 40
0.0
 40
0.0
 40
0.5001070439000001
 40
1.0
 40
1.0
 40
1.0
 40
1.0
 10
1170.1205398952
 20
113.4419003834
 30
0.0
 10
1170.1556277205
 20
113.4419003834
 30
0.0
 10
1170.2269877624
 20
113.4602646016
 30
0.0
 10
1170.2797490234
 20
113.5120868385
 30
0.0
 10
1170.2973753085
 20
113.5424087069
 30
0.0
1001
ACAD_OBJECT_CHANGE_GUID
1070
     0
1071
        0
1070
     0
1070
     0
1070
     0
1070
     0
1070
     0
1070
     0
1070
     0
1070
     0
1070
     0
1070
     0
1070
     0
1071
        0
1070
     0
1070
     0
1070
     0
1070
     0
1070
     0
1070
     0
1070
     0
1070
     0
1070
     0
1070
     0
  0
SPLINE
  5
462
330
24E
100
AcDbEntity
  8
0
  6
Continuous
 62
     7
100
AcDbSpline
210
0.0
220
0.0
230
1.0
 70
     8
 71
     3
 72
     8
 73
     4
 74
     0
 42
0.0000000001
 43
0.0000000001
 40
0.0
 40
0.0
 40
0.0
 40
0.0
 40
1.0
 40
1.0
 40
1.0
 40
1.0
 10
1170.2973753085
 20
113.5424087069
 30
0.0
 10
1170.3146457541
 20
113.5721184373
 30
0.0
 10
1170.3243907416
 20
113.6075356287
 30
0.0
 10
1170.3243907416
 20
113.6419003834
 30
0.0
1001
ACAD_OBJECT_CHANGE_GUID
1070
     0
1071
        0
1070
     0
1070
     0
1070
     0
1070
     0
1070
     0
1070
     0
1070
     0
1070
     0
1070
     0
1070
     0
1070
     0
1071
        0
1070
     0
1070
     0
1070
     0
1070
     0
1070
     0
1070
     0
1070
     0
1070
     0
1070
     0
1070
     0
  0
SPLINE
  5
463
330
24E
100
AcDbEntity
  8
0
  6
Continuous
 62
     7
100
AcDbSpline
210
0.0
220
0.0
230
1.0
 70
     8
 71
     3
 72
     9
 73
     5
 74
     0
 42
0.0000000001
 43
0.0000000001
 40
0.0
 40
0.0
 40
0.0
 40
0.0
 40
0.54401794
 40
1.0
 40
1.0
 40
1.0
 40
1.0
 10
1169.5025842546
 20
117.4419003834
 30
0.0
 10
1169.5458503486
 20
117.4419003834
 30
0.0
 10
1169.6274509393
 20
117.4694026071
 30
0.0
 10
1169.6786291856
 20
117.5354018172
 30
0.0
 10
1169.6928466607
 20
117.5687631807
 30
0.0
1001
ACAD_OBJECT_CHANGE_GUID
1070
     0
1071
        0
1070
     0
1070
     0
1070
     0
1070
     0
1070
     0
1070
     0
1070
     0
1070
     0
1070
     0
1070
     0
1070
     0
1071
        0
1070
     0
1070
     0
1070
     0
1070
     0
1070
     0
1070
     0
1070
     0
1070
     0
1070
     0
1070
     0
  0
SPLINE
  5
464
330
24E
100
AcDbEntity
  8
0
  6
Continuous
 62
     7
100
AcDbSpline
210
0.0
220
0.0
230
1.0
 70
     8
 71
     3
 72
     8
 73
     4
 74
     0
 42
0.0000000001
 43
0.0000000001
 40
0.0
 40
0.0
 40
0.0
 40
0.0
 40
1.0
 40
1.0
 40
1.0
 40
1.0
 10
1169.6928466607
 20
117.5687631807
 30
0.0
 10
1169.7026417055
 20
117.5917472932
 30
0.0
 10
1169.7083486702
 20
117.6169321761
 30
0.0
 10
1169.7092436281
 20
117.6419003834
 30
0.0
1001
ACAD_OBJECT_CHANGE_GUID
1070
     0
1071
        0
1070
     0
1070
     0
1070
     0
1070
     0
1070
     0
1070
     0
1070
     0
1070
     0
1070
     0
1070
     0
1070
     0
1071
        0
1070
     0
1070
     0
1070
     0
1070
     0
1070
     0
1070
     0
1070
     0
1070
     0
1070
     0
1070
     0
  0
SPLINE
  5
465
330
24E
100
AcDbEntity
  8
0
  6
Continuous
 62
     7
100
AcDbSpline
210
0.0
220
0.0
230
1.0
 70
     8
 71
     3
 72
     9
 73
     5
 74
     0
 42
0.0000000001
 43
0.0000000001
 40
0.0
 40
0.0
 40
0.0
 40
0.0
 40
0.54401794
 40
1.0
 40
1.0
 40
1.0
 40
1.0
 10
1169.5025842546
 20
121.4419003834
 30
0.0
 10
1169.5458503486
 20
121.4419003834
 30
0.0
 10
1169.6274509393
 20
121.4694026071
 30
0.0
 10
1169.6786291856
 20
121.5354018172
 30
0.0
 10
1169.6928466607
 20
121.5687631807
 30
0.0
1001
ACAD_OBJECT_CHANGE_GUID
1070
     0
1071
        0
1070
     0
1070
     0
1070
     0
1070
     0
1070
     0
1070
     0
1070
     0
1070
     0
1070
     0
1070
     0
1070
     0
1071
        0
1070
     0
1070
     0
1070
     0
1070
     0
1070
     0
1070
     0
1070
     0
1070
     0
1070
     0
1070
     0
  0
SPLINE
  5
466
330
24E
100
AcDbEntity
  8
0
  6
Continuous
 62
     7
100
AcDbSpline
210
0.0
220
0.0
230
1.0
 70
     8
 71
     3
 72
     8
 73
     4
 74
     0
 42
0.0000000001
 43
0.0000000001
 40
0.0
 40
0.0
 40
0.0
 40
0.0
 40
1.0
 40
1.0
 40
1.0
 40
1.0
 10
1169.6928466607
 20
121.5687631807
 30
0.0
 10
1169.7026417055
 20
121.5917472932
 30
0.0
 10
1169.7083486702
 20
121.6169321761
 30
0.0
 10
1169.7092436281
 20
121.6419003834
 30
0.0
1001
ACAD_OBJECT_CHANGE_GUID
1070
     0
1071
        0
1070
     0
1070
     0
1070
     0
1070
     0
1070
     0
1070
     0
1070
     0
1070
     0
1070
     0
1070
     0
1070
     0
1071
        0
1070
     0
1070
     0
1070
     0
1070
     0
1070
     0
1070
     0
1070
     0
1070
     0
1070
     0
1070
     0
  0
SPLINE
  5
467
330
24E
100
AcDbEntity
  8
0
  6
Continuous
 62
     7
100
AcDbSpline
210
0.0
220
0.0
230
1.0
 70
     8
 71
     3
 72
    16
 73
    12
 74
     0
 42
0.0000000001
 43
0.0000000001
 40
0.0
 40
0.0
 40
0.0
 40
0.0
 40
0.2754201632
 40
0.4282363743000001
 40
0.5145309351
 40
0.6029189917000001
 40
0.6609973978000001
 40
0.7084541500000001
 40
0.802506917
 40
0.8998327203
 40
1.0
 40
1.0
 40
1.0
 40
1.0
 10
1232.4710950831
 20
121.4419003834
 30
0.0
 10
1232.4266746225
 20
121.4419003834
 30
0.0
 10
1232.3576278175
 20
121.4447717163
 30
0.0
 10
1232.2752237559
 20
121.4596056494
 30
0.0
 10
1232.2260553218
 20
121.4774198576
 30
0.0
 10
1232.1926610997
 20
121.5004397983
 30
0.0
 10
1232.1875914222
 20
121.5343206583
 30
0.0
 10
1232.2026859656
 20
121.5636910104
 30
0.0
 10
1232.2303142419
 20
121.5911117313
 30
0.0
 10
1232.2687408769
 20
121.6183306543
 30
0.0
 10
1232.2963698599
 20
121.6342604957
 30
0.0
 10
1232.3106044532
 20
121.6419003834
 30
0.0
1001
ACAD_OBJECT_CHANGE_GUID
1070
     0
1071
        0
1070
     0
1070
     0
1070
     0
1070
     0
1070
     0
1070
     0
1070
     0
1070
     0
1070
     0
1070
     0
1070
     0
1071
        0
1070
     0
1070
     0
1070
     0
1070
     0
1070
     0
1070
     0
1070
     0
1070
     0
1070
     0
1070
     0
  0
SPLINE
  5
468
330
24E
100
AcDbEntity
  8
0
  6
Continuous
 62
     7
100
AcDbSpline
210
0.0
220
0.0
230
1.0
 70
     8
 71
     3
 72
    13
 73
     9
 74
     0
 42
0.0000000001
 43
0.0000000001
 40
0.0
 40
0.0
 40
0.0
 40
0.0
 40
0.3782765946
 40
0.6999630486
 40
0.8233377014
 40
0.9155472198000001
 40
0.9741003823999999
 40
1.0
 40
1.0
 40
1.0
 40
1.0
 10
1239.5195484411
 20
110.6419003834
 30
0.0
 10
1239.5195484411
 20
110.616368564
 30
0.0
 10
1239.520398817
 20
110.5691930086
 30
0.0
 10
1239.5236301418
 20
110.5134611018
 30
0.0
 10
1239.5274658098
 20
110.4777316165
 30
0.0
 10
1239.5306879445
 20
110.4588683421
 30
0.0
 10
1239.5332892163
 20
110.4484518578
 30
0.0
 10
1239.5365119092
 20
110.4419003834
 30
0.0
 10
1239.5382600067
 20
110.4419003834
 30
0.0
1001
ACAD_OBJECT_CHANGE_GUID
1070
     0
1071
        0
1070
     0
1070
     0
1070
     0
1070
     0
1070
     0
1070
     0
1070
     0
1070
     0
1070
     0
1070
     0
1070
     0
1071
        0
1070
     0
1070
     0
1070
     0
1070
     0
1070
     0
1070
     0
1070
     0
1070
     0
1070
     0
1070
     0
  0
SPLINE
  5
469
330
24E
100
AcDbEntity
  8
0
  6
Continuous
 62
     7
100
AcDbSpline
210
0.0
220
0.0
230
1.0
 70
     8
 71
     3
 72
    16
 73
    12
 74
     0
 42
0.0000000001
 43
0.0000000001
 40
0.0
 40
0.0
 40
0.0
 40
0.0
 40
0.2754201632
 40
0.4282363743000001
 40
0.5145309351
 40
0.6029189917000001
 40
0.6609973978000001
 40
0.7084541500000001
 40
0.802506917
 40
0.8998327203
 40
1.0
 40
1.0
 40
1.0
 40
1.0
 10
1232.4710950831
 20
125.4419003834
 30
0.0
 10
1232.4266746225
 20
125.4419003834
 30
0.0
 10
1232.3576278175
 20
125.4447717163
 30
0.0
 10
1232.2752237559
 20
125.4596056494
 30
0.0
 10
1232.2260553218
 20
125.4774198576
 30
0.0
 10
1232.1926610997
 20
125.5004397983
 30
0.0
 10
1232.1875914222
 20
125.5343206583
 30
0.0
 10
1232.2026859656
 20
125.5636910104
 30
0.0
 10
1232.2303142419
 20
125.5911117313
 30
0.0
 10
1232.2687408769
 20
125.6183306543
 30
0.0
 10
1232.2963698599
 20
125.6342604957
 30
0.0
 10
1232.3106044532
 20
125.6419003834
 30
0.0
1001
ACAD_OBJECT_CHANGE_GUID
1070
     0
1071
        0
1070
     0
1070
     0
1070
     0
1070
     0
1070
     0
1070
     0
1070
     0
1070
     0
1070
     0
1070
     0
1070
     0
1071
        0
1070
     0
1070
     0
1070
     0
1070
     0
1070
     0
1070
     0
1070
     0
1070
     0
1070
     0
1070
     0
  0
SPLINE
  5
46A
330
24E
100
AcDbEntity
  8
0
  6
Continuous
 62
     7
100
AcDbSpline
210
0.0
220
0.0
230
1.0
 70
     8
 71
     3
 72
    12
 73
     8
 74
     0
 42
0.0000000001
 43
0.0000000001
 40
0.0
 40
0.0
 40
0.0
 40
0.0
 40
0.0271382135
 40
0.0859533952
 40
0.3011606847
 40
0.6223143792000001
 40
1.0
 40
1.0
 40
1.0
 40
1.0
 10
1239.4997256856
 20
112.0419003834
 30
0.0
 10
1239.5015609471
 20
112.0419003834
 30
0.0
 10
1239.505234005
 20
112.035613023
 30
0.0
 10
1239.5099487023
 20
112.0173358157
 30
0.0
 10
1239.5152221278
 20
111.9759039566
 30
0.0
 10
1239.5186396117
 20
111.9149182596
 30
0.0
 10
1239.5195484411
 20
111.8674419277
 30
0.0
 10
1239.5195484411
 20
111.8419003834
 30
0.0
1001
ACAD_OBJECT_CHANGE_GUID
1070
     0
1071
        0
1070
     0
1070
     0
1070
     0
1070
     0
1070
     0
1070
     0
1070
     0
1070
     0
1070
     0
1070
     0
1070
     0
1071
        0
1070
     0
1070
     0
1070
     0
1070
     0
1070
     0
1070
     0
1070
     0
1070
     0
1070
     0
1070
     0
  0
SPLINE
  5
46B
330
24E
100
AcDbEntity
  8
0
  6
Continuous
 62
     7
100
AcDbSpline
210
0.0
220
0.0
230
1.0
 70
     8
 71
     3
 72
    12
 73
     8
 74
     0
 42
0.0000000001
 43
0.0000000001
 40
0.0
 40
0.0
 40
0.0
 40
0.0
 40
0.1377710722
 40
0.2643414787
 40
0.5113861139
 40
0.7560922178000001
 40
1.0
 40
1.0
 40
1.0
 40
1.0
 10
1183.9305970203
 20
127.2419003834
 30
0.0
 10
1183.9305970203
 20
127.2789368161
 30
0.0
 10
1184.0039884761
 20
127.3304261074
 30
0.0
 10
1184.1260698809
 20
127.3761526804
 30
0.0
 10
1184.292178096
 20
127.4136751434
 30
0.0
 10
1184.4876697125
 20
127.4365651672
 30
0.0
 10
1184.6193180626
 20
127.4419003834
 30
0.0
 10
1184.6848867919
 20
127.4419003834
 30
0.0
1001
ACAD_OBJECT_CHANGE_GUID
1070
     0
1071
        0
1070
     0
1070
     0
1070
     0
1070
     0
1070
     0
1070
     0
1070
     0
1070
     0
1070
     0
1070
     0
1070
     0
1071
        0
1070
     0
1070
     0
1070
     0
1070
     0
1070
     0
1070
     0
1070
     0
1070
     0
1070
     0
1070
     0
  0
SPLINE
  5
46C
330
24E
100
AcDbEntity
  8
0
  6
Continuous
 62
     7
100
AcDbSpline
210
0.0
220
0.0
230
1.0
 70
     8
 71
     3
 72
    22
 73
    18
 74
     0
 42
0.0000000001
 43
0.0000000001
 40
0.0
 40
0.0
 40
0.0
 40
0.0
 40
0.1107560458
 40
0.1642860394
 40
0.2161044695
 40
0.2655628743
 40
0.3114714609
 40
0.3521958778
 40
0.3745266355
 40
0.4065645544
 40
0.4462026546000001
 40
0.4860681560000001
 40
0.5640984758
 40
0.6398521705000001
 40
0.713932811
 40
0.8585965359000001
 40
1.0
 40
1.0
 40
1.0
 40
1.0
 10
1186.509154306
 20
125.4419003834
 30
0.0
 10
1186.488206412
 20
125.4419003834
 30
0.0
 10
1186.4571259826
 20
125.4425499678
 30
0.0
 10
1186.4163340876
 20
125.4455457906
 30
0.0
 10
1186.3873081866
 20
125.449095668
 30
0.0
 10
1186.3597717308
 20
125.45448695
 30
0.0
 10
1186.3358027929
 20
125.4623840353
 30
0.0
 10
1186.3166188729
 20
125.4746919285
 30
0.0
 10
1186.3146619212
 20
125.4942251469
 30
0.0
 10
1186.3260272484
 20
125.5091571592
 30
0.0
 10
1186.3415236085
 20
125.5232011761
 30
0.0
 10
1186.3667126075
 20
125.5394205577
 30
0.0
 10
1186.3990620414
 20
125.5565708299
 30
0.0
 10
1186.4384509675
 20
125.5741446739
 30
0.0
 10
1186.4901422291
 20
125.5949007604
 30
0.0
 10
1186.5543663297
 20
125.6176786233
 30
0.0
 10
1186.6059262155
 20
125.6340953814
 30
0.0
 10
1186.6315063885
 20
125.6419003834
 30
0.0
1001
ACAD_OBJECT_CHANGE_GUID
1070
     0
1071
        0
1070
     0
1070
     0
1070
     0
1070
     0
1070
     0
1070
     0
1070
     0
1070
     0
1070
     0
1070
     0
1070
     0
1071
        0
1070
     0
1070
     0
1070
     0
1070
     0
1070
     0
1070
     0
1070
     0
1070
     0
1070
     0
1070
     0
  0
SPLINE
  5
46D
330
24E
100
AcDbEntity
  8
0
  6
Continuous
 62
     7
100
AcDbSpline
210
0.0
220
0.0
230
1.0
 70
     8
 71
     3
 72
    10
 73
     6
 74
     0
 42
0.0000000001
 43
0.0000000001
 40
0.0
 40
0.0
 40
0.0
 40
0.0
 40
0.6742225617000001
 40
0.8885076073999998
 40
1.0
 40
1.0
 40
1.0
 40
1.0
 10
1167.6912654933
 20
111.6419003834
 30
0.0
 10
1167.6912654933
 20
111.689627093
 30
0.0
 10
1167.6970651836
 20
111.7545721285
 30
0.0
 10
1167.714399767
 20
111.8201814935
 30
0.0
 10
1167.7318618244
 20
111.8419003834
 30
0.0
 10
1167.7397541219
 20
111.8419003834
 30
0.0
1001
ACAD_OBJECT_CHANGE_GUID
1070
     0
1071
        0
1070
     0
1070
     0
1070
     0
1070
     0
1070
     0
1070
     0
1070
     0
1070
     0
1070
     0
1070
     0
1070
     0
1071
        0
1070
     0
1070
     0
1070
     0
1070
     0
1070
     0
1070
     0
1070
     0
1070
     0
1070
     0
1070
     0
  0
SPLINE
  5
46E
330
24E
100
AcDbEntity
  8
0
  6
Continuous
 62
     7
100
AcDbSpline
210
0.0
220
0.0
230
1.0
 70
     8
 71
     3
 72
    12
 73
     8
 74
     0
 42
0.0000000001
 43
0.0000000001
 40
0.0
 40
0.0
 40
0.0
 40
0.0
 40
0.1377710722
 40
0.2643414787
 40
0.5113861139
 40
0.7560922178000001
 40
1.0
 40
1.0
 40
1.0
 40
1.0
 10
1183.9305970203
 20
123.2419003834
 30
0.0
 10
1183.9305970203
 20
123.2789368161
 30
0.0
 10
1184.0039884761
 20
123.3304261074
 30
0.0
 10
1184.1260698809
 20
123.3761526804
 30
0.0
 10
1184.292178096
 20
123.4136751434
 30
0.0
 10
1184.4876697125
 20
123.4365651672
 30
0.0
 10
1184.6193180626
 20
123.4419003834
 30
0.0
 10
1184.6848867919
 20
123.4419003834
 30
0.0
1001
ACAD_OBJECT_CHANGE_GUID
1070
     0
1071
        0
1070
     0
1070
     0
1070
     0
1070
     0
1070
     0
1070
     0
1070
     0
1070
     0
1070
     0
1070
     0
1070
     0
1071
        0
1070
     0
1070
     0
1070
     0
1070
     0
1070
     0
1070
     0
1070
     0
1070
     0
1070
     0
1070
     0
  0
SPLINE
  5
46F
330
24E
100
AcDbEntity
  8
0
  6
Continuous
 62
     7
100
AcDbSpline
210
0.0
220
0.0
230
1.0
 70
     8
 71
     3
 72
    22
 73
    18
 74
     0
 42
0.0000000001
 43
0.0000000001
 40
0.0
 40
0.0
 40
0.0
 40
0.0
 40
0.1107560458
 40
0.1642860394
 40
0.2161044695
 40
0.2655628743
 40
0.3114714609
 40
0.3521958778
 40
0.3745266355
 40
0.4065645544
 40
0.4462026546000001
 40
0.4860681560000001
 40
0.5640984758
 40
0.6398521705000001
 40
0.713932811
 40
0.8585965359000001
 40
1.0
 40
1.0
 40
1.0
 40
1.0
 10
1186.509154306
 20
121.4419003834
 30
0.0
 10
1186.488206412
 20
121.4419003834
 30
0.0
 10
1186.4571259826
 20
121.4425499678
 30
0.0
 10
1186.4163340876
 20
121.4455457906
 30
0.0
 10
1186.3873081866
 20
121.449095668
 30
0.0
 10
1186.3597717308
 20
121.45448695
 30
0.0
 10
1186.3358027929
 20
121.4623840353
 30
0.0
 10
1186.3166188729
 20
121.4746919285
 30
0.0
 10
1186.3146619212
 20
121.4942251469
 30
0.0
 10
1186.3260272484
 20
121.5091571592
 30
0.0
 10
1186.3415236085
 20
121.5232011761
 30
0.0
 10
1186.3667126075
 20
121.5394205577
 30
0.0
 10
1186.3990620414
 20
121.5565708299
 30
0.0
 10
1186.4384509675
 20
121.5741446739
 30
0.0
 10
1186.4901422291
 20
121.5949007604
 30
0.0
 10
1186.5543663297
 20
121.6176786233
 30
0.0
 10
1186.6059262155
 20
121.6340953814
 30
0.0
 10
1186.6315063885
 20
121.6419003834
 30
0.0
1001
ACAD_OBJECT_CHANGE_GUID
1070
     0
1071
        0
1070
     0
1070
     0
1070
     0
1070
     0
1070
     0
1070
     0
1070
     0
1070
     0
1070
     0
1070
     0
1070
     0
1071
        0
1070
     0
1070
     0
1070
     0
1070
     0
1070
     0
1070
     0
1070
     0
1070
     0
1070
     0
1070
     0
  0
SPLINE
  5
470
330
24E
100
AcDbEntity
  8
0
  6
Continuous
 62
     7
100
AcDbSpline
210
0.0
220
0.0
230
1.0
 70
     8
 71
     3
 72
    12
 73
     8
 74
     0
 42
0.0000000001
 43
0.0000000001
 40
0.0
 40
0.0
 40
0.0
 40
0.0
 40
0.1377710722
 40
0.2643414787
 40
0.5113861139
 40
0.7560922178000001
 40
1.0
 40
1.0
 40
1.0
 40
1.0
 10
1183.9305970203
 20
119.2419003834
 30
0.0
 10
1183.9305970203
 20
119.2789368161
 30
0.0
 10
1184.0039884761
 20
119.3304261074
 30
0.0
 10
1184.1260698809
 20
119.3761526804
 30
0.0
 10
1184.292178096
 20
119.4136751434
 30
0.0
 10
1184.4876697125
 20
119.4365651672
 30
0.0
 10
1184.6193180626
 20
119.4419003834
 30
0.0
 10
1184.6848867919
 20
119.4419003834
 30
0.0
1001
ACAD_OBJECT_CHANGE_GUID
1070
     0
1071
        0
1070
     0
1070
     0
1070
     0
1070
     0
1070
     0
1070
     0
1070
     0
1070
     0
1070
     0
1070
     0
1070
     0
1071
        0
1070
     0
1070
     0
1070
     0
1070
     0
1070
     0
1070
     0
1070
     0
1070
     0
1070
     0
1070
     0
  0
SPLINE
  5
471
330
24E
100
AcDbEntity
  8
0
  6
Continuous
 62
     7
100
AcDbSpline
210
0.0
220
0.0
230
1.0
 70
     8
 71
     3
 72
    22
 73
    18
 74
     0
 42
0.0000000001
 43
0.0000000001
 40
0.0
 40
0.0
 40
0.0
 40
0.0
 40
0.1414069487
 40
0.2860733317
 40
0.3601587043999999
 40
0.4359051578
 40
0.5138834091
 40
0.5537626502000001
 40
0.5936866497
 40
0.6251930318
 40
0.6478689517000001
 40
0.6885540623999999
 40
0.7344148709000001
 40
0.7838930696
 40
0.8357080270999999
 40
0.8892412651999999
 40
1.0
 40
1.0
 40
1.0
 40
1.0
 10
1219.7439819953
 20
113.6419003834
 30
0.0
 10
1219.7695617768
 20
113.6340955009
 30
0.0
 10
1219.8211225519
 20
113.6176815179
 30
0.0
 10
1219.8853390094
 20
113.5948945464
 30
0.0
 10
1219.9370425895
 20
113.5741582182
 30
0.0
 10
1219.9763767004
 20
113.5565336427
 30
0.0
 10
1220.0088492072
 20
113.53954615
 30
0.0
 10
1220.0338500867
 20
113.5230634559
 30
0.0
 10
1220.049691128
 20
113.509326894
 30
0.0
 10
1220.0605112897
 20
113.4941751495
 30
0.0
 10
1220.0591176806
 20
113.4746363971
 30
0.0
 10
1220.0395689535
 20
113.4624456819
 30
0.0
 10
1220.0157427629
 20
113.4544552572
 30
0.0
 10
1219.9881715376
 20
113.4491062642
 30
0.0
 10
1219.9591554042
 20
113.4455420046
 30
0.0
 10
1219.9183602386
 20
113.4425523184
 30
0.0
 10
1219.8872816436
 20
113.4419003834
 30
0.0
 10
1219.8663340778
 20
113.4419003834
 30
0.0
1001
ACAD_OBJECT_CHANGE_GUID
1070
     0
1071
        0
1070
     0
1070
     0
1070
     0
1070
     0
1070
     0
1070
     0
1070
     0
1070
     0
1070
     0
1070
     0
1070
     0
1071
        0
1070
     0
1070
     0
1070
     0
1070
     0
1070
     0
1070
     0
1070
     0
1070
     0
1070
     0
1070
     0
  0
SPLINE
  5
472
330
24E
100
AcDbEntity
  8
0
  6
Continuous
 62
     7
100
AcDbSpline
210
0.0
220
0.0
230
1.0
 70
     8
 71
     3
 72
     9
 73
     5
 74
     0
 42
0.0000000001
 43
0.0000000001
 40
0.0
 40
0.0
 40
0.0
 40
0.0
 40
0.4572166348
 40
1.0
 40
1.0
 40
1.0
 40
1.0
 10
1207.7924894992
 20
113.4419003834
 30
0.0
 10
1207.74591919
 20
113.4419003834
 30
0.0
 10
1207.6406147524
 20
113.4797806833
 30
0.0
 10
1207.5929429687
 20
113.5866145796
 30
0.0
 10
1207.5929429687
 20
113.6419003834
 30
0.0
1001
ACAD_OBJECT_CHANGE_GUID
1070
     0
1071
        0
1070
     0
1070
     0
1070
     0
1070
     0
1070
     0
1070
     0
1070
     0
1070
     0
1070
     0
1070
     0
1070
     0
1071
        0
1070
     0
1070
     0
1070
     0
1070
     0
1070
     0
1070
     0
1070
     0
1070
     0
1070
     0
1070
     0
  0
SPLINE
  5
473
330
24E
100
AcDbEntity
  8
0
  6
Continuous
 62
     7
100
AcDbSpline
210
0.0
220
0.0
230
1.0
 70
     8
 71
     3
 72
    22
 73
    18
 74
     0
 42
0.0000000001
 43
0.0000000001
 40
0.0
 40
0.0
 40
0.0
 40
0.0
 40
0.1414069582
 40
0.2860733521
 40
0.3601587281
 40
0.4359051856000001
 40
0.5138835347000001
 40
0.5537626305
 40
0.5936865667
 40
0.6251933524000001
 40
0.6478689439
 40
0.6885540054000002
 40
0.7344148715000001
 40
0.7838930529000001
 40
0.8357080184999999
 40
0.8892412579
 40
1.0
 40
1.0
 40
1.0
 40
1.0
 10
1219.7439819953
 20
117.6419003834
 30
0.0
 10
1219.7695617786
 20
117.6340955003
 30
0.0
 10
1219.8211225557
 20
117.6176815139
 30
0.0
 10
1219.8853390246
 20
117.5948945493
 30
0.0
 10
1219.9370425937
 20
117.5741582017
 30
0.0
 10
1219.9763767658
 20
117.556533668
 30
0.0
 10
1220.0088491367
 20
117.5395460411
 30
0.0
 10
1220.0338502339
 20
117.5230635828
 30
0.0
 10
1220.0496908464
 20
117.5093266801
 30
0.0
 10
1220.0605117193
 20
117.4941751839
 30
0.0
 10
1220.0591172975
 20
117.4746364861
 30
0.0
 10
1220.0395691061
 20
117.4624456013
 30
0.0
 10
1220.0157427317
 20
117.4544552958
 30
0.0
 10
1219.988171556
 20
117.4491062529
 30
0.0
 10
1219.9591554069
 20
117.4455420091
 30
0.0
 10
1219.9183602441
 20
117.4425523158
 30
0.0
 10
1219.887281645
 20
117.4419003834
 30
0.0
 10
1219.8663340778
 20
117.4419003834
 30
0.0
1001
ACAD_OBJECT_CHANGE_GUID
1070
     0
1071
        0
1070
     0
1070
     0
1070
     0
1070
     0
1070
     0
1070
     0
1070
     0
1070
     0
1070
     0
1070
     0
1070
     0
1071
        0
1070
     0
1070
     0
1070
     0
1070
     0
1070
     0
1070
     0
1070
     0
1070
     0
1070
     0
1070
     0
  0
SPLINE
  5
474
330
24E
100
AcDbEntity
  8
0
  6
Continuous
 62
     7
100
AcDbSpline
210
0.0
220
0.0
230
1.0
 70
     8
 71
     3
 72
    10
 73
     6
 74
     0
 42
0.0000000001
 43
0.0000000001
 40
0.0
 40
0.0
 40
0.0
 40
0.0
 40
0.1114923926
 40
0.3257774383
 40
1.0
 40
1.0
 40
1.0
 40
1.0
 10
1167.7397541219
 20
110.0419003834
 30
0.0
 10
1167.7318618244
 20
110.0419003834
 30
0.0
 10
1167.714399767
 20
110.0636192734
 30
0.0
 10
1167.6970651836
 20
110.1292286384
 30
0.0
 10
1167.6912654933
 20
110.1941736739
 30
0.0
 10
1167.6912654933
 20
110.2419003834
 30
0.0
1001
ACAD_OBJECT_CHANGE_GUID
1070
     0
1071
        0
1070
     0
1070
     0
1070
     0
1070
     0
1070
     0
1070
     0
1070
     0
1070
     0
1070
     0
1070
     0
1070
     0
1071
        0
1070
     0
1070
     0
1070
     0
1070
     0
1070
     0
1070
     0
1070
     0
1070
     0
1070
     0
1070
     0
  0
SPLINE
  5
475
330
24E
100
AcDbEntity
  8
0
  6
Continuous
 62
     7
100
AcDbSpline
210
0.0
220
0.0
230
1.0
 70
     8
 71
     3
 72
    22
 73
    18
 74
     0
 42
0.0000000001
 43
0.0000000001
 40
0.0
 40
0.0
 40
0.0
 40
0.0
 40
0.1107560458
 40
0.1642860394
 40
0.2161044695
 40
0.2655628743
 40
0.3114714609
 40
0.3521958778
 40
0.3745266355
 40
0.4065645544
 40
0.4462026546000001
 40
0.4860681560000001
 40
0.5640984758
 40
0.6398521705000001
 40
0.713932811
 40
0.8585965359000001
 40
1.0
 40
1.0
 40
1.0
 40
1.0
 10
1186.509154306
 20
117.4419003834
 30
0.0
 10
1186.488206412
 20
117.4419003834
 30
0.0
 10
1186.4571259826
 20
117.4425499678
 30
0.0
 10
1186.4163340876
 20
117.4455457906
 30
0.0
 10
1186.3873081866
 20
117.449095668
 30
0.0
 10
1186.3597717308
 20
117.45448695
 30
0.0
 10
1186.3358027929
 20
117.4623840353
 30
0.0
 10
1186.3166188729
 20
117.4746919285
 30
0.0
 10
1186.3146619212
 20
117.4942251469
 30
0.0
 10
1186.3260272484
 20
117.5091571592
 30
0.0
 10
1186.3415236085
 20
117.5232011761
 30
0.0
 10
1186.3667126075
 20
117.5394205577
 30
0.0
 10
1186.3990620414
 20
117.5565708299
 30
0.0
 10
1186.4384509675
 20
117.5741446739
 30
0.0
 10
1186.4901422291
 20
117.5949007604
 30
0.0
 10
1186.5543663297
 20
117.6176786233
 30
0.0
 10
1186.6059262155
 20
117.6340953814
 30
0.0
 10
1186.6315063885
 20
117.6419003834
 30
0.0
1001
ACAD_OBJECT_CHANGE_GUID
1070
     0
1071
        0
1070
     0
1070
     0
1070
     0
1070
     0
1070
     0
1070
     0
1070
     0
1070
     0
1070
     0
1070
     0
1070
     0
1071
        0
1070
     0
1070
     0
1070
     0
1070
     0
1070
     0
1070
     0
1070
     0
1070
     0
1070
     0
1070
     0
  0
SPLINE
  5
476
330
24E
100
AcDbEntity
  8
0
  6
Continuous
 62
     7
100
AcDbSpline
210
0.0
220
0.0
230
1.0
 70
     8
 71
     3
 72
     9
 73
     5
 74
     0
 42
0.0000000001
 43
0.0000000001
 40
0.0
 40
0.0
 40
0.0
 40
0.0
 40
0.4572166086000001
 40
1.0
 40
1.0
 40
1.0
 40
1.0
 10
1207.7924894992
 20
117.4419003834
 30
0.0
 10
1207.7459191927
 20
117.4419003834
 30
0.0
 10
1207.6406147556
 20
117.4797806802
 30
0.0
 10
1207.5929429687
 20
117.586614577
 30
0.0
 10
1207.5929429687
 20
117.6419003834
 30
0.0
1001
ACAD_OBJECT_CHANGE_GUID
1070
     0
1071
        0
1070
     0
1070
     0
1070
     0
1070
     0
1070
     0
1070
     0
1070
     0
1070
     0
1070
     0
1070
     0
1070
     0
1071
        0
1070
     0
1070
     0
1070
     0
1070
     0
1070
     0
1070
     0
1070
     0
1070
     0
1070
     0
1070
     0
  0
SPLINE
  5
477
330
24E
100
AcDbEntity
  8
0
  6
Continuous
 62
     7
100
AcDbSpline
210
0.0
220
0.0
230
1.0
 70
     8
 71
     3
 72
    22
 73
    18
 74
     0
 42
0.0000000001
 43
0.0000000001
 40
0.0
 40
0.0
 40
0.0
 40
0.0
 40
0.1414069582
 40
0.2860733521
 40
0.3601587281
 40
0.4359051856000001
 40
0.5138835347000001
 40
0.5537626305
 40
0.5936865667
 40
0.6251933524000001
 40
0.6478689439
 40
0.6885540054000002
 40
0.7344148715000001
 40
0.7838930529000001
 40
0.8357080184999999
 40
0.8892412579
 40
1.0
 40
1.0
 40
1.0
 40
1.0
 10
1219.7439819953
 20
121.6419003834
 30
0.0
 10
1219.7695617786
 20
121.6340955003
 30
0.0
 10
1219.8211225557
 20
121.6176815139
 30
0.0
 10
1219.8853390246
 20
121.5948945493
 30
0.0
 10
1219.9370425937
 20
121.5741582017
 30
0.0
 10
1219.9763767658
 20
121.556533668
 30
0.0
 10
1220.0088491367
 20
121.5395460411
 30
0.0
 10
1220.0338502339
 20
121.5230635828
 30
0.0
 10
1220.0496908464
 20
121.5093266801
 30
0.0
 10
1220.0605117193
 20
121.4941751839
 30
0.0
 10
1220.0591172975
 20
121.4746364861
 30
0.0
 10
1220.0395691061
 20
121.4624456013
 30
0.0
 10
1220.0157427317
 20
121.4544552958
 30
0.0
 10
1219.988171556
 20
121.4491062529
 30
0.0
 10
1219.9591554069
 20
121.4455420091
 30
0.0
 10
1219.9183602441
 20
121.4425523158
 30
0.0
 10
1219.887281645
 20
121.4419003834
 30
0.0
 10
1219.8663340778
 20
121.4419003834
 30
0.0
1001
ACAD_OBJECT_CHANGE_GUID
1070
     0
1071
        0
1070
     0
1070
     0
1070
     0
1070
     0
1070
     0
1070
     0
1070
     0
1070
     0
1070
     0
1070
     0
1070
     0
1071
        0
1070
     0
1070
     0
1070
     0
1070
     0
1070
     0
1070
     0
1070
     0
1070
     0
1070
     0
1070
     0
  0
SPLINE
  5
478
330
24E
100
AcDbEntity
  8
0
  6
Continuous
 62
     7
100
AcDbSpline
210
0.0
220
0.0
230
1.0
 70
     8
 71
     3
 72
    12
 73
     8
 74
     0
 42
0.0000000001
 43
0.0000000001
 40
0.0
 40
0.0
 40
0.0
 40
0.0
 40
0.1377710722
 40
0.2643414787
 40
0.5113861139
 40
0.7560922178000001
 40
1.0
 40
1.0
 40
1.0
 40
1.0
 10
1183.9305970203
 20
115.2419003834
 30
0.0
 10
1183.9305970203
 20
115.2789368161
 30
0.0
 10
1184.0039884761
 20
115.3304261074
 30
0.0
 10
1184.1260698809
 20
115.3761526804
 30
0.0
 10
1184.292178096
 20
115.4136751434
 30
0.0
 10
1184.4876697125
 20
115.4365651672
 30
0.0
 10
1184.6193180626
 20
115.4419003834
 30
0.0
 10
1184.6848867919
 20
115.4419003834
 30
0.0
1001
ACAD_OBJECT_CHANGE_GUID
1070
     0
1071
        0
1070
     0
1070
     0
1070
     0
1070
     0
1070
     0
1070
     0
1070
     0
1070
     0
1070
     0
1070
     0
1070
     0
1071
        0
1070
     0
1070
     0
1070
     0
1070
     0
1070
     0
1070
     0
1070
     0
1070
     0
1070
     0
1070
     0
  0
SPLINE
  5
479
330
24E
100
AcDbEntity
  8
0
  6
Continuous
 62
     7
100
AcDbSpline
210
0.0
220
0.0
230
1.0
 70
     8
 71
     3
 72
     9
 73
     5
 74
     0
 42
0.0000000001
 43
0.0000000001
 40
0.0
 40
0.0
 40
0.0
 40
0.0
 40
0.4572166086000001
 40
1.0
 40
1.0
 40
1.0
 40
1.0
 10
1207.7924894992
 20
121.4419003834
 30
0.0
 10
1207.7459191927
 20
121.4419003834
 30
0.0
 10
1207.6406147556
 20
121.4797806802
 30
0.0
 10
1207.5929429687
 20
121.586614577
 30
0.0
 10
1207.5929429687
 20
121.6419003834
 30
0.0
1001
ACAD_OBJECT_CHANGE_GUID
1070
     0
1071
        0
1070
     0
1070
     0
1070
     0
1070
     0
1070
     0
1070
     0
1070
     0
1070
     0
1070
     0
1070
     0
1070
     0
1071
        0
1070
     0
1070
     0
1070
     0
1070
     0
1070
     0
1070
     0
1070
     0
1070
     0
1070
     0
1070
     0
  0
SPLINE
  5
47A
330
24E
100
AcDbEntity
  8
0
  6
Continuous
 62
     7
100
AcDbSpline
210
0.0
220
0.0
230
1.0
 70
     8
 71
     3
 72
    22
 73
    18
 74
     0
 42
0.0000000001
 43
0.0000000001
 40
0.0
 40
0.0
 40
0.0
 40
0.0
 40
0.1107560459
 40
0.1642860396
 40
0.2161044696
 40
0.2655628746
 40
0.311471461
 40
0.3521958772
 40
0.3745266379
 40
0.4065645520000001
 40
0.4462026552000001
 40
0.4860681557000001
 40
0.5640984756
 40
0.6398521702000001
 40
0.7139328107999999
 40
0.8585965357999999
 40
1.0
 40
1.0
 40
1.0
 40
1.0
 10
1186.509154306
 20
113.4419003834
 30
0.0
 10
1186.488206412
 20
113.4419003834
 30
0.0
 10
1186.4571259826
 20
113.4425499678
 30
0.0
 10
1186.4163340876
 20
113.4455457906
 30
0.0
 10
1186.3873081867
 20
113.4490956681
 30
0.0
 10
1186.3597717308
 20
113.4544869498
 30
0.0
 10
1186.3358027934
 20
113.4623840355
 30
0.0
 10
1186.3166188722
 20
113.4746919287
 30
0.0
 10
1186.3146619227
 20
113.4942251469
 30
0.0
 10
1186.3260272473
 20
113.5091571605
 30
0.0
 10
1186.3415236092
 20
113.5232011751
 30
0.0
 10
1186.3667126071
 20
113.5394205586
 30
0.0
 10
1186.3990620417
 20
113.5565708296
 30
0.0
 10
1186.4384509675
 20
113.574144674
 30
0.0
 10
1186.4901422292
 20
113.5949007603
 30
0.0
 10
1186.5543663298
 20
113.6176786233
 30
0.0
 10
1186.6059262155
 20
113.6340953814
 30
0.0
 10
1186.6315063885
 20
113.6419003834
 30
0.0
1001
ACAD_OBJECT_CHANGE_GUID
1070
     0
1071
        0
1070
     0
1070
     0
1070
     0
1070
     0
1070
     0
1070
     0
1070
     0
1070
     0
1070
     0
1070
     0
1070
     0
1071
        0
1070
     0
1070
     0
1070
     0
1070
     0
1070
     0
1070
     0
1070
     0
1070
     0
1070
     0
1070
     0
  0
SPLINE
  5
47B
330
24E
100
AcDbEntity
  8
0
  6
Continuous
 62
     7
100
AcDbSpline
210
0.0
220
0.0
230
1.0
 70
     8
 71
     3
 72
    22
 73
    18
 74
     0
 42
0.0000000001
 43
0.0000000001
 40
0.0
 40
0.0
 40
0.0
 40
0.0
 40
0.1414069582
 40
0.2860733521
 40
0.3601587281
 40
0.4359051856000001
 40
0.5138835347000001
 40
0.5537626305
 40
0.5936865667
 40
0.6251933524000001
 40
0.6478689439
 40
0.6885540054000002
 40
0.7344148715000001
 40
0.7838930529000001
 40
0.8357080184999999
 40
0.8892412579
 40
1.0
 40
1.0
 40
1.0
 40
1.0
 10
1219.7439819953
 20
125.6419003834
 30
0.0
 10
1219.7695617786
 20
125.6340955003
 30
0.0
 10
1219.8211225557
 20
125.6176815139
 30
0.0
 10
1219.8853390246
 20
125.5948945493
 30
0.0
 10
1219.9370425937
 20
125.5741582017
 30
0.0
 10
1219.9763767658
 20
125.556533668
 30
0.0
 10
1220.0088491367
 20
125.5395460411
 30
0.0
 10
1220.0338502339
 20
125.5230635828
 30
0.0
 10
1220.0496908464
 20
125.5093266801
 30
0.0
 10
1220.0605117193
 20
125.4941751839
 30
0.0
 10
1220.0591172975
 20
125.4746364861
 30
0.0
 10
1220.0395691061
 20
125.4624456013
 30
0.0
 10
1220.0157427317
 20
125.4544552958
 30
0.0
 10
1219.988171556
 20
125.4491062529
 30
0.0
 10
1219.9591554069
 20
125.4455420091
 30
0.0
 10
1219.9183602441
 20
125.4425523158
 30
0.0
 10
1219.887281645
 20
125.4419003834
 30
0.0
 10
1219.8663340778
 20
125.4419003834
 30
0.0
1001
ACAD_OBJECT_CHANGE_GUID
1070
     0
1071
        0
1070
     0
1070
     0
1070
     0
1070
     0
1070
     0
1070
     0
1070
     0
1070
     0
1070
     0
1070
     0
1070
     0
1071
        0
1070
     0
1070
     0
1070
     0
1070
     0
1070
     0
1070
     0
1070
     0
1070
     0
1070
     0
1070
     0
  0
SPLINE
  5
47C
330
24E
100
AcDbEntity
  8
0
  6
Continuous
 62
     7
100
AcDbSpline
210
0.0
220
0.0
230
1.0
 70
     8
 71
     3
 72
     9
 73
     5
 74
     0
 42
0.0000000001
 43
0.0000000001
 40
0.0
 40
0.0
 40
0.0
 40
0.0
 40
0.4572166086000001
 40
1.0
 40
1.0
 40
1.0
 40
1.0
 10
1207.7924894992
 20
125.4419003834
 30
0.0
 10
1207.7459191927
 20
125.4419003834
 30
0.0
 10
1207.6406147556
 20
125.4797806802
 30
0.0
 10
1207.5929429687
 20
125.586614577
 30
0.0
 10
1207.5929429687
 20
125.6419003834
 30
0.0
1001
ACAD_OBJECT_CHANGE_GUID
1070
     0
1071
        0
1070
     0
1070
     0
1070
     0
1070
     0
1070
     0
1070
     0
1070
     0
1070
     0
1070
     0
1070
     0
1070
     0
1071
        0
1070
     0
1070
     0
1070
     0
1070
     0
1070
     0
1070
     0
1070
     0
1070
     0
1070
     0
1070
     0
  0
SPLINE
  5
47D
330
24E
100
AcDbEntity
  8
0
  6
Continuous
 62
     7
100
AcDbSpline
210
0.0
220
0.0
230
1.0
 70
     8
 71
     3
 72
    16
 73
    12
 74
     0
 42
0.0000000001
 43
0.0000000001
 40
0.0
 40
0.0
 40
0.0
 40
0.0
 40
0.100142428
 40
0.1974432482
 40
0.2914643967
 40
0.338869119
 40
0.3970693756
 40
0.4858595445000001
 40
0.5718764422
 40
0.7246503667000001
 40
1.0
 40
1.0
 40
1.0
 40
1.0
 10
1174.0648839306
 20
125.6419003834
 30
0.0
 10
1174.0791182984
 20
125.6342606168
 30
0.0
 10
1174.1067430296
 20
125.6183283216
 30
0.0
 10
1174.1451840607
 20
125.591122977
 30
0.0
 10
1174.1727581074
 20
125.5636716948
 30
0.0
 10
1174.1879474081
 20
125.5343537104
 30
0.0
 10
1174.1829906864
 20
125.5003303783
 30
0.0
 10
1174.1494026989
 20
125.4773892687
 30
0.0
 10
1174.1002185947
 20
125.4596337097
 30
0.0
 10
1174.0178569103
 20
125.4447492595
 30
0.0
 10
1173.9488127031
 20
125.4419003834
 30
0.0
 10
1173.9043933007
 20
125.4419003834
 30
0.0
1001
ACAD_OBJECT_CHANGE_GUID
1070
     0
1071
        0
1070
     0
1070
     0
1070
     0
1070
     0
1070
     0
1070
     0
1070
     0
1070
     0
1070
     0
1070
     0
1070
     0
1071
        0
1070
     0
1070
     0
1070
     0
1070
     0
1070
     0
1070
     0
1070
     0
1070
     0
1070
     0
1070
     0
  0
SPLINE
  5
47E
330
24E
100
AcDbEntity
  8
0
  6
Continuous
 62
     7
100
AcDbSpline
210
0.0
220
0.0
230
1.0
 70
     8
 71
     3
 72
    16
 73
    12
 74
     0
 42
0.0000000001
 43
0.0000000001
 40
0.0
 40
0.0
 40
0.0
 40
0.0
 40
0.1001755722
 40
0.1975099798
 40
0.2915821496
 40
0.3390278072
 40
0.396864155
 40
0.4852864783000001
 40
0.5717593756000001
 40
0.7245580879000002
 40
1.0
 40
1.0
 40
1.0
 40
1.0
 10
1232.3106044532
 20
115.2419003834
 30
0.0
 10
1232.2963693386
 20
115.249540551
 30
0.0
 10
1232.2687348935
 20
115.2654688861
 30
0.0
 10
1232.2303243524
 20
115.2926993852
 30
0.0
 10
1232.2026402224
 20
115.3200945332
 30
0.0
 10
1232.1876717603
 20
115.3494757481
 30
0.0
 10
1232.19264286
 20
115.3832866037
 30
0.0
 10
1232.2259865642
 20
115.4064176236
 30
0.0
 10
1232.2752060945
 20
115.4241788605
 30
0.0
 10
1232.3576243932
 20
115.4390383818
 30
0.0
 10
1232.4266731652
 20
115.4419003834
 30
0.0
 10
1232.4710950831
 20
115.4419003834
 30
0.0
1001
ACAD_OBJECT_CHANGE_GUID
1070
     0
1071
        0
1070
     0
1070
     0
1070
     0
1070
     0
1070
     0
1070
     0
1070
     0
1070
     0
1070
     0
1070
     0
1070
     0
1071
        0
1070
     0
1070
     0
1070
     0
1070
     0
1070
     0
1070
     0
1070
     0
1070
     0
1070
     0
1070
     0
  0
SPLINE
  5
47F
330
24E
100
AcDbEntity
  8
0
  6
Continuous
 62
     7
100
AcDbSpline
210
0.0
220
0.0
230
1.0
 70
     8
 71
     3
 72
    16
 73
    12
 74
     0
 42
0.0000000001
 43
0.0000000001
 40
0.0
 40
0.0
 40
0.0
 40
0.0
 40
0.1001755722
 40
0.1975099798
 40
0.2915821496
 40
0.3390278072
 40
0.396864155
 40
0.4852864783000001
 40
0.5717593756000001
 40
0.7245580879000002
 40
1.0
 40
1.0
 40
1.0
 40
1.0
 10
1232.3106044532
 20
119.2419003834
 30
0.0
 10
1232.2963693386
 20
119.249540551
 30
0.0
 10
1232.2687348935
 20
119.2654688861
 30
0.0
 10
1232.2303243524
 20
119.2926993852
 30
0.0
 10
1232.2026402224
 20
119.3200945332
 30
0.0
 10
1232.1876717603
 20
119.3494757481
 30
0.0
 10
1232.19264286
 20
119.3832866037
 30
0.0
 10
1232.2259865642
 20
119.4064176236
 30
0.0
 10
1232.2752060945
 20
119.4241788605
 30
0.0
 10
1232.3576243932
 20
119.4390383818
 30
0.0
 10
1232.4266731652
 20
119.4419003834
 30
0.0
 10
1232.4710950831
 20
119.4419003834
 30
0.0
1001
ACAD_OBJECT_CHANGE_GUID
1070
     0
1071
        0
1070
     0
1070
     0
1070
     0
1070
     0
1070
     0
1070
     0
1070
     0
1070
     0
1070
     0
1070
     0
1070
     0
1071
        0
1070
     0
1070
     0
1070
     0
1070
     0
1070
     0
1070
     0
1070
     0
1070
     0
1070
     0
1070
     0
  0
SPLINE
  5
480
330
24E
100
AcDbEntity
  8
0
  6
Continuous
 62
     7
100
AcDbSpline
210
0.0
220
0.0
230
1.0
 70
     8
 71
     3
 72
     9
 73
     5
 74
     0
 42
0.0000000001
 43
0.0000000001
 40
0.0
 40
0.0
 40
0.0
 40
0.0
 40
0.5427925765000001
 40
1.0
 40
1.0
 40
1.0
 40
1.0
 10
1207.5929429687
 20
115.2419003834
 30
0.0
 10
1207.5929429687
 20
115.2971871126
 30
0.0
 10
1207.640615868
 20
115.4040211641
 30
0.0
 10
1207.7459201391
 20
115.4419003834
 30
0.0
 10
1207.7924894992
 20
115.4419003834
 30
0.0
1001
ACAD_OBJECT_CHANGE_GUID
1070
     0
1071
        0
1070
     0
1070
     0
1070
     0
1070
     0
1070
     0
1070
     0
1070
     0
1070
     0
1070
     0
1070
     0
1070
     0
1071
        0
1070
     0
1070
     0
1070
     0
1070
     0
1070
     0
1070
     0
1070
     0
1070
     0
1070
     0
1070
     0
  0
SPLINE
  5
481
330
24E
100
AcDbEntity
  8
0
  6
Continuous
 62
     7
100
AcDbSpline
210
0.0
220
0.0
230
1.0
 70
     8
 71
     3
 72
    21
 73
    17
 74
     0
 42
0.0000000001
 43
0.0000000001
 40
0.0
 40
0.0
 40
0.0
 40
0.0
 40
0.1107615091
 40
0.164292666
 40
0.2161182419
 40
0.2655649758
 40
0.3114799325
 40
0.3524175381
 40
0.3744643113
 40
0.4071679627000001
 40
0.4861065636000001
 40
0.56404813
 40
0.6398441464
 40
0.7139173662000001
 40
0.8585898135999999
 40
1.0
 40
1.0
 40
1.0
 40
1.0
 10
1219.8663340778
 20
115.4419003834
 30
0.0
 10
1219.8872807524
 20
115.4419003834
 30
0.0
 10
1219.9183579635
 20
115.4412530491
 30
0.0
 10
1219.9591510168
 20
115.4382525408
 30
0.0
 10
1219.9881645755
 20
115.4347128987
 30
0.0
 10
1220.0157306148
 20
115.4293071752
 30
0.0
 10
1220.0396147293
 20
115.4213898986
 30
0.0
 10
1220.0591731494
 20
115.4092581769
 30
0.0
 10
1220.0606201303
 20
115.3895857464
 30
0.0
 10
1220.0448829135
 20
115.3682802219
 30
0.0
 10
1220.0153331091
 20
115.3478573221
 30
0.0
 10
1219.9763918036
 20
115.3272065324
 30
0.0
 10
1219.9370337784
 20
115.309655683
 30
0.0
 10
1219.8853343591
 20
115.2888949174
 30
0.0
 10
1219.8211185363
 20
115.2661212308
 30
0.0
 10
1219.7695606335
 20
115.2497049172
 30
0.0
 10
1219.7439819953
 20
115.2419003834
 30
0.0
1001
ACAD_OBJECT_CHANGE_GUID
1070
     0
1071
        0
1070
     0
1070
     0
1070
     0
1070
     0
1070
     0
1070
     0
1070
     0
1070
     0
1070
     0
1070
     0
1070
     0
1071
        0
1070
     0
1070
     0
1070
     0
1070
     0
1070
     0
1070
     0
1070
     0
1070
     0
1070
     0
1070
     0
  0
SPLINE
  5
482
330
24E
100
AcDbEntity
  8
0
  6
Continuous
 62
     7
100
AcDbSpline
210
0.0
220
0.0
230
1.0
 70
     8
 71
     3
 72
    16
 73
    12
 74
     0
 42
0.0000000001
 43
0.0000000001
 40
0.0
 40
0.0
 40
0.0
 40
0.0
 40
0.1001755722
 40
0.1975099798
 40
0.2915821496
 40
0.3390278072
 40
0.396864155
 40
0.4852864783000001
 40
0.5717593756000001
 40
0.7245580879000002
 40
1.0
 40
1.0
 40
1.0
 40
1.0
 10
1232.3106044532
 20
123.2419003834
 30
0.0
 10
1232.2963693386
 20
123.249540551
 30
0.0
 10
1232.2687348935
 20
123.2654688861
 30
0.0
 10
1232.2303243524
 20
123.2926993852
 30
0.0
 10
1232.2026402224
 20
123.3200945332
 30
0.0
 10
1232.1876717603
 20
123.3494757481
 30
0.0
 10
1232.19264286
 20
123.3832866037
 30
0.0
 10
1232.2259865642
 20
123.4064176236
 30
0.0
 10
1232.2752060945
 20
123.4241788605
 30
0.0
 10
1232.3576243932
 20
123.4390383818
 30
0.0
 10
1232.4266731652
 20
123.4419003834
 30
0.0
 10
1232.4710950831
 20
123.4419003834
 30
0.0
1001
ACAD_OBJECT_CHANGE_GUID
1070
     0
1071
        0
1070
     0
1070
     0
1070
     0
1070
     0
1070
     0
1070
     0
1070
     0
1070
     0
1070
     0
1070
     0
1070
     0
1071
        0
1070
     0
1070
     0
1070
     0
1070
     0
1070
     0
1070
     0
1070
     0
1070
     0
1070
     0
1070
     0
  0
SPLINE
  5
483
330
24E
100
AcDbEntity
  8
0
  6
Continuous
 62
     7
100
AcDbSpline
210
0.0
220
0.0
230
1.0
 70
     8
 71
     3
 72
    16
 73
    12
 74
     0
 42
0.0000000001
 43
0.0000000001
 40
0.0
 40
0.0
 40
0.0
 40
0.0
 40
0.1001755722
 40
0.1975099798
 40
0.2915821496
 40
0.3390278072
 40
0.396864155
 40
0.4852864783000001
 40
0.5717593756000001
 40
0.7245580879000002
 40
1.0
 40
1.0
 40
1.0
 40
1.0
 10
1232.3106044532
 20
127.2419003834
 30
0.0
 10
1232.2963693386
 20
127.249540551
 30
0.0
 10
1232.2687348935
 20
127.2654688861
 30
0.0
 10
1232.2303243524
 20
127.2926993852
 30
0.0
 10
1232.2026402224
 20
127.3200945332
 30
0.0
 10
1232.1876717603
 20
127.3494757481
 30
0.0
 10
1232.19264286
 20
127.3832866037
 30
0.0
 10
1232.2259865642
 20
127.4064176236
 30
0.0
 10
1232.2752060945
 20
127.4241788605
 30
0.0
 10
1232.3576243932
 20
127.4390383818
 30
0.0
 10
1232.4266731652
 20
127.4419003834
 30
0.0
 10
1232.4710950831
 20
127.4419003834
 30
0.0
1001
ACAD_OBJECT_CHANGE_GUID
1070
     0
1071
        0
1070
     0
1070
     0
1070
     0
1070
     0
1070
     0
1070
     0
1070
     0
1070
     0
1070
     0
1070
     0
1070
     0
1071
        0
1070
     0
1070
     0
1070
     0
1070
     0
1070
     0
1070
     0
1070
     0
1070
     0
1070
     0
1070
     0
  0
SPLINE
  5
484
330
24E
100
AcDbEntity
  8
0
  6
Continuous
 62
     7
100
AcDbSpline
210
0.0
220
0.0
230
1.0
 70
     8
 71
     3
 72
     9
 73
     5
 74
     0
 42
0.0000000001
 43
0.0000000001
 40
0.0
 40
0.0
 40
0.0
 40
0.0
 40
0.5427925765000001
 40
1.0
 40
1.0
 40
1.0
 40
1.0
 10
1207.5929429687
 20
119.2419003834
 30
0.0
 10
1207.5929429687
 20
119.2971871126
 30
0.0
 10
1207.640615868
 20
119.4040211641
 30
0.0
 10
1207.7459201391
 20
119.4419003834
 30
0.0
 10
1207.7924894992
 20
119.4419003834
 30
0.0
1001
ACAD_OBJECT_CHANGE_GUID
1070
     0
1071
        0
1070
     0
1070
     0
1070
     0
1070
     0
1070
     0
1070
     0
1070
     0
1070
     0
1070
     0
1070
     0
1070
     0
1071
        0
1070
     0
1070
     0
1070
     0
1070
     0
1070
     0
1070
     0
1070
     0
1070
     0
1070
     0
1070
     0
  0
SPLINE
  5
485
330
24E
100
AcDbEntity
  8
0
  6
Continuous
 62
     7
100
AcDbSpline
210
0.0
220
0.0
230
1.0
 70
     8
 71
     3
 72
    21
 73
    17
 74
     0
 42
0.0000000001
 43
0.0000000001
 40
0.0
 40
0.0
 40
0.0
 40
0.0
 40
0.1107615091
 40
0.164292666
 40
0.2161182419
 40
0.2655649758
 40
0.3114799325
 40
0.3524175381
 40
0.3744643113
 40
0.4071679627000001
 40
0.4861065636000001
 40
0.56404813
 40
0.6398441464
 40
0.7139173662000001
 40
0.8585898135999999
 40
1.0
 40
1.0
 40
1.0
 40
1.0
 10
1219.8663340778
 20
119.4419003834
 30
0.0
 10
1219.8872807524
 20
119.4419003834
 30
0.0
 10
1219.9183579635
 20
119.4412530491
 30
0.0
 10
1219.9591510168
 20
119.4382525408
 30
0.0
 10
1219.9881645755
 20
119.4347128987
 30
0.0
 10
1220.0157306148
 20
119.4293071752
 30
0.0
 10
1220.0396147293
 20
119.4213898986
 30
0.0
 10
1220.0591731494
 20
119.4092581769
 30
0.0
 10
1220.0606201303
 20
119.3895857464
 30
0.0
 10
1220.0448829135
 20
119.3682802219
 30
0.0
 10
1220.0153331091
 20
119.3478573221
 30
0.0
 10
1219.9763918036
 20
119.3272065324
 30
0.0
 10
1219.9370337784
 20
119.309655683
 30
0.0
 10
1219.8853343591
 20
119.2888949174
 30
0.0
 10
1219.8211185363
 20
119.2661212308
 30
0.0
 10
1219.7695606335
 20
119.2497049172
 30
0.0
 10
1219.7439819953
 20
119.2419003834
 30
0.0
1001
ACAD_OBJECT_CHANGE_GUID
1070
     0
1071
        0
1070
     0
1070
     0
1070
     0
1070
     0
1070
     0
1070
     0
1070
     0
1070
     0
1070
     0
1070
     0
1070
     0
1071
        0
1070
     0
1070
     0
1070
     0
1070
     0
1070
     0
1070
     0
1070
     0
1070
     0
1070
     0
1070
     0
  0
SPLINE
  5
486
330
24E
100
AcDbEntity
  8
0
  6
Continuous
 62
     7
100
AcDbSpline
210
0.0
220
0.0
230
1.0
 70
     8
 71
     3
 72
     9
 73
     5
 74
     0
 42
0.0000000001
 43
0.0000000001
 40
0.0
 40
0.0
 40
0.0
 40
0.0
 40
0.5427925765000001
 40
1.0
 40
1.0
 40
1.0
 40
1.0
 10
1207.5929429687
 20
123.2419003834
 30
0.0
 10
1207.5929429687
 20
123.2971871126
 30
0.0
 10
1207.640615868
 20
123.4040211641
 30
0.0
 10
1207.7459201391
 20
123.4419003834
 30
0.0
 10
1207.7924894992
 20
123.4419003834
 30
0.0
1001
ACAD_OBJECT_CHANGE_GUID
1070
     0
1071
        0
1070
     0
1070
     0
1070
     0
1070
     0
1070
     0
1070
     0
1070
     0
1070
     0
1070
     0
1070
     0
1070
     0
1071
        0
1070
     0
1070
     0
1070
     0
1070
     0
1070
     0
1070
     0
1070
     0
1070
     0
1070
     0
1070
     0
  0
SPLINE
  5
487
330
24E
100
AcDbEntity
  8
0
  6
Continuous
 62
     7
100
AcDbSpline
210
0.0
220
0.0
230
1.0
 70
     8
 71
     3
 72
    10
 73
     6
 74
     0
 42
0.0000000001
 43
0.0000000001
 40
0.0
 40
0.0
 40
0.0
 40
0.0
 40
0.6577450253000001
 40
0.8719306805
 40
1.0
 40
1.0
 40
1.0
 40
1.0
 10
1237.9907613025
 20
110.2419003834
 30
0.0
 10
1237.9907613025
 20
110.1937507419
 30
0.0
 10
1237.9837821669
 20
110.1285955621
 30
0.0
 10
1237.9584368844
 20
110.0604684349
 30
0.0
 10
1237.9362903675
 20
110.0419003834
 30
0.0
 10
1237.9269151665
 20
110.0419003834
 30
0.0
1001
ACAD_OBJECT_CHANGE_GUID
1070
     0
1071
        0
1070
     0
1070
     0
1070
     0
1070
     0
1070
     0
1070
     0
1070
     0
1070
     0
1070
     0
1070
     0
1070
     0
1071
        0
1070
     0
1070
     0
1070
     0
1070
     0
1070
     0
1070
     0
1070
     0
1070
     0
1070
     0
1070
     0
  0
SPLINE
  5
488
330
24E
100
AcDbEntity
  8
0
  6
Continuous
 62
     7
100
AcDbSpline
210
0.0
220
0.0
230
1.0
 70
     8
 71
     3
 72
    21
 73
    17
 74
     0
 42
0.0000000001
 43
0.0000000001
 40
0.0
 40
0.0
 40
0.0
 40
0.0
 40
0.1107615091
 40
0.164292666
 40
0.2161182419
 40
0.2655649758
 40
0.3114799325
 40
0.3524175381
 40
0.3744643113
 40
0.4071679627000001
 40
0.4861065636000001
 40
0.56404813
 40
0.6398441464
 40
0.7139173662000001
 40
0.8585898135999999
 40
1.0
 40
1.0
 40
1.0
 40
1.0
 10
1219.8663340778
 20
123.4419003834
 30
0.0
 10
1219.8872807524
 20
123.4419003834
 30
0.0
 10
1219.9183579635
 20
123.4412530491
 30
0.0
 10
1219.9591510168
 20
123.4382525408
 30
0.0
 10
1219.9881645755
 20
123.4347128987
 30
0.0
 10
1220.0157306148
 20
123.4293071752
 30
0.0
 10
1220.0396147293
 20
123.4213898986
 30
0.0
 10
1220.0591731494
 20
123.4092581769
 30
0.0
 10
1220.0606201303
 20
123.3895857464
 30
0.0
 10
1220.0448829135
 20
123.3682802219
 30
0.0
 10
1220.0153331091
 20
123.3478573221
 30
0.0
 10
1219.9763918036
 20
123.3272065324
 30
0.0
 10
1219.9370337784
 20
123.309655683
 30
0.0
 10
1219.8853343591
 20
123.2888949174
 30
0.0
 10
1219.8211185363
 20
123.2661212308
 30
0.0
 10
1219.7695606335
 20
123.2497049172
 30
0.0
 10
1219.7439819953
 20
123.2419003834
 30
0.0
1001
ACAD_OBJECT_CHANGE_GUID
1070
     0
1071
        0
1070
     0
1070
     0
1070
     0
1070
     0
1070
     0
1070
     0
1070
     0
1070
     0
1070
     0
1070
     0
1070
     0
1071
        0
1070
     0
1070
     0
1070
     0
1070
     0
1070
     0
1070
     0
1070
     0
1070
     0
1070
     0
1070
     0
  0
SPLINE
  5
489
330
24E
100
AcDbEntity
  8
0
  6
Continuous
 62
     7
100
AcDbSpline
210
0.0
220
0.0
230
1.0
 70
     8
 71
     3
 72
    16
 73
    12
 74
     0
 42
0.0000000001
 43
0.0000000001
 40
0.0
 40
0.0
 40
0.0
 40
0.0
 40
0.2753955289999999
 40
0.4281334021000001
 40
0.5146767297000001
 40
0.6033779044
 40
0.6610507868
 40
0.7084543205000001
 40
0.8025204370999999
 40
0.8998402973999999
 40
1.0
 40
1.0
 40
1.0
 40
1.0
 10
1173.9043933007
 20
127.4419003834
 30
0.0
 10
1173.9488105071
 20
127.4419003834
 30
0.0
 10
1174.0178543674
 20
127.4390655601
 30
0.0
 10
1174.1002518112
 20
127.4241451835
 30
0.0
 10
1174.1495576699
 20
127.4064976066
 30
0.0
 10
1174.182929533
 20
127.383255169
 30
0.0
 10
1174.1877681149
 20
127.3494377867
 30
0.0
 10
1174.1728528285
 20
127.3200797593
 30
0.0
 10
1174.1451527775
 20
127.292696109
 30
0.0
 10
1174.1067512602
 20
127.2654661732
 30
0.0
 10
1174.0791176774
 20
127.2495398169
 30
0.0
 10
1174.0648839306
 20
127.2419003834
 30
0.0
1001
ACAD_OBJECT_CHANGE_GUID
1070
     0
1071
        0
1070
     0
1070
     0
1070
     0
1070
     0
1070
     0
1070
     0
1070
     0
1070
     0
1070
     0
1070
     0
1070
     0
1071
        0
1070
     0
1070
     0
1070
     0
1070
     0
1070
     0
1070
     0
1070
     0
1070
     0
1070
     0
1070
     0
  0
SPLINE
  5
48A
330
24E
100
AcDbEntity
  8
0
  6
Continuous
 62
     7
100
AcDbSpline
210
0.0
220
0.0
230
1.0
 70
     8
 71
     3
 72
    16
 73
    12
 74
     0
 42
0.0000000001
 43
0.0000000001
 40
0.0
 40
0.0
 40
0.0
 40
0.0
 40
0.2753955289999999
 40
0.4281334021000001
 40
0.5146767297000001
 40
0.6033779044
 40
0.6610507868
 40
0.7084543205000001
 40
0.8025204370999999
 40
0.8998402973999999
 40
1.0
 40
1.0
 40
1.0
 40
1.0
 10
1173.9043933007
 20
123.4419003834
 30
0.0
 10
1173.9488105071
 20
123.4419003834
 30
0.0
 10
1174.0178543674
 20
123.4390655601
 30
0.0
 10
1174.1002518112
 20
123.4241451835
 30
0.0
 10
1174.1495576699
 20
123.4064976066
 30
0.0
 10
1174.182929533
 20
123.383255169
 30
0.0
 10
1174.1877681149
 20
123.3494377867
 30
0.0
 10
1174.1728528285
 20
123.3200797593
 30
0.0
 10
1174.1451527775
 20
123.292696109
 30
0.0
 10
1174.1067512602
 20
123.2654661732
 30
0.0
 10
1174.0791176774
 20
123.2495398169
 30
0.0
 10
1174.0648839306
 20
123.2419003834
 30
0.0
1001
ACAD_OBJECT_CHANGE_GUID
1070
     0
1071
        0
1070
     0
1070
     0
1070
     0
1070
     0
1070
     0
1070
     0
1070
     0
1070
     0
1070
     0
1070
     0
1070
     0
1071
        0
1070
     0
1070
     0
1070
     0
1070
     0
1070
     0
1070
     0
1070
     0
1070
     0
1070
     0
1070
     0
  0
SPLINE
  5
48B
330
24E
100
AcDbEntity
  8
0
  6
Continuous
 62
     7
100
AcDbSpline
210
0.0
220
0.0
230
1.0
 70
     8
 71
     3
 72
    16
 73
    12
 74
     0
 42
0.0000000001
 43
0.0000000001
 40
0.0
 40
0.0
 40
0.0
 40
0.0
 40
0.2753955289999999
 40
0.4281334021000001
 40
0.5146767297000001
 40
0.6033779044
 40
0.6610507868
 40
0.7084543205000001
 40
0.8025204370999999
 40
0.8998402973999999
 40
1.0
 40
1.0
 40
1.0
 40
1.0
 10
1173.9043933007
 20
119.4419003834
 30
0.0
 10
1173.9488105071
 20
119.4419003834
 30
0.0
 10
1174.0178543674
 20
119.4390655601
 30
0.0
 10
1174.1002518112
 20
119.4241451835
 30
0.0
 10
1174.1495576699
 20
119.4064976066
 30
0.0
 10
1174.182929533
 20
119.383255169
 30
0.0
 10
1174.1877681149
 20
119.3494377867
 30
0.0
 10
1174.1728528285
 20
119.3200797593
 30
0.0
 10
1174.1451527775
 20
119.292696109
 30
0.0
 10
1174.1067512602
 20
119.2654661732
 30
0.0
 10
1174.0791176774
 20
119.2495398169
 30
0.0
 10
1174.0648839306
 20
119.2419003834
 30
0.0
1001
ACAD_OBJECT_CHANGE_GUID
1070
     0
1071
        0
1070
     0
1070
     0
1070
     0
1070
     0
1070
     0
1070
     0
1070
     0
1070
     0
1070
     0
1070
     0
1070
     0
1071
        0
1070
     0
1070
     0
1070
     0
1070
     0
1070
     0
1070
     0
1070
     0
1070
     0
1070
     0
1070
     0
  0
SPLINE
  5
48C
330
24E
100
AcDbEntity
  8
0
  6
Continuous
 62
     7
100
AcDbSpline
210
0.0
220
0.0
230
1.0
 70
     8
 71
     3
 72
    16
 73
    12
 74
     0
 42
0.0000000001
 43
0.0000000001
 40
0.0
 40
0.0
 40
0.0
 40
0.0
 40
0.2753955289999999
 40
0.4281334021000001
 40
0.5146767297000001
 40
0.6033779044
 40
0.6610507868
 40
0.7084543205000001
 40
0.8025204370999999
 40
0.8998402973999999
 40
1.0
 40
1.0
 40
1.0
 40
1.0
 10
1173.9043933007
 20
115.4419003834
 30
0.0
 10
1173.9488105071
 20
115.4419003834
 30
0.0
 10
1174.0178543674
 20
115.4390655601
 30
0.0
 10
1174.1002518112
 20
115.4241451835
 30
0.0
 10
1174.1495576699
 20
115.4064976066
 30
0.0
 10
1174.182929533
 20
115.383255169
 30
0.0
 10
1174.1877681149
 20
115.3494377867
 30
0.0
 10
1174.1728528285
 20
115.3200797593
 30
0.0
 10
1174.1451527775
 20
115.292696109
 30
0.0
 10
1174.1067512602
 20
115.2654661732
 30
0.0
 10
1174.0791176774
 20
115.2495398169
 30
0.0
 10
1174.0648839306
 20
115.2419003834
 30
0.0
1001
ACAD_OBJECT_CHANGE_GUID
1070
     0
1071
        0
1070
     0
1070
     0
1070
     0
1070
     0
1070
     0
1070
     0
1070
     0
1070
     0
1070
     0
1070
     0
1070
     0
1071
        0
1070
     0
1070
     0
1070
     0
1070
     0
1070
     0
1070
     0
1070
     0
1070
     0
1070
     0
1070
     0
  0
SPLINE
  5
48D
330
24E
100
AcDbEntity
  8
0
  6
Continuous
 62
     7
100
AcDbSpline
210
0.0
220
0.0
230
1.0
 70
     8
 71
     3
 72
    16
 73
    12
 74
     0
 42
0.0000000001
 43
0.0000000001
 40
0.0
 40
0.0
 40
0.0
 40
0.0
 40
0.1001421301
 40
0.1974426565
 40
0.2914635078
 40
0.3388675353
 40
0.3970671875
 40
0.4858623006000001
 40
0.5718778971000001
 40
0.7246512088000001
 40
1.0
 40
1.0
 40
1.0
 40
1.0
 10
1174.0648839306
 20
113.6419003834
 30
0.0
 10
1174.0791182894
 20
113.6342606216
 30
0.0
 10
1174.10674299
 20
113.6183283158
 30
0.0
 10
1174.1451840487
 20
113.5911230808
 30
0.0
 10
1174.1727578572
 20
113.5636716242
 30
0.0
 10
1174.1879472894
 20
113.5343542496
 30
0.0
 10
1174.1829929702
 20
113.5003297757
 30
0.0
 10
1174.149402909
 20
113.4773887322
 30
0.0
 10
1174.1002182164
 20
113.459634169
 30
0.0
 10
1174.017856823
 20
113.4447489243
 30
0.0
 10
1173.9488126715
 20
113.4419003834
 30
0.0
 10
1173.9043933007
 20
113.4419003834
 30
0.0
1001
ACAD_OBJECT_CHANGE_GUID
1070
     0
1071
        0
1070
     0
1070
     0
1070
     0
1070
     0
1070
     0
1070
     0
1070
     0
1070
     0
1070
     0
1070
     0
1070
     0
1071
        0
1070
     0
1070
     0
1070
     0
1070
     0
1070
     0
1070
     0
1070
     0
1070
     0
1070
     0
1070
     0
  0
SPLINE
  5
48E
330
24E
100
AcDbEntity
  8
0
  6
Continuous
 62
     7
100
AcDbSpline
210
0.0
220
0.0
230
1.0
 70
     8
 71
     3
 72
    16
 73
    12
 74
     0
 42
0.0000000001
 43
0.0000000001
 40
0.0
 40
0.0
 40
0.0
 40
0.0
 40
0.100142428
 40
0.1974432482
 40
0.2914643967
 40
0.338869119
 40
0.3970693756
 40
0.4858595445000001
 40
0.5718764422
 40
0.7246503667000001
 40
1.0
 40
1.0
 40
1.0
 40
1.0
 10
1174.0648839306
 20
117.6419003834
 30
0.0
 10
1174.0791182984
 20
117.6342606168
 30
0.0
 10
1174.1067430296
 20
117.6183283216
 30
0.0
 10
1174.1451840607
 20
117.591122977
 30
0.0
 10
1174.1727581074
 20
117.5636716948
 30
0.0
 10
1174.1879474081
 20
117.5343537104
 30
0.0
 10
1174.1829906864
 20
117.5003303783
 30
0.0
 10
1174.1494026989
 20
117.4773892687
 30
0.0
 10
1174.1002185947
 20
117.4596337097
 30
0.0
 10
1174.0178569103
 20
117.4447492596
 30
0.0
 10
1173.9488127031
 20
117.4419003834
 30
0.0
 10
1173.9043933007
 20
117.4419003834
 30
0.0
1001
ACAD_OBJECT_CHANGE_GUID
1070
     0
1071
        0
1070
     0
1070
     0
1070
     0
1070
     0
1070
     0
1070
     0
1070
     0
1070
     0
1070
     0
1070
     0
1070
     0
1071
        0
1070
     0
1070
     0
1070
     0
1070
     0
1070
     0
1070
     0
1070
     0
1070
     0
1070
     0
1070
     0
  0
SPLINE
  5
48F
330
24E
100
AcDbEntity
  8
0
  6
Continuous
 62
     7
100
AcDbSpline
210
0.0
220
0.0
230
1.0
 70
     8
 71
     3
 72
    16
 73
    12
 74
     0
 42
0.0000000001
 43
0.0000000001
 40
0.0
 40
0.0
 40
0.0
 40
0.0
 40
0.100142428
 40
0.1974432482
 40
0.2914643967
 40
0.338869119
 40
0.3970693756
 40
0.4858595445000001
 40
0.5718764422
 40
0.7246503667000001
 40
1.0
 40
1.0
 40
1.0
 40
1.0
 10
1174.0648839306
 20
121.6419003834
 30
0.0
 10
1174.0791182984
 20
121.6342606168
 30
0.0
 10
1174.1067430296
 20
121.6183283216
 30
0.0
 10
1174.1451840607
 20
121.591122977
 30
0.0
 10
1174.1727581074
 20
121.5636716948
 30
0.0
 10
1174.1879474081
 20
121.5343537104
 30
0.0
 10
1174.1829906864
 20
121.5003303783
 30
0.0
 10
1174.1494026989
 20
121.4773892687
 30
0.0
 10
1174.1002185947
 20
121.4596337097
 30
0.0
 10
1174.0178569103
 20
121.4447492596
 30
0.0
 10
1173.9488127031
 20
121.4419003834
 30
0.0
 10
1173.9043933007
 20
121.4419003834
 30
0.0
1001
ACAD_OBJECT_CHANGE_GUID
1070
     0
1071
        0
1070
     0
1070
     0
1070
     0
1070
     0
1070
     0
1070
     0
1070
     0
1070
     0
1070
     0
1070
     0
1070
     0
1071
        0
1070
     0
1070
     0
1070
     0
1070
     0
1070
     0
1070
     0
1070
     0
1070
     0
1070
     0
1070
     0
  0
SPLINE
  5
490
330
24E
100
AcDbEntity
  8
0
  6
Continuous
 62
     7
100
AcDbSpline
210
0.0
220
0.0
230
1.0
 70
     8
 71
     3
 72
    10
 73
     6
 74
     0
 42
0.0000000001
 43
0.0000000001
 40
0.0
 40
0.0
 40
0.0
 40
0.0
 40
0.1280693195
 40
0.3422549747
 40
1.0
 40
1.0
 40
1.0
 40
1.0
 10
1237.9269151665
 20
111.8419003834
 30
0.0
 10
1237.9362903675
 20
111.8419003834
 30
0.0
 10
1237.9584368844
 20
111.823332332
 30
0.0
 10
1237.9837821669
 20
111.7552052048
 30
0.0
 10
1237.9907613025
 20
111.690050025
 30
0.0
 10
1237.9907613025
 20
111.6419003834
 30
0.0
1001
ACAD_OBJECT_CHANGE_GUID
1070
     0
1071
        0
1070
     0
1070
     0
1070
     0
1070
     0
1070
     0
1070
     0
1070
     0
1070
     0
1070
     0
1070
     0
1070
     0
1071
        0
1070
     0
1070
     0
1070
     0
1070
     0
1070
     0
1070
     0
1070
     0
1070
     0
1070
     0
1070
     0
  0
SPLINE
  5
491
330
24E
100
AcDbEntity
  8
0
  6
Continuous
 62
     7
100
AcDbSpline
210
0.0
220
0.0
230
1.0
 70
     8
 71
     3
 72
    16
 73
    12
 74
     0
 42
0.0000000001
 43
0.0000000001
 40
0.0
 40
0.0
 40
0.0
 40
0.0
 40
0.2754175528
 40
0.4282333078000001
 40
0.5145158275
 40
0.6029159973000001
 40
0.6610014932000001
 40
0.7084574834000001
 40
0.8025088403999999
 40
0.8998336754999998
 40
1.0
 40
1.0
 40
1.0
 40
1.0
 10
1232.4710950831
 20
113.4419003834
 30
0.0
 10
1232.4266746897
 20
113.4419003834
 30
0.0
 10
1232.3576283397
 20
113.4447718979
 30
0.0
 10
1232.2752247573
 20
113.4596052363
 30
0.0
 10
1232.2260586143
 20
113.4774218517
 30
0.0
 10
1232.1926545766
 20
113.5004344536
 30
0.0
 10
1232.1875890601
 20
113.5343215926
 30
0.0
 10
1232.2026878445
 20
113.5636901024
 30
0.0
 10
1232.2303139024
 20
113.5911122888
 30
0.0
 10
1232.2687411122
 20
113.6183305662
 30
0.0
 10
1232.2963698823
 20
113.6342605077
 30
0.0
 10
1232.3106044532
 20
113.6419003834
 30
0.0
1001
ACAD_OBJECT_CHANGE_GUID
1070
     0
1071
        0
1070
     0
1070
     0
1070
     0
1070
     0
1070
     0
1070
     0
1070
     0
1070
     0
1070
     0
1070
     0
1070
     0
1071
        0
1070
     0
1070
     0
1070
     0
1070
     0
1070
     0
1070
     0
1070
     0
1070
     0
1070
     0
1070
     0
  0
SPLINE
  5
492
330
24E
100
AcDbEntity
  8
0
  6
Continuous
 62
     7
100
AcDbSpline
210
0.0
220
0.0
230
1.0
 70
     8
 71
     3
 72
     9
 73
     5
 74
     0
 42
0.0000000001
 43
0.0000000001
 40
0.0
 40
0.0
 40
0.0
 40
0.0
 40
0.5427925765000001
 40
1.0
 40
1.0
 40
1.0
 40
1.0
 10
1207.5929429687
 20
127.2419003834
 30
0.0
 10
1207.5929429687
 20
127.2971871126
 30
0.0
 10
1207.640615868
 20
127.4040211641
 30
0.0
 10
1207.7459201391
 20
127.4419003834
 30
0.0
 10
1207.7924894992
 20
127.4419003834
 30
0.0
1001
ACAD_OBJECT_CHANGE_GUID
1070
     0
1071
        0
1070
     0
1070
     0
1070
     0
1070
     0
1070
     0
1070
     0
1070
     0
1070
     0
1070
     0
1070
     0
1070
     0
1071
        0
1070
     0
1070
     0
1070
     0
1070
     0
1070
     0
1070
     0
1070
     0
1070
     0
1070
     0
1070
     0
  0
SPLINE
  5
493
330
24E
100
AcDbEntity
  8
0
  6
Continuous
 62
     7
100
AcDbSpline
210
0.0
220
0.0
230
1.0
 70
     8
 71
     3
 72
    21
 73
    17
 74
     0
 42
0.0000000001
 43
0.0000000001
 40
0.0
 40
0.0
 40
0.0
 40
0.0
 40
0.1107615091
 40
0.164292666
 40
0.2161182419
 40
0.2655649758
 40
0.3114799325
 40
0.3524175381
 40
0.3744643113
 40
0.4071679627000001
 40
0.4861065636000001
 40
0.56404813
 40
0.6398441464
 40
0.7139173662000001
 40
0.8585898135999999
 40
1.0
 40
1.0
 40
1.0
 40
1.0
 10
1219.8663340778
 20
127.4419003834
 30
0.0
 10
1219.8872807524
 20
127.4419003834
 30
0.0
 10
1219.9183579635
 20
127.4412530491
 30
0.0
 10
1219.9591510168
 20
127.4382525408
 30
0.0
 10
1219.9881645755
 20
127.4347128987
 30
0.0
 10
1220.0157306148
 20
127.4293071752
 30
0.0
 10
1220.0396147293
 20
127.4213898986
 30
0.0
 10
1220.0591731494
 20
127.4092581769
 30
0.0
 10
1220.0606201303
 20
127.3895857464
 30
0.0
 10
1220.0448829135
 20
127.3682802219
 30
0.0
 10
1220.0153331091
 20
127.3478573221
 30
0.0
 10
1219.9763918036
 20
127.3272065324
 30
0.0
 10
1219.9370337784
 20
127.309655683
 30
0.0
 10
1219.8853343591
 20
127.2888949174
 30
0.0
 10
1219.8211185363
 20
127.2661212308
 30
0.0
 10
1219.7695606335
 20
127.2497049172
 30
0.0
 10
1219.7439819953
 20
127.2419003834
 30
0.0
1001
ACAD_OBJECT_CHANGE_GUID
1070
     0
1071
        0
1070
     0
1070
     0
1070
     0
1070
     0
1070
     0
1070
     0
1070
     0
1070
     0
1070
     0
1070
     0
1070
     0
1071
        0
1070
     0
1070
     0
1070
     0
1070
     0
1070
     0
1070
     0
1070
     0
1070
     0
1070
     0
1070
     0
  0
SPLINE
  5
494
330
24E
100
AcDbEntity
  8
0
  6
Continuous
 62
     7
100
AcDbSpline
210
0.0
220
0.0
230
1.0
 70
     8
 71
     3
 72
    16
 73
    12
 74
     0
 42
0.0000000001
 43
0.0000000001
 40
0.0
 40
0.0
 40
0.0
 40
0.0
 40
0.2754201632
 40
0.4282363743000001
 40
0.5145309351
 40
0.6029189917000001
 40
0.6609973978000001
 40
0.7084541500000001
 40
0.802506917
 40
0.8998327203
 40
1.0
 40
1.0
 40
1.0
 40
1.0
 10
1232.4710950831
 20
117.4419003834
 30
0.0
 10
1232.4266746225
 20
117.4419003834
 30
0.0
 10
1232.3576278175
 20
117.4447717163
 30
0.0
 10
1232.2752237559
 20
117.4596056494
 30
0.0
 10
1232.2260553218
 20
117.4774198576
 30
0.0
 10
1232.1926610997
 20
117.5004397983
 30
0.0
 10
1232.1875914222
 20
117.5343206583
 30
0.0
 10
1232.2026859656
 20
117.5636910104
 30
0.0
 10
1232.2303142419
 20
117.5911117313
 30
0.0
 10
1232.2687408769
 20
117.6183306543
 30
0.0
 10
1232.2963698599
 20
117.6342604957
 30
0.0
 10
1232.3106044532
 20
117.6419003834
 30
0.0
1001
ACAD_OBJECT_CHANGE_GUID
1070
     0
1071
        0
1070
     0
1070
     0
1070
     0
1070
     0
1070
     0
1070
     0
1070
     0
1070
     0
1070
     0
1070
     0
1070
     0
1071
        0
1070
     0
1070
     0
1070
     0
1070
     0
1070
     0
1070
     0
1070
     0
1070
     0
1070
     0
1070
     0
  0
SPLINE
  5
495
330
24E
100
AcDbEntity
  8
06___PRT_ALL_SURFS
  6
Continuous
 62
     7
100
AcDbSpline
210
0.0
220
0.0
230
1.0
 70
     8
 71
     3
 72
    22
 73
    18
 74
     0
 42
0.0000000001
 43
0.0000000001
 40
0.0
 40
0.0
 40
0.0
 40
0.0
 40
0.0625364829
 40
0.125056175
 40
0.1875914629
 40
0.2501204963
 40
0.3747112065
 40
0.4372320603000001
 40
0.4997647340000001
 40
0.5622970217000001
 40
0.6248181225
 40
0.6873558212000001
 40
0.7498790842
 40
0.812408555
 40
0.8749435497
 40
0.9374633120999998
 40
1.0
 40
1.0
 40
1.0
 40
1.0
 10
1198.5508884817
 20
104.5223887289
 30
0.0
 10
1197.0676830984
 20
104.252946226
 30
0.0
 10
1194.1415086618
 20
103.4571443381
 30
0.0
 10
1190.0310575391
 20
101.5199829872
 30
0.0
 10
1186.320243508
 20
98.89408911090001
 30
0.0
 10
1182.0551002317
 20
94.6151615535
 30
0.0
 10
1178.9946693335
 20
89.26502697350001
 30
0.0
 10
1177.4431936238
 20
83.4263622939
 30
0.0
 10
1177.060685047
 20
78.8964655921
 30
0.0
 10
1177.4580399615
 20
74.3695896224
 30
0.0
 10
1178.6427485344
 20
69.98121935170001
 30
0.0
 10
1180.5672704806
 20
65.8647753271
 30
0.0
 10
1183.1716558483
 20
62.1396149095
 30
0.0
 10
1186.3898281803
 20
58.9304992109
 30
0.0
 10
1190.1089752388
 20
56.31863116359999
 30
0.0
 10
1194.2263987124
 20
54.3955974739
 30
0.0
 10
1197.155219561
 20
53.60985306879999
 30
0.0
 10
1198.639345406
 20
53.34549942979999
 30
0.0
1001
ACAD_OBJECT_CHANGE_GUID
1070
     0
1071
        0
1070
     0
1070
     0
1070
     0
1070
     0
1070
     0
1070
     0
1070
     0
1070
     0
1070
     0
1070
     0
1070
     0
1071
        0
1070
     0
1070
     0
1070
     0
1070
     0
1070
     0
1070
     0
1070
     0
1070
     0
1070
     0
1070
     0
  0
SPLINE
  5
496
330
24E
100
AcDbEntity
  8
06___PRT_ALL_SURFS
  6
Continuous
 62
     7
100
AcDbSpline
210
0.0
220
0.0
230
1.0
 70
     8
 71
     3
 72
    22
 73
    18
 74
     0
 42
0.0000000001
 43
0.0000000001
 40
0.0
 40
0.0
 40
0.0
 40
0.0
 40
0.0625364829
 40
0.125056175
 40
0.1875914629
 40
0.2501204963
 40
0.3747112065
 40
0.4372320603000001
 40
0.4997647340000001
 40
0.5622970217000001
 40
0.6248181225
 40
0.6873558212000001
 40
0.7498790842
 40
0.812408555
 40
0.8749435497
 40
0.9374633120999998
 40
1.0
 40
1.0
 40
1.0
 40
1.0
 10
1207.824599902
 20
53.361412038
 30
0.0
 10
1209.3078052854
 20
53.63085454090001
 30
0.0
 10
1212.233979722
 20
54.4266564288
 30
0.0
 10
1216.3444308447
 20
56.3638177797
 30
0.0
 10
1220.0552448758
 20
58.989711656
 30
0.0
 10
1224.3203881521
 20
63.2686392134
 30
0.0
 10
1227.3808190503
 20
68.6187737934
 30
0.0
 10
1228.93229476
 20
74.457438473
 30
0.0
 10
1229.3148033368
 20
78.9873351748
 30
0.0
 10
1228.9174484223
 20
83.51421114449999
 30
0.0
 10
1227.7327398494
 20
87.90258141509999
 30
0.0
 10
1225.8082179032
 20
92.01902543969998
 30
0.0
 10
1223.2038325355
 20
95.7441858574
 30
0.0
 10
1219.9856602035
 20
98.95330155599999
 30
0.0
 10
1216.266513145
 20
101.5651696033
 30
0.0
 10
1212.1490896714
 20
103.488203293
 30
0.0
 10
1209.2202688228
 20
104.2739476981
 30
0.0
 10
1207.7361429779
 20
104.5383013371
 30
0.0
1001
ACAD_OBJECT_CHANGE_GUID
1070
     0
1071
        0
1070
     0
1070
     0
1070
     0
1070
     0
1070
     0
1070
     0
1070
     0
1070
     0
1070
     0
1070
     0
1070
     0
1071
        0
1070
     0
1070
     0
1070
     0
1070
     0
1070
     0
1070
     0
1070
     0
1070
     0
1070
     0
1070
     0
  0
SPLINE
  5
497
330
24E
100
AcDbEntity
  8
0
  6
Continuous
 62
     7
100
AcDbSpline
210
0.0
220
0.0
230
1.0
 70
     8
 71
     3
 72
    19
 73
    15
 74
     0
 42
0.0000000001
 43
0.0000000001
 40
0.0
 40
0.0
 40
0.0
 40
0.0
 40
0.1247057937
 40
0.2494053925
 40
0.3120462248
 40
0.3747032387
 40
0.4373481955
 40
0.5
 40
0.5626518045000001
 40
0.6252967613
 40
0.6879537752
 40
0.7505946075
 40
0.8752942062999998
 40
1.0
 40
1.0
 40
1.0
 40
1.0
 10
1203.1877442325
 20
55.9419003834
 30
0.0
 10
1200.1963058605
 20
55.9419003781
 30
0.0
 10
1194.1500668951
 20
57.13561035859999
 30
0.0
 10
1187.7665573197
 20
61.41947395079999
 30
0.0
 10
1183.9415418713
 20
66.081166506
 30
0.0
 10
1181.8048785306
 20
70.08485890420001
 30
0.0
 10
1180.4824634219
 20
74.4255865075
 30
0.0
 10
1180.0442082084
 20
78.94190034260001
 30
0.0
 10
1180.482463406
 20
83.45821417919999
 30
0.0
 10
1181.8048784992
 20
87.79894178719999
 30
0.0
 10
1183.9415418259
 20
91.80263419280001
 30
0.0
 10
1187.7665572577
 20
96.4643267617
 30
0.0
 10
1194.150066818
 20
100.7481903765
 30
0.0
 10
1200.1963057793
 20
101.9419003781
 30
0.0
 10
1203.1877441513
 20
101.9419003834
 30
0.0
1001
ACAD_OBJECT_CHANGE_GUID
1070
     0
1071
        0
1070
     0
1070
     0
1070
     0
1070
     0
1070
     0
1070
     0
1070
     0
1070
     0
1070
     0
1070
     0
1070
     0
1071
        0
1070
     0
1070
     0
1070
     0
1070
     0
1070
     0
1070
     0
1070
     0
1070
     0
1070
     0
1070
     0
  0
SPLINE
  5
498
330
24E
100
AcDbEntity
  8
0
  6
Continuous
 62
     7
100
AcDbSpline
210
0.0
220
0.0
230
1.0
 70
     8
 71
     3
 72
    19
 73
    15
 74
     0
 42
0.0000000001
 43
0.0000000001
 40
0.0
 40
0.0
 40
0.0
 40
0.0
 40
0.1247057937
 40
0.2494053925
 40
0.3120462248
 40
0.3747032387
 40
0.4373481955
 40
0.5
 40
0.5626518045000001
 40
0.6252967613
 40
0.6879537752
 40
0.7505946075
 40
0.8752942062999998
 40
1.0
 40
1.0
 40
1.0
 40
1.0
 10
1203.1877441513
 20
101.9419003834
 30
0.0
 10
1206.1791825232
 20
101.9419003888
 30
0.0
 10
1212.2254214887
 20
100.7481904083
 30
0.0
 10
1218.6089310641
 20
96.46432681610001
 30
0.0
 10
1222.4339465125
 20
91.8026342609
 30
0.0
 10
1224.5706098532
 20
87.7989418627
 30
0.0
 10
1225.8930249619
 20
83.4582142594
 30
0.0
 10
1226.3312801754
 20
78.9419004243
 30
0.0
 10
1225.8930249778
 20
74.42558658770001
 30
0.0
 10
1224.5706098846
 20
70.0848589797
 30
0.0
 10
1222.4339465578
 20
66.0811665741
 30
0.0
 10
1218.6089311261
 20
61.4194740052
 30
0.0
 10
1212.2254215657
 20
57.1356103904
 30
0.0
 10
1206.1791826045
 20
55.9419003888
 30
0.0
 10
1203.1877442325
 20
55.9419003834
 30
0.0
1001
ACAD_OBJECT_CHANGE_GUID
1070
     0
1071
        0
1070
     0
1070
     0
1070
     0
1070
     0
1070
     0
1070
     0
1070
     0
1070
     0
1070
     0
1070
     0
1070
     0
1071
        0
1070
     0
1070
     0
1070
     0
1070
     0
1070
     0
1070
     0
1070
     0
1070
     0
1070
     0
1070
     0
  0
SPLINE
  5
499
330
24E
100
AcDbEntity
  8
0
  6
Continuous
 62
     7
100
AcDbSpline
210
0.0
220
0.0
230
1.0
 70
     8
 71
     3
 72
     8
 73
     4
 74
     0
 42
0.0000000001
 43
0.0000000001
 40
0.0
 40
0.0
 40
0.0
 40
0.0
 40
1.0
 40
1.0
 40
1.0
 40
1.0
 10
1909.3962803578
 20
697.8146519391999
 30
0.0
 10
1909.445842199
 20
697.8146744614
 30
0.0
 10
1909.4955219181
 20
697.8221199242
 30
0.0
 10
1909.5437745568
 20
697.8334362603999
 30
0.0
1001
ACAD_OBJECT_CHANGE_GUID
1070
     0
1071
        0
1070
     0
1070
     0
1070
     0
1070
     0
1070
     0
1070
     0
1070
     0
1070
     0
1070
     0
1070
     0
1070
     0
1071
        0
1070
     0
1070
     0
1070
     0
1070
     0
1070
     0
1070
     0
1070
     0
1070
     0
1070
     0
1070
     0
  0
SPLINE
  5
49A
330
24E
100
AcDbEntity
  8
0
  6
Continuous
 62
     7
100
AcDbSpline
210
0.0
220
0.0
230
1.0
 70
     8
 71
     3
 72
     8
 73
     4
 74
     0
 42
0.0000000001
 43
0.0000000001
 40
0.0
 40
0.0
 40
0.0
 40
0.0
 40
1.0
 40
1.0
 40
1.0
 40
1.0
 10
1909.5437745568
 20
697.8334362603999
 30
0.0
 10
1909.5832008614
 20
697.8426826213999
 30
0.0
 10
1909.6220357436
 20
697.8546383897
 30
0.0
 10
1909.6601273362
 20
697.868384635
 30
0.0
1001
ACAD_OBJECT_CHANGE_GUID
1070
     0
1071
        0
1070
     0
1070
     0
1070
     0
1070
     0
1070
     0
1070
     0
1070
     0
1070
     0
1070
     0
1070
     0
1070
     0
1071
        0
1070
     0
1070
     0
1070
     0
1070
     0
1070
     0
1070
     0
1070
     0
1070
     0
1070
     0
1070
     0
  0
SPLINE
  5
49B
330
24E
100
AcDbEntity
  8
0
  6
Continuous
 62
     7
100
AcDbSpline
210
0.0
220
0.0
230
1.0
 70
     8
 71
     3
 72
     8
 73
     4
 74
     0
 42
0.0000000001
 43
0.0000000001
 40
0.0
 40
0.0
 40
0.0
 40
0.0
 40
1.0
 40
1.0
 40
1.0
 40
1.0
 10
1909.1888576824
 20
697.8806798989999
 30
0.0
 10
1909.2215315141
 20
697.85419706
 30
0.0
 10
1909.2613913054
 20
697.8353551983
 30
0.0
 10
1909.3022300566
 20
697.8252995313
 30
0.0
1001
ACAD_OBJECT_CHANGE_GUID
1070
     0
1071
        0
1070
     0
1070
     0
1070
     0
1070
     0
1070
     0
1070
     0
1070
     0
1070
     0
1070
     0
1070
     0
1070
     0
1071
        0
1070
     0
1070
     0
1070
     0
1070
     0
1070
     0
1070
     0
1070
     0
1070
     0
1070
     0
1070
     0
  0
SPLINE
  5
49C
330
24E
100
AcDbEntity
  8
0
  6
Continuous
 62
     7
100
AcDbSpline
210
0.0
220
0.0
230
1.0
 70
     8
 71
     3
 72
     8
 73
     4
 74
     0
 42
0.0000000001
 43
0.0000000001
 40
0.0
 40
0.0
 40
0.0
 40
0.0
 40
1.0
 40
1.0
 40
1.0
 40
1.0
 10
1909.3022300566
 20
697.8252995313
 30
0.0
 10
1909.3328654002
 20
697.8177562347999
 30
0.0
 10
1909.3647299951
 20
697.8146376019
 30
0.0
 10
1909.3962803578
 20
697.8146519391999
 30
0.0
1001
ACAD_OBJECT_CHANGE_GUID
1070
     0
1071
        0
1070
     0
1070
     0
1070
     0
1070
     0
1070
     0
1070
     0
1070
     0
1070
     0
1070
     0
1070
     0
1070
     0
1071
        0
1070
     0
1070
     0
1070
     0
1070
     0
1070
     0
1070
     0
1070
     0
1070
     0
1070
     0
1070
     0
  0
SPLINE
  5
49D
330
24E
100
AcDbEntity
  8
0
  6
Continuous
 62
     7
100
AcDbSpline
210
0.0
220
0.0
230
1.0
 70
     8
 71
     3
 72
     8
 73
     4
 74
     0
 42
0.0000000001
 43
0.0000000001
 40
0.0
 40
0.0
 40
0.0
 40
0.0
 40
1.0
 40
1.0
 40
1.0
 40
1.0
 10
1909.3335343425
 20
698.3068513889999
 30
0.0
 10
1909.276456168299
 20
698.2660849819
 30
0.0
 10
1909.222515426099
 20
698.2180043325
 30
0.0
 10
1909.1823150968
 20
698.1605260632001
 30
0.0
1001
ACAD_OBJECT_CHANGE_GUID
1070
     0
1071
        0
1070
     0
1070
     0
1070
     0
1070
     0
1070
     0
1070
     0
1070
     0
1070
     0
1070
     0
1070
     0
1070
     0
1071
        0
1070
     0
1070
     0
1070
     0
1070
     0
1070
     0
1070
     0
1070
     0
1070
     0
1070
     0
1070
     0
  0
SPLINE
  5
49E
330
24E
100
AcDbEntity
  8
0
  6
Continuous
 62
     7
100
AcDbSpline
210
0.0
220
0.0
230
1.0
 70
     8
 71
     3
 72
     9
 73
     5
 74
     0
 42
0.0000000001
 43
0.0000000001
 40
0.0
 40
0.0
 40
0.0
 40
0.0
 40
0.2793930017
 40
1.0
 40
1.0
 40
1.0
 40
1.0
 10
1909.1823150968
 20
698.1605260632001
 30
0.0
 10
1909.1713988421
 20
698.1449180460999
 30
0.0
 10
1909.1358593252
 20
698.0872744942999
 30
0.0
 10
1909.1203724308
 20
698.0130901386999
 30
0.0
 10
1909.1325091026
 20
697.9654880883999
 30
0.0
1001
ACAD_OBJECT_CHANGE_GUID
1070
     0
1071
        0
1070
     0
1070
     0
1070
     0
1070
     0
1070
     0
1070
     0
1070
     0
1070
     0
1070
     0
1070
     0
1070
     0
1071
        0
1070
     0
1070
     0
1070
     0
1070
     0
1070
     0
1070
     0
1070
     0
1070
     0
1070
     0
1070
     0
  0
SPLINE
  5
49F
330
24E
100
AcDbEntity
  8
0
  6
Continuous
 62
     7
100
AcDbSpline
210
0.0
220
0.0
230
1.0
 70
     8
 71
     3
 72
     8
 73
     4
 74
     0
 42
0.0000000001
 43
0.0000000001
 40
0.0
 40
0.0
 40
0.0
 40
0.0
 40
1.0
 40
1.0
 40
1.0
 40
1.0
 10
1909.1325091026
 20
697.9654880883999
 30
0.0
 10
1909.1377936967
 20
697.9447610292999
 30
0.0
 10
1909.1480003438
 20
697.9248725067
 30
0.0
 10
1909.1613654045
 20
697.9081718159
 30
0.0
1001
ACAD_OBJECT_CHANGE_GUID
1070
     0
1071
        0
1070
     0
1070
     0
1070
     0
1070
     0
1070
     0
1070
     0
1070
     0
1070
     0
1070
     0
1070
     0
1070
     0
1071
        0
1070
     0
1070
     0
1070
     0
1070
     0
1070
     0
1070
     0
1070
     0
1070
     0
1070
     0
1070
     0
  0
SPLINE
  5
4A0
330
24E
100
AcDbEntity
  8
0
  6
Continuous
 62
     7
100
AcDbSpline
210
0.0
220
0.0
230
1.0
 70
     8
 71
     3
 72
     8
 73
     4
 74
     0
 42
0.0000000001
 43
0.0000000001
 40
0.0
 40
0.0
 40
0.0
 40
0.0
 40
1.0
 40
1.0
 40
1.0
 40
1.0
 10
1909.1613654045
 20
697.9081718159
 30
0.0
 10
1909.1694630546
 20
697.8980531675
 30
0.0
 10
1909.17879298
 20
697.8888445023
 30
0.0
 10
1909.1888576824
 20
697.8806798989999
 30
0.0
1001
ACAD_OBJECT_CHANGE_GUID
1070
     0
1071
        0
1070
     0
1070
     0
1070
     0
1070
     0
1070
     0
1070
     0
1070
     0
1070
     0
1070
     0
1070
     0
1070
     0
1071
        0
1070
     0
1070
     0
1070
     0
1070
     0
1070
     0
1070
     0
1070
     0
1070
     0
1070
     0
1070
     0
  0
SPLINE
  5
4A1
330
24E
100
AcDbEntity
  8
0
  6
Continuous
 62
     7
100
AcDbSpline
210
0.0
220
0.0
230
1.0
 70
     8
 71
     3
 72
     9
 73
     5
 74
     0
 42
0.0000000001
 43
0.0000000001
 40
0.0
 40
0.0
 40
0.0
 40
0.0
 40
0.2626127979
 40
1.0
 40
1.0
 40
1.0
 40
1.0
 10
1909.375679035
 20
-119.6889356853
 30
0.0
 10
1909.3325572702
 20
-119.7161272118
 30
0.0
 10
1909.1719744295
 20
-119.8252909344
 30
0.0
 10
1909.0259925235
 20
-119.9560150038
 30
0.0
 10
1908.9300463538
 20
-120.0622430314
 30
0.0
1001
ACAD_OBJECT_CHANGE_GUID
1070
     0
1071
        0
1070
     0
1070
     0
1070
     0
1070
     0
1070
     0
1070
     0
1070
     0
1070
     0
1070
     0
1070
     0
1070
     0
1071
        0
1070
     0
1070
     0
1070
     0
1070
     0
1070
     0
1070
     0
1070
     0
1070
     0
1070
     0
1070
     0
  0
SPLINE
  5
4A2
330
24E
100
AcDbEntity
  8
0
  6
Continuous
 62
     7
100
AcDbSpline
210
0.0
220
0.0
230
1.0
 70
     8
 71
     3
 72
     9
 73
     5
 74
     0
 42
0.0000000001
 43
0.0000000001
 40
0.0
 40
0.0
 40
0.0
 40
0.0
 40
0.2805005108
 40
1.0
 40
1.0
 40
1.0
 40
1.0
 10
1908.9300463538
 20
-120.0622430314
 30
0.0
 10
1908.8657068913
 20
-120.1334772892
 30
0.0
 10
1908.6550997689
 20
-120.4017553863
 30
0.0
 10
1908.5226037237
 20
-120.7452519755
 30
0.0
 10
1908.5226037237
 20
-120.9914690964
 30
0.0
1001
ACAD_OBJECT_CHANGE_GUID
1070
     0
1071
        0
1070
     0
1070
     0
1070
     0
1070
     0
1070
     0
1070
     0
1070
     0
1070
     0
1070
     0
1070
     0
1070
     0
1071
        0
1070
     0
1070
     0
1070
     0
1070
     0
1070
     0
1070
     0
1070
     0
1070
     0
1070
     0
1070
     0
  0
SPLINE
  5
4A3
330
24E
100
AcDbEntity
  8
0
  6
Continuous
 62
     7
100
AcDbSpline
210
0.0
220
0.0
230
1.0
 70
     8
 71
     3
 72
     9
 73
     5
 74
     0
 42
0.0000000001
 43
0.0000000001
 40
0.0
 40
0.0
 40
0.0
 40
0.0
 40
0.2269086043
 40
1.0
 40
1.0
 40
1.0
 40
1.0
 10
1908.5226037237
 20
-93.12473013669999
 30
0.0
 10
1908.5226037237
 20
-93.2024868402
 30
0.0
 10
1908.564043001
 20
-93.5453763163
 30
0.0
 10
1908.7524746635
 20
-93.8573554363
 30
0.0
 10
1908.9300463538
 20
-94.05395620170001
 30
0.0
1001
ACAD_OBJECT_CHANGE_GUID
1070
     0
1071
        0
1070
     0
1070
     0
1070
     0
1070
     0
1070
     0
1070
     0
1070
     0
1070
     0
1070
     0
1070
     0
1070
     0
1071
        0
1070
     0
1070
     0
1070
     0
1070
     0
1070
     0
1070
     0
1070
     0
1070
     0
1070
     0
1070
     0
  0
SPLINE
  5
4A4
330
24E
100
AcDbEntity
  8
0
  6
Continuous
 62
     7
100
AcDbSpline
210
0.0
220
0.0
230
1.0
 70
     8
 71
     3
 72
     9
 73
     5
 74
     0
 42
0.0000000001
 43
0.0000000001
 40
0.0
 40
0.0
 40
0.0
 40
0.0
 40
0.2378687215
 40
1.0
 40
1.0
 40
1.0
 40
1.0
 10
1908.9300463538
 20
-94.05395620170001
 30
0.0
 10
1908.9609950274
 20
-94.0882214211
 30
0.0
 10
1909.096007145899
 20
-94.22777636920001
 30
0.0
 10
1909.2505428005
 20
-94.3483557094
 30
0.0
 10
1909.375679035
 20
-94.42726354790002
 30
0.0
1001
ACAD_OBJECT_CHANGE_GUID
1070
     0
1071
        0
1070
     0
1070
     0
1070
     0
1070
     0
1070
     0
1070
     0
1070
     0
1070
     0
1070
     0
1070
     0
1070
     0
1071
        0
1070
     0
1070
     0
1070
     0
1070
     0
1070
     0
1070
     0
1070
     0
1070
     0
1070
     0
1070
     0
  0
SPLINE
  5
4A5
330
24E
100
AcDbEntity
  8
0
  6
Continuous
 62
     7
100
AcDbSpline
210
0.0
220
0.0
230
1.0
 70
     8
 71
     3
 72
     8
 73
     4
 74
     0
 42
0.0000000001
 43
0.0000000001
 40
0.0
 40
0.0
 40
0.0
 40
0.0
 40
1.0
 40
1.0
 40
1.0
 40
1.0
 10
1149.9186929513
 20
-677.5333531881999
 30
0.0
 10
1150.0234544057
 20
-677.4682537974999
 30
0.0
 10
1150.1424288345
 20
-677.4221347312999
 30
0.0
 10
1150.26369219
 20
-677.3995938436
 30
0.0
1001
ACAD_OBJECT_CHANGE_GUID
1070
     0
1071
        0
1070
     0
1070
     0
1070
     0
1070
     0
1070
     0
1070
     0
1070
     0
1070
     0
1070
     0
1070
     0
1070
     0
1071
        0
1070
     0
1070
     0
1070
     0
1070
     0
1070
     0
1070
     0
1070
     0
1070
     0
1070
     0
1070
     0
  0
SPLINE
  5
4A6
330
24E
100
AcDbEntity
  8
0
  6
Continuous
 62
     7
100
AcDbSpline
210
0.0
220
0.0
230
1.0
 70
     8
 71
     3
 72
     8
 73
     4
 74
     0
 42
0.0000000001
 43
0.0000000001
 40
0.0
 40
0.0
 40
0.0
 40
0.0
 40
1.0
 40
1.0
 40
1.0
 40
1.0
 10
986.8149788842
 20
-631.9520009161
 30
0.0
 10
986.8149970844999
 20
-632.0377840095
 30
0.0
 10
986.8036681586998
 20
-632.1244183231
 30
0.0
 10
986.7806138075
 20
-632.2070454150999
 30
0.0
1001
ACAD_OBJECT_CHANGE_GUID
1070
     0
1071
        0
1070
     0
1070
     0
1070
     0
1070
     0
1070
     0
1070
     0
1070
     0
1070
     0
1070
     0
1070
     0
1070
     0
1071
        0
1070
     0
1070
     0
1070
     0
1070
     0
1070
     0
1070
     0
1070
     0
1070
     0
1070
     0
1070
     0
  0
SPLINE
  5
4A7
330
24E
100
AcDbEntity
  8
0
  6
Continuous
 62
     7
100
AcDbSpline
210
0.0
220
0.0
230
1.0
 70
     8
 71
     3
 72
     8
 73
     4
 74
     0
 42
0.0000000001
 43
0.0000000001
 40
0.0
 40
0.0
 40
0.0
 40
0.0
 40
1.0
 40
1.0
 40
1.0
 40
1.0
 10
986.7806138075
 20
-632.2070454150999
 30
0.0
 10
986.7568904668999
 20
-632.2920701738
 30
0.0
 10
986.719843218
 20
-632.3751456924
 30
0.0
 10
986.668535961
 20
-632.4469758522
 30
0.0
1001
ACAD_OBJECT_CHANGE_GUID
1070
     0
1071
        0
1070
     0
1070
     0
1070
     0
1070
     0
1070
     0
1070
     0
1070
     0
1070
     0
1070
     0
1070
     0
1070
     0
1071
        0
1070
     0
1070
     0
1070
     0
1070
     0
1070
     0
1070
     0
1070
     0
1070
     0
1070
     0
1070
     0
  0
SPLINE
  5
4A8
330
24E
100
AcDbEntity
  8
0
  6
Continuous
 62
     7
100
AcDbSpline
210
0.0
220
0.0
230
1.0
 70
     8
 71
     3
 72
     9
 73
     5
 74
     0
 42
0.0000000001
 43
0.0000000001
 40
0.0
 40
0.0
 40
0.0
 40
0.0
 40
0.2574247012
 40
1.0
 40
1.0
 40
1.0
 40
1.0
 10
1419.7069524228
 20
-632.4469758522
 30
0.0
 10
1419.6809592766
 20
-632.4105854475
 30
0.0
 10
1419.594439123
 20
-632.2589554153999
 30
0.0
 10
1419.5604773924
 20
-632.0810024666
 30
0.0
 10
1419.5605044636
 20
-631.9520009021999
 30
0.0
1001
ACAD_OBJECT_CHANGE_GUID
1070
     0
1071
        0
1070
     0
1070
     0
1070
     0
1070
     0
1070
     0
1070
     0
1070
     0
1070
     0
1070
     0
1070
     0
1070
     0
1071
        0
1070
     0
1070
     0
1070
     0
1070
     0
1070
     0
1070
     0
1070
     0
1070
     0
1070
     0
1070
     0
  0
SPLINE
  5
4A9
330
24E
100
AcDbEntity
  8
0
  6
Continuous
 62
     7
100
AcDbSpline
210
0.0
220
0.0
230
1.0
 70
     8
 71
     3
 72
    11
 73
     7
 74
     0
 42
0.0000000001
 43
0.0000000001
 40
0.0
 40
0.0
 40
0.0
 40
0.0
 40
0.274013865
 40
0.4893361553
 40
0.7013409076999999
 40
1.0
 40
1.0
 40
1.0
 40
1.0
 10
986.8149215608999
 20
-631.9410654541
 30
0.0
 10
986.8144997366
 20
-631.9032620481
 30
0.0
 10
986.8117707175001
 20
-631.8380981233
 30
0.0
 10
986.7718494135001
 20
-631.7352673023999
 30
0.0
 10
986.6552694438
 20
-631.7322436167
 30
0.0
 10
986.5969686914999
 20
-631.7726382975999
 30
0.0
 10
986.5632959442999
 20
-631.796388794
 30
0.0
1001
ACAD_OBJECT_CHANGE_GUID
1070
     0
1071
        0
1070
     0
1070
     0
1070
     0
1070
     0
1070
     0
1070
     0
1070
     0
1070
     0
1070
     0
1070
     0
1070
     0
1071
        0
1070
     0
1070
     0
1070
     0
1070
     0
1070
     0
1070
     0
1070
     0
1070
     0
1070
     0
1070
     0
  0
SPLINE
  5
4AA
330
24E
100
AcDbEntity
  8
0
  6
Continuous
 62
     7
100
AcDbSpline
210
0.0
220
0.0
230
1.0
 70
     8
 71
     3
 72
    11
 73
     7
 74
     0
 42
0.0000000001
 43
0.0000000001
 40
0.0
 40
0.0
 40
0.0
 40
0.0
 40
0.2986249576
 40
0.5105775770000001
 40
0.7259963950000001
 40
1.0
 40
1.0
 40
1.0
 40
1.0
 10
1419.8120460478
 20
-631.7963204163
 30
0.0
 10
1419.7783982645
 20
-631.7725634125999
 30
0.0
 10
1419.7201205368
 20
-631.7321492388999
 30
0.0
 10
1419.603575896
 20
-631.7352967198001
 30
0.0
 10
1419.5637360447
 20
-631.8381179860999
 30
0.0
 10
1419.5609887485
 20
-631.9032712139
 30
0.0
 10
1419.5605668677
 20
-631.9410622519
 30
0.0
1001
ACAD_OBJECT_CHANGE_GUID
1070
     0
1071
        0
1070
     0
1070
     0
1070
     0
1070
     0
1070
     0
1070
     0
1070
     0
1070
     0
1070
     0
1070
     0
1070
     0
1071
        0
1070
     0
1070
     0
1070
     0
1070
     0
1070
     0
1070
     0
1070
     0
1070
     0
1070
     0
1070
     0
  0
ELLIPSE
  5
4AB
330
24E
100
AcDbEntity
  8
0
  6
Continuous
 62
     7
100
AcDbEllipse
 10
1203.1877441919
 20
110.7495926911
 30
0.0
 11
36.5
 21
0.0
 31
0.0
210
0.0
220
0.0
230
1.0
 40
0.3076923077
 41
-3.127893595
 42
-3.1141919647
1001
ACAD_OBJECT_CHANGE_GUID
1070
     0
1071
        0
1070
     0
1070
     0
1070
     0
1070
     0
1070
     0
1070
     0
1070
     0
1070
     0
1070
     0
1070
     0
1070
     0
1071
        0
1070
     0
1070
     0
1070
     0
1070
     0
1070
     0
1070
     0
1070
     0
1070
     0
1070
     0
1070
     0
  0
ELLIPSE
  5
4AC
330
24E
100
AcDbEntity
  8
0
  6
Continuous
 62
     7
100
AcDbEllipse
 10
1203.1877441919
 20
110.7495926911
 30
0.0
 11
36.5
 21
0.0
 31
0.0
210
0.0
220
0.0
230
1.0
 40
0.3076923077
 41
2.9903315748
 42
3.127893595
1001
ACAD_OBJECT_CHANGE_GUID
1070
     0
1071
        0
1070
     0
1070
     0
1070
     0
1070
     0
1070
     0
1070
     0
1070
     0
1070
     0
1070
     0
1070
     0
1070
     0
1071
        0
1070
     0
1070
     0
1070
     0
1070
     0
1070
     0
1070
     0
1070
     0
1070
     0
1070
     0
1070
     0
  0
ELLIPSE
  5
4AD
330
24E
100
AcDbEntity
  8
0
  6
Continuous
 62
     7
100
AcDbEllipse
 10
1237.6877441919
 20
110.8169003834
 30
0.0
 11
1.0
 21
0.0
 31
0.0
210
0.0
220
0.0
230
1.0
 40
0.375
 41
-0.4849422786
 42
0.0
1001
ACAD_OBJECT_CHANGE_GUID
1070
     0
1071
        0
1070
     0
1070
     0
1070
     0
1070
     0
1070
     0
1070
     0
1070
     0
1070
     0
1070
     0
1070
     0
1070
     0
1071
        0
1070
     0
1070
     0
1070
     0
1070
     0
1070
     0
1070
     0
1070
     0
1070
     0
1070
     0
1070
     0
  0
ELLIPSE
  5
4AE
330
24E
100
AcDbEntity
  8
0
  6
Continuous
 62
     7
100
AcDbEllipse
 10
1203.1877441919
 20
110.7495926911
 30
0.0
 11
36.5
 21
0.0
 31
0.0
210
0.0
220
0.0
230
1.0
 40
0.3076923077
 41
-0.0274006889
 42
-0.0136990586
1001
ACAD_OBJECT_CHANGE_GUID
1070
     0
1071
        0
1070
     0
1070
     0
1070
     0
1070
     0
1070
     0
1070
     0
1070
     0
1070
     0
1070
     0
1070
     0
1070
     0
1071
        0
1070
     0
1070
     0
1070
     0
1070
     0
1070
     0
1070
     0
1070
     0
1070
     0
1070
     0
1070
     0
  0
ELLIPSE
  5
4AF
330
24E
100
AcDbEntity
  8
0
  6
Continuous
 62
     7
100
AcDbEllipse
 10
1203.1877441919
 20
115.4669003834
 30
0.0
 11
33.5
 21
0.0
 31
0.0
210
0.0
220
0.0
230
1.0
 40
0.45
 41
-3.126666726299999
 42
-3.006857006999999
1001
ACAD_OBJECT_CHANGE_GUID
1070
     0
1071
        0
1070
     0
1070
     0
1070
     0
1070
     0
1070
     0
1070
     0
1070
     0
1070
     0
1070
     0
1070
     0
1070
     0
1071
        0
1070
     0
1070
     0
1070
     0
1070
     0
1070
     0
1070
     0
1070
     0
1070
     0
1070
     0
1070
     0
  0
ELLIPSE
  5
4B0
330
24E
100
AcDbEntity
  8
0
  6
Continuous
 62
     7
100
AcDbEllipse
 10
1203.1877441919
 20
145.9419003834
 30
0.0
 11
30.9499643391
 21
30.9499643391
 31
0.0
210
0.0
220
0.0
230
1.0
 40
0.4142135624
 41
-3.017358907599999
 42
-2.921882874499999
1001
ACAD_OBJECT_CHANGE_GUID
1070
     0
1071
        0
1070
     0
1070
     0
1070
     0
1070
     0
1070
     0
1070
     0
1070
     0
1070
     0
1070
     0
1070
     0
1070
     0
1071
        0
1070
     0
1070
     0
1070
     0
1070
     0
1070
     0
1070
     0
1070
     0
1070
     0
1070
     0
1070
     0
  0
ELLIPSE
  5
4B1
330
24E
100
AcDbEntity
  8
0
  6
Continuous
 62
     7
100
AcDbEllipse
 10
1203.1877441919
 20
82.9419003834
 30
0.0
 11
-30.9499643391
 21
30.9499643391
 31
0.0
210
0.0
220
0.0
230
1.0
 40
0.4142135624
 41
-0.2197097791
 42
-0.124233746
1001
ACAD_OBJECT_CHANGE_GUID
1070
     0
1071
        0
1070
     0
1070
     0
1070
     0
1070
     0
1070
     0
1070
     0
1070
     0
1070
     0
1070
     0
1070
     0
1070
     0
1071
        0
1070
     0
1070
     0
1070
     0
1070
     0
1070
     0
1070
     0
1070
     0
1070
     0
1070
     0
1070
     0
  0
ELLIPSE
  5
4B2
330
24E
100
AcDbEntity
  8
0
  6
Continuous
 62
     7
100
AcDbEllipse
 10
1203.1877441919
 20
149.9419003834
 30
0.0
 11
30.9499643391
 21
30.9499643391
 31
0.0
210
0.0
220
0.0
230
1.0
 40
0.4142135624
 41
-3.017358907599999
 42
-2.921882874499999
1001
ACAD_OBJECT_CHANGE_GUID
1070
     0
1071
        0
1070
     0
1070
     0
1070
     0
1070
     0
1070
     0
1070
     0
1070
     0
1070
     0
1070
     0
1070
     0
1070
     0
1071
        0
1070
     0
1070
     0
1070
     0
1070
     0
1070
     0
1070
     0
1070
     0
1070
     0
1070
     0
1070
     0
  0
ELLIPSE
  5
4B3
330
24E
100
AcDbEntity
  8
0
  6
Continuous
 62
     7
100
AcDbEllipse
 10
1203.1877441919
 20
86.9419003834
 30
0.0
 11
-30.9499643391
 21
30.9499643391
 31
0.0
210
0.0
220
0.0
230
1.0
 40
0.4142135624
 41
-0.2197097791
 42
-0.124233746
1001
ACAD_OBJECT_CHANGE_GUID
1070
     0
1071
        0
1070
     0
1070
     0
1070
     0
1070
     0
1070
     0
1070
     0
1070
     0
1070
     0
1070
     0
1070
     0
1070
     0
1071
        0
1070
     0
1070
     0
1070
     0
1070
     0
1070
     0
1070
     0
1070
     0
1070
     0
1070
     0
1070
     0
  0
ELLIPSE
  5
4B4
330
24E
100
AcDbEntity
  8
0
  6
Continuous
 62
     7
100
AcDbEllipse
 10
1203.1877441919
 20
153.9419003834
 30
0.0
 11
30.9499643391
 21
30.9499643391
 31
0.0
210
0.0
220
0.0
230
1.0
 40
0.4142135624
 41
-3.017358907599999
 42
-2.921882874499999
1001
ACAD_OBJECT_CHANGE_GUID
1070
     0
1071
        0
1070
     0
1070
     0
1070
     0
1070
     0
1070
     0
1070
     0
1070
     0
1070
     0
1070
     0
1070
     0
1070
     0
1071
        0
1070
     0
1070
     0
1070
     0
1070
     0
1070
     0
1070
     0
1070
     0
1070
     0
1070
     0
1070
     0
  0
ELLIPSE
  5
4B5
330
24E
100
AcDbEntity
  8
0
  6
Continuous
 62
     7
100
AcDbEllipse
 10
1203.1877441919
 20
90.9419003834
 30
0.0
 11
-30.9499643391
 21
30.9499643391
 31
0.0
210
0.0
220
0.0
230
1.0
 40
0.4142135624
 41
-0.2197097791
 42
-0.124233746
1001
ACAD_OBJECT_CHANGE_GUID
1070
     0
1071
        0
1070
     0
1070
     0
1070
     0
1070
     0
1070
     0
1070
     0
1070
     0
1070
     0
1070
     0
1070
     0
1070
     0
1071
        0
1070
     0
1070
     0
1070
     0
1070
     0
1070
     0
1070
     0
1070
     0
1070
     0
1070
     0
1070
     0
  0
ELLIPSE
  5
4B6
330
24E
100
AcDbEntity
  8
0
  6
Continuous
 62
     7
100
AcDbEllipse
 10
1203.1877441919
 20
157.9419003834
 30
0.0
 11
30.9499643391
 21
30.9499643391
 31
0.0
210
0.0
220
0.0
230
1.0
 40
0.4142135624
 41
-3.017358907599999
 42
-2.921882874499999
1001
ACAD_OBJECT_CHANGE_GUID
1070
     0
1071
        0
1070
     0
1070
     0
1070
     0
1070
     0
1070
     0
1070
     0
1070
     0
1070
     0
1070
     0
1070
     0
1070
     0
1071
        0
1070
     0
1070
     0
1070
     0
1070
     0
1070
     0
1070
     0
1070
     0
1070
     0
1070
     0
1070
     0
  0
ELLIPSE
  5
4B7
330
24E
100
AcDbEntity
  8
0
  6
Continuous
 62
     7
100
AcDbEllipse
 10
1203.1877441919
 20
94.94190038339999
 30
0.0
 11
-30.9499643391
 21
30.9499643391
 31
0.0
210
0.0
220
0.0
230
1.0
 40
0.4142135624
 41
-0.2197097791
 42
-0.124233746
1001
ACAD_OBJECT_CHANGE_GUID
1070
     0
1071
        0
1070
     0
1070
     0
1070
     0
1070
     0
1070
     0
1070
     0
1070
     0
1070
     0
1070
     0
1070
     0
1070
     0
1071
        0
1070
     0
1070
     0
1070
     0
1070
     0
1070
     0
1070
     0
1070
     0
1070
     0
1070
     0
1070
     0
  0
ELLIPSE
  5
4B8
330
24E
100
AcDbEntity
  8
0
  6
Continuous
 62
     7
100
AcDbEllipse
 10
1203.1877441919
 20
82.9419003834
 30
0.0
 11
30.9499643391
 21
30.9499643391
 31
0.0
210
0.0
220
0.0
230
1.0
 40
0.4142135624
 41
0.124233746
 42
0.2197097791
1001
ACAD_OBJECT_CHANGE_GUID
1070
     0
1071
        0
1070
     0
1070
     0
1070
     0
1070
     0
1070
     0
1070
     0
1070
     0
1070
     0
1070
     0
1070
     0
1070
     0
1071
        0
1070
     0
1070
     0
1070
     0
1070
     0
1070
     0
1070
     0
1070
     0
1070
     0
1070
     0
1070
     0
  0
ELLIPSE
  5
4B9
330
24E
100
AcDbEntity
  8
0
  6
Continuous
 62
     7
100
AcDbEllipse
 10
1203.1877441919
 20
145.9419003834
 30
0.0
 11
-30.9499643391
 21
30.9499643391
 31
0.0
210
0.0
220
0.0
230
1.0
 40
0.4142135624
 41
-3.361302432699999
 42
-3.265826399599999
1001
ACAD_OBJECT_CHANGE_GUID
1070
     0
1071
        0
1070
     0
1070
     0
1070
     0
1070
     0
1070
     0
1070
     0
1070
     0
1070
     0
1070
     0
1070
     0
1070
     0
1071
        0
1070
     0
1070
     0
1070
     0
1070
     0
1070
     0
1070
     0
1070
     0
1070
     0
1070
     0
1070
     0
  0
ELLIPSE
  5
4BA
330
24E
100
AcDbEntity
  8
0
  6
Continuous
 62
     7
100
AcDbEllipse
 10
1203.1877441919
 20
149.9419003834
 30
0.0
 11
-30.9499643391
 21
30.9499643391
 31
0.0
210
0.0
220
0.0
230
1.0
 40
0.4142135624
 41
-3.361302432699999
 42
-3.265826399599999
1001
ACAD_OBJECT_CHANGE_GUID
1070
     0
1071
        0
1070
     0
1070
     0
1070
     0
1070
     0
1070
     0
1070
     0
1070
     0
1070
     0
1070
     0
1070
     0
1070
     0
1071
        0
1070
     0
1070
     0
1070
     0
1070
     0
1070
     0
1070
     0
1070
     0
1070
     0
1070
     0
1070
     0
  0
ELLIPSE
  5
4BB
330
24E
100
AcDbEntity
  8
0
  6
Continuous
 62
     7
100
AcDbEllipse
 10
1203.1877441919
 20
86.9419003834
 30
0.0
 11
30.9499643391
 21
30.9499643391
 31
0.0
210
0.0
220
0.0
230
1.0
 40
0.4142135624
 41
0.124233746
 42
0.2197097791
1001
ACAD_OBJECT_CHANGE_GUID
1070
     0
1071
        0
1070
     0
1070
     0
1070
     0
1070
     0
1070
     0
1070
     0
1070
     0
1070
     0
1070
     0
1070
     0
1070
     0
1071
        0
1070
     0
1070
     0
1070
     0
1070
     0
1070
     0
1070
     0
1070
     0
1070
     0
1070
     0
1070
     0
  0
ELLIPSE
  5
4BC
330
24E
100
AcDbEntity
  8
0
  6
Continuous
 62
     7
100
AcDbEllipse
 10
1203.1877441919
 20
153.9419003834
 30
0.0
 11
-30.9499643391
 21
30.9499643391
 31
0.0
210
0.0
220
0.0
230
1.0
 40
0.4142135624
 41
-3.361302432699999
 42
-3.265826399599999
1001
ACAD_OBJECT_CHANGE_GUID
1070
     0
1071
        0
1070
     0
1070
     0
1070
     0
1070
     0
1070
     0
1070
     0
1070
     0
1070
     0
1070
     0
1070
     0
1070
     0
1071
        0
1070
     0
1070
     0
1070
     0
1070
     0
1070
     0
1070
     0
1070
     0
1070
     0
1070
     0
1070
     0
  0
ELLIPSE
  5
4BD
330
24E
100
AcDbEntity
  8
0
  6
Continuous
 62
     7
100
AcDbEllipse
 10
1203.1877441919
 20
90.9419003834
 30
0.0
 11
30.9499643391
 21
30.9499643391
 31
0.0
210
0.0
220
0.0
230
1.0
 40
0.4142135624
 41
0.124233746
 42
0.2197097791
1001
ACAD_OBJECT_CHANGE_GUID
1070
     0
1071
        0
1070
     0
1070
     0
1070
     0
1070
     0
1070
     0
1070
     0
1070
     0
1070
     0
1070
     0
1070
     0
1070
     0
1071
        0
1070
     0
1070
     0
1070
     0
1070
     0
1070
     0
1070
     0
1070
     0
1070
     0
1070
     0
1070
     0
  0
ELLIPSE
  5
4BE
330
24E
100
AcDbEntity
  8
0
  6
Continuous
 62
     7
100
AcDbEllipse
 10
1203.1877441919
 20
157.9419003834
 30
0.0
 11
-30.9499643391
 21
30.9499643391
 31
0.0
210
0.0
220
0.0
230
1.0
 40
0.4142135624
 41
-3.361302432699999
 42
-3.265826399599999
1001
ACAD_OBJECT_CHANGE_GUID
1070
     0
1071
        0
1070
     0
1070
     0
1070
     0
1070
     0
1070
     0
1070
     0
1070
     0
1070
     0
1070
     0
1070
     0
1070
     0
1071
        0
1070
     0
1070
     0
1070
     0
1070
     0
1070
     0
1070
     0
1070
     0
1070
     0
1070
     0
1070
     0
  0
ELLIPSE
  5
4BF
330
24E
100
AcDbEntity
  8
0
  6
Continuous
 62
     7
100
AcDbEllipse
 10
1203.1877441919
 20
94.94190038339999
 30
0.0
 11
30.9499643391
 21
30.9499643391
 31
0.0
210
0.0
220
0.0
230
1.0
 40
0.4142135624
 41
0.124233746
 42
0.2197097791
1001
ACAD_OBJECT_CHANGE_GUID
1070
     0
1071
        0
1070
     0
1070
     0
1070
     0
1070
     0
1070
     0
1070
     0
1070
     0
1070
     0
1070
     0
1070
     0
1070
     0
1071
        0
1070
     0
1070
     0
1070
     0
1070
     0
1070
     0
1070
     0
1070
     0
1070
     0
1070
     0
1070
     0
  0
ELLIPSE
  5
4C0
330
24E
100
AcDbEntity
  8
0
  6
Continuous
 62
     7
100
AcDbEllipse
 10
1203.1877441919
 20
149.9419003834
 30
0.0
 11
30.9499643391
 21
30.9499643391
 31
0.0
210
0.0
220
0.0
230
1.0
 40
0.4142135624
 41
3.7072810379
 42
3.802757071
1001
ACAD_OBJECT_CHANGE_GUID
1070
     0
1071
        0
1070
     0
1070
     0
1070
     0
1070
     0
1070
     0
1070
     0
1070
     0
1070
     0
1070
     0
1070
     0
1070
     0
1071
        0
1070
     0
1070
     0
1070
     0
1070
     0
1070
     0
1070
     0
1070
     0
1070
     0
1070
     0
1070
     0
  0
ELLIPSE
  5
4C1
330
24E
100
AcDbEntity
  8
0
  6
Continuous
 62
     7
100
AcDbEllipse
 10
1203.1877441919
 20
153.9419003834
 30
0.0
 11
30.9499643391
 21
30.9499643391
 31
0.0
210
0.0
220
0.0
230
1.0
 40
0.4142135624
 41
3.7072810379
 42
3.802757071
1001
ACAD_OBJECT_CHANGE_GUID
1070
     0
1071
        0
1070
     0
1070
     0
1070
     0
1070
     0
1070
     0
1070
     0
1070
     0
1070
     0
1070
     0
1070
     0
1070
     0
1071
        0
1070
     0
1070
     0
1070
     0
1070
     0
1070
     0
1070
     0
1070
     0
1070
     0
1070
     0
1070
     0
  0
ELLIPSE
  5
4C2
330
24E
100
AcDbEntity
  8
0
  6
Continuous
 62
     7
100
AcDbEllipse
 10
1203.1877441919
 20
157.9419003834
 30
0.0
 11
30.9499643391
 21
30.9499643391
 31
0.0
210
0.0
220
0.0
230
1.0
 40
0.4142135624
 41
3.7072810379
 42
3.802757071
1001
ACAD_OBJECT_CHANGE_GUID
1070
     0
1071
        0
1070
     0
1070
     0
1070
     0
1070
     0
1070
     0
1070
     0
1070
     0
1070
     0
1070
     0
1070
     0
1070
     0
1071
        0
1070
     0
1070
     0
1070
     0
1070
     0
1070
     0
1070
     0
1070
     0
1070
     0
1070
     0
1070
     0
  0
ELLIPSE
  5
4C3
330
24E
100
AcDbEntity
  8
0
  6
Continuous
 62
     7
100
AcDbEllipse
 10
1203.1877441919
 20
145.9419003834
 30
0.0
 11
30.9499643391
 21
30.9499643391
 31
0.0
210
0.0
220
0.0
230
1.0
 40
0.4142135624
 41
3.7072810379
 42
3.802757071
1001
ACAD_OBJECT_CHANGE_GUID
1070
     0
1071
        0
1070
     0
1070
     0
1070
     0
1070
     0
1070
     0
1070
     0
1070
     0
1070
     0
1070
     0
1070
     0
1070
     0
1071
        0
1070
     0
1070
     0
1070
     0
1070
     0
1070
     0
1070
     0
1070
     0
1070
     0
1070
     0
1070
     0
  0
ELLIPSE
  5
4C4
330
24E
100
AcDbEntity
  8
0
  6
Continuous
 62
     7
100
AcDbEllipse
 10
1203.1877441919
 20
94.94190038339999
 30
0.0
 11
30.9499643391
 21
30.9499643391
 31
0.0
210
0.0
220
0.0
230
1.0
 40
0.4142135624
 41
6.848873691499999
 42
6.9443497246
1001
ACAD_OBJECT_CHANGE_GUID
1070
     0
1071
        0
1070
     0
1070
     0
1070
     0
1070
     0
1070
     0
1070
     0
1070
     0
1070
     0
1070
     0
1070
     0
1070
     0
1071
        0
1070
     0
1070
     0
1070
     0
1070
     0
1070
     0
1070
     0
1070
     0
1070
     0
1070
     0
1070
     0
  0
ELLIPSE
  5
4C5
330
24E
100
AcDbEntity
  8
0
  6
Continuous
 62
     7
100
AcDbEllipse
 10
1203.1877441919
 20
157.9419003834
 30
0.0
 11
-30.9499643391
 21
30.9499643391
 31
0.0
210
0.0
220
0.0
230
1.0
 40
0.4142135624
 41
2.480428236199999
 42
2.5759042693
1001
ACAD_OBJECT_CHANGE_GUID
1070
     0
1071
        0
1070
     0
1070
     0
1070
     0
1070
     0
1070
     0
1070
     0
1070
     0
1070
     0
1070
     0
1070
     0
1070
     0
1071
        0
1070
     0
1070
     0
1070
     0
1070
     0
1070
     0
1070
     0
1070
     0
1070
     0
1070
     0
1070
     0
  0
ELLIPSE
  5
4C6
330
24E
100
AcDbEntity
  8
0
  6
Continuous
 62
     7
100
AcDbEllipse
 10
1203.1877441919
 20
90.9419003834
 30
0.0
 11
30.9499643391
 21
30.9499643391
 31
0.0
210
0.0
220
0.0
230
1.0
 40
0.4142135624
 41
6.848873691499999
 42
6.9443497246
1001
ACAD_OBJECT_CHANGE_GUID
1070
     0
1071
        0
1070
     0
1070
     0
1070
     0
1070
     0
1070
     0
1070
     0
1070
     0
1070
     0
1070
     0
1070
     0
1070
     0
1071
        0
1070
     0
1070
     0
1070
     0
1070
     0
1070
     0
1070
     0
1070
     0
1070
     0
1070
     0
1070
     0
  0
ELLIPSE
  5
4C7
330
24E
100
AcDbEntity
  8
0
  6
Continuous
 62
     7
100
AcDbEllipse
 10
1203.1877441919
 20
86.9419003834
 30
0.0
 11
30.9499643391
 21
30.9499643391
 31
0.0
210
0.0
220
0.0
230
1.0
 40
0.4142135624
 41
6.848873691499999
 42
6.9443497246
1001
ACAD_OBJECT_CHANGE_GUID
1070
     0
1071
        0
1070
     0
1070
     0
1070
     0
1070
     0
1070
     0
1070
     0
1070
     0
1070
     0
1070
     0
1070
     0
1070
     0
1071
        0
1070
     0
1070
     0
1070
     0
1070
     0
1070
     0
1070
     0
1070
     0
1070
     0
1070
     0
1070
     0
  0
ELLIPSE
  5
4C8
330
24E
100
AcDbEntity
  8
0
  6
Continuous
 62
     7
100
AcDbEllipse
 10
1203.1877441919
 20
153.9419003834
 30
0.0
 11
-30.9499643391
 21
30.9499643391
 31
0.0
210
0.0
220
0.0
230
1.0
 40
0.4142135624
 41
2.480428236199999
 42
2.5759042693
1001
ACAD_OBJECT_CHANGE_GUID
1070
     0
1071
        0
1070
     0
1070
     0
1070
     0
1070
     0
1070
     0
1070
     0
1070
     0
1070
     0
1070
     0
1070
     0
1070
     0
1071
        0
1070
     0
1070
     0
1070
     0
1070
     0
1070
     0
1070
     0
1070
     0
1070
     0
1070
     0
1070
     0
  0
ELLIPSE
  5
4C9
330
24E
100
AcDbEntity
  8
0
  6
Continuous
 62
     7
100
AcDbEllipse
 10
1203.1877441919
 20
149.9419003834
 30
0.0
 11
-30.9499643391
 21
30.9499643391
 31
0.0
210
0.0
220
0.0
230
1.0
 40
0.4142135624
 41
2.480428236199999
 42
2.5759042693
1001
ACAD_OBJECT_CHANGE_GUID
1070
     0
1071
        0
1070
     0
1070
     0
1070
     0
1070
     0
1070
     0
1070
     0
1070
     0
1070
     0
1070
     0
1070
     0
1070
     0
1071
        0
1070
     0
1070
     0
1070
     0
1070
     0
1070
     0
1070
     0
1070
     0
1070
     0
1070
     0
1070
     0
  0
ELLIPSE
  5
4CA
330
24E
100
AcDbEntity
  8
0
  6
Continuous
 62
     7
100
AcDbEllipse
 10
1203.1877441919
 20
82.9419003834
 30
0.0
 11
30.9499643391
 21
30.9499643391
 31
0.0
210
0.0
220
0.0
230
1.0
 40
0.4142135624
 41
6.848873691499999
 42
6.9443497246
1001
ACAD_OBJECT_CHANGE_GUID
1070
     0
1071
        0
1070
     0
1070
     0
1070
     0
1070
     0
1070
     0
1070
     0
1070
     0
1070
     0
1070
     0
1070
     0
1070
     0
1071
        0
1070
     0
1070
     0
1070
     0
1070
     0
1070
     0
1070
     0
1070
     0
1070
     0
1070
     0
1070
     0
  0
ELLIPSE
  5
4CB
330
24E
100
AcDbEntity
  8
0
  6
Continuous
 62
     7
100
AcDbEllipse
 10
1203.1877441919
 20
145.9419003834
 30
0.0
 11
-30.9499643391
 21
30.9499643391
 31
0.0
210
0.0
220
0.0
230
1.0
 40
0.4142135624
 41
2.480428236199999
 42
2.5759042693
1001
ACAD_OBJECT_CHANGE_GUID
1070
     0
1071
        0
1070
     0
1070
     0
1070
     0
1070
     0
1070
     0
1070
     0
1070
     0
1070
     0
1070
     0
1070
     0
1070
     0
1071
        0
1070
     0
1070
     0
1070
     0
1070
     0
1070
     0
1070
     0
1070
     0
1070
     0
1070
     0
1070
     0
  0
ELLIPSE
  5
4CC
330
24E
100
AcDbEntity
  8
0
  6
Continuous
 62
     7
100
AcDbEllipse
 10
1909.3444699938
 20
698.3146620049999
 30
0.0
 11
0.7
 21
0.0
 31
0.0
210
0.0
220
0.0
230
1.0
 40
0.7142857143000001
 41
-1.1029791628
 42
-0.7853981634000001
1001
ACAD_OBJECT_CHANGE_GUID
1070
     0
1071
        0
1070
     0
1070
     0
1070
     0
1070
     0
1070
     0
1070
     0
1070
     0
1070
     0
1070
     0
1070
     0
1070
     0
1071
        0
1070
     0
1070
     0
1070
     0
1070
     0
1070
     0
1070
     0
1070
     0
1070
     0
1070
     0
1070
     0
  0
ELLIPSE
  5
4CD
330
24E
100
AcDbEntity
  8
0
  6
Continuous
 62
     7
100
AcDbEllipse
 10
1893.1211989489
 20
-107.0580996166
 30
0.0
 11
24.28571428570001
 21
0.0
 31
0.0
210
0.0
220
0.0
230
1.0
 40
0.6999999999999999
 41
-0.837527221
 42
0.837527221
1001
ACAD_OBJECT_CHANGE_GUID
1070
     0
1071
        0
1070
     0
1070
     0
1070
     0
1070
     0
1070
     0
1070
     0
1070
     0
1070
     0
1070
     0
1070
     0
1070
     0
1071
        0
1070
     0
1070
     0
1070
     0
1070
     0
1070
     0
1070
     0
1070
     0
1070
     0
1070
     0
1070
     0
  0
ENDSEC
  0
SECTION
  2
OBJECTS
  0
DICTIONARY
  5
C
330
0
100
AcDbDictionary
281
     1
  3
ACAD_COLOR
350
504
  3
ACAD_DETAILVIEWSTYLE
350
51D
  3
ACAD_GROUP
350
D
  3
ACAD_LAYOUT
350
1A
  3
ACAD_MATERIAL
350
4D2
  3
ACAD_MLEADERSTYLE
350
519
  3
ACAD_MLINESTYLE
350
17
  3
ACAD_PLOTSETTINGS
350
19
  3
ACAD_PLOTSTYLENAME
350
E
  3
ACAD_SCALELIST
350
507
  3
ACAD_SECTIONVIEWSTYLE
350
51B
  3
ACAD_TABLESTYLE
350
505
  3
ACAD_VISUALSTYLE
350
4EB
  3
ACDB_RECOMPOSE_DATA
350
7C6
  3
ACDBHEADERROUNDTRIPXREC
350
7C3
  3
AcDbVariableDictionary
350
553
  0
DICTIONARY
  5
504
102
{ACAD_REACTORS
330
C
102
}
330
C
100
AcDbDictionary
281
     1
  0
DICTIONARY
  5
51D
102
{ACAD_REACTORS
330
C
102
}
330
C
100
AcDbDictionary
281
     1
  3
Metric50
350
51E
  0
DICTIONARY
  5
D
102
{ACAD_REACTORS
330
C
102
}
330
C
100
AcDbDictionary
281
     1
  0
DICTIONARY
  5
1A
102
{ACAD_REACTORS
330
C
102
}
330
C
100
AcDbDictionary
281
     1
  3
Layout1
350
4CF
  3
Model
350
4CE
  0
DICTIONARY
  5
4D2
102
{ACAD_REACTORS
330
C
102
}
330
C
100
AcDbDictionary
281
     1
  3
ByBlock
350
4DB
  3
ByLayer
350
4D3
  3
Global
350
4E3
  0
DICTIONARY
  5
519
102
{ACAD_REACTORS
330
C
102
}
330
C
100
AcDbDictionary
281
     1
  3
Standard
350
51A
  0
DICTIONARY
  5
17
102
{ACAD_REACTORS
330
C
102
}
330
C
100
AcDbDictionary
281
     1
  3
Standard
350
18
  0
DICTIONARY
  5
19
102
{ACAD_REACTORS
330
C
102
}
330
C
100
AcDbDictionary
281
     1
  0
ACDBDICTIONARYWDFLT
  5
E
102
{ACAD_REACTORS
330
C
102
}
330
C
100
AcDbDictionary
281
     1
  3
Normal
350
F
100
AcDbDictionaryWithDefault
340
F
  0
DICTIONARY
  5
507
102
{ACAD_REACTORS
330
C
102
}
330
C
100
AcDbDictionary
281
     1
  3
A0
350
508
  3
A1
350
509
  3
A2
350
50A
  3
A3
350
50B
  3
A4
350
50C
  3
A5
350
50D
  3
A6
350
50E
  3
A7
350
50F
  3
A8
350
510
  3
A9
350
511
  3
B0
350
512
  3
B1
350
513
  3
B2
350
514
  3
B3
350
515
  3
B4
350
516
  3
B5
350
517
  3
B6
350
518
  0
DICTIONARY
  5
51B
102
{ACAD_REACTORS
330
C
102
}
330
C
100
AcDbDictionary
281
     1
  3
Metric50
350
51C
  0
DICTIONARY
  5
505
102
{ACAD_REACTORS
330
C
102
}
330
C
100
AcDbDictionary
281
     1
  3
Standard
350
506
  0
DICTIONARY
  5
4EB
102
{ACAD_REACTORS
330
C
102
}
330
C
100
AcDbDictionary
281
     1
  3
2dWireframe
350
4F1
  3
Basic
350
4F0
  3
Brighten
350
4F7
  3
ColorChange
350
4FB
  3
Conceptual
350
4F4
  3
Dim
350
4F6
  3
EdgeColorOff
350
503
  3
Facepattern
350
4FA
  3
Flat
350
4EC
  3
FlatWithEdges
350
4ED
  3
Gouraud
350
4EE
  3
GouraudWithEdges
350
4EF
  3
Hidden
350
4F3
  3
JitterOff
350
501
  3
Linepattern
350
4F9
  3
OverhangOff
350
502
  3
Realistic
350
4F5
  3
Shaded
350
500
  3
Shaded with edges
350
4FF
  3
Shades of Gray
350
4FC
  3
Sketchy
350
4FD
  3
Thicken
350
4F8
  3
Wireframe
350
4F2
  3
X-Ray
350
4FE
  0
XRECORD
  5
7C6
102
{ACAD_REACTORS
330
C
102
}
330
C
100
AcDbXrecord
280
     1
 90
        1
330
506
  0
DICTIONARY
  5
7C3
102
{ACAD_REACTORS
330
C
102
}
330
C
100
AcDbDictionary
281
     1
  0
DICTIONARY
  5
553
102
{ACAD_REACTORS
330
C
102
}
330
C
100
AcDbDictionary
281
     1
  3
CANNOSCALE
350
558
  3
CMLEADERSTYLE
350
555
  3
CTABLESTYLE
350
554
  3
CVIEWDETAILSTYLE
350
556
  3
CVIEWSECTIONSTYLE
350
557
  3
XCLIPFRAME
350
559
  0
ACAD_PROXY_OBJECT
  5
51E
102
{ACAD_REACTORS
330
51D
102
}
330
51D
100
AcDbProxyObject
 90
      499
 91
      509
 95
  3276827
 70
     0
 93
     1650
310
9207000000180000000000000000A20403000000180000000000000000A2023300000018001000000180000000000000000A20400000000000017202028CC0000006000233000000180000084268032803A003900348031801A80180049B92801E002E00208031802B003080390010002B00348032803B80220032803A0030
310
8034803600248032001F0012801000140012801E002E00208031802B003080390010002B00348032803B802980318030803600328010002E0033001000110012803980370011001F0012801480030240
340
11
340
0
340
16
340
11
340
16
340
16
 94
        0
  0
LAYOUT
  5
4CF
102
{ACAD_REACTORS
330
1A
102
}
330
1A
100
AcDbPlotSettings
  1

  2
none_device
  4
ANSI_C_(22.00_x_17.00_Inches)
  6

 40
0.0
 41
0.0
 42
0.0
 43
0.0
 44
558.8
 45
431.8
 46
0.0
 47
0.0
 48
0.0
 49
0.0
140
0.0
141
0.0
142
1.0
143
1.0
 70
     0
 72
     1
 73
     0
 74
     0
  7

 75
     0
147
1.0
 76
     0
 77
     2
 78
   300
148
0.0
149
0.0
100
AcDbLayout
  1
Layout1
 70
     1
 71
     1
 10
0.0
 20
0.0
 11
12.0
 21
9.0
 12
0.0
 22
0.0
 32
0.0
 14
1.000000000000000E+20
 24
1.000000000000000E+20
 34
1.000000000000000E+20
 15
-1.000000000000000E+20
 25
-1.000000000000000E+20
 35
-1.000000000000000E+20
146
0.0
 13
0.0
 23
0.0
 33
0.0
 16
1.0
 26
0.0
 36
0.0
 17
0.0
 27
1.0
 37
0.0
 76
     0
330
24F
  0
LAYOUT
  5
4CE
102
{ACAD_REACTORS
330
1A
102
}
330
1A
100
AcDbPlotSettings
  1

  2
none_device
  4
ANSI_C_(22.00_x_17.00_Inches)
  6

 40
0.0
 41
0.0
 42
0.0
 43
0.0
 44
558.8
 45
431.8
 46
0.0
 47
0.0
 48
0.0
 49
0.0
140
0.0
141
0.0
142
1.0
143
1.0
 70
  1024
 72
     1
 73
     0
 74
     0
  7

 75
     0
147
1.0
 76
     0
 77
     2
 78
   300
148
0.0
149
0.0
100
AcDbLayout
  1
Model
 70
     0
 71
     0
 10
0.0
 20
0.0
 11
558.8
 21
431.8
 12
0.0
 22
0.0
 32
0.0
 14
0.0
 24
0.0
 34
0.0
 15
0.0
 25
0.0
 35
0.0
146
0.0
 13
0.0
 23
0.0
 33
0.0
 16
1.0
 26
0.0
 36
0.0
 17
0.0
 27
1.0
 37
0.0
 76
     0
330
24E
  0
MATERIAL
  5
4DB
102
{ACAD_XDICTIONARY
360
4DC
102
}
102
{ACAD_REACTORS
330
4D2
102
}
330
4D2
100
AcDbMaterial
  1
ByBlock
  2

 72
     0
 73
     2
 43
0.0008202099737533
 43
0.0
 43
0.0
 43
0.0
 43
0.0
 43
0.0008202099737533
 43
0.0
 43
0.0
 43
0.0
 43
0.0
 43
1.0
 43
0.0
 43
0.0
 43
0.0
 43
0.0
 43
1.0
 77
     0
 78
     2
 47
0.0008202099737533
 47
0.0
 47
0.0
 47
0.0
 47
0.0
 47
0.0008202099737533
 47
0.0
 47
0.0
 47
0.0
 47
0.0
 47
1.0
 47
0.0
 47
0.0
 47
0.0
 47
0.0
 47
1.0
171
     0
172
     2
 49
0.0008202099737533
 49
0.0
 49
0.0
 49
0.0
 49
0.0
 49
0.0008202099737533
 49
0.0
 49
0.0
 49
0.0
 49
0.0
 49
1.0
 49
0.0
 49
0.0
 49
0.0
 49
0.0
 49
1.0
175
     0
176
     2
142
0.0008202099737533
142
0.0
142
0.0
142
0.0
142
0.0
142
0.0008202099737533
142
0.0
142
0.0
142
0.0
142
0.0
142
1.0
142
0.0
142
0.0
142
0.0
142
0.0
142
1.0
179
     0
270
     2
144
0.0008202099737533
144
0.0
144
0.0
144
0.0
144
0.0
144
0.0008202099737533
144
0.0
144
0.0
144
0.0
144
0.0
144
1.0
144
0.0
144
0.0
144
0.0
144
0.0
144
1.0
274
     2
147
0.0008202099737533
147
0.0
147
0.0
147
0.0
147
0.0
147
0.0008202099737533
147
0.0
147
0.0
147
0.0
147
0.0
147
1.0
147
0.0
147
0.0
147
0.0
147
0.0
147
1.0
  0
MATERIAL
  5
4D3
102
{ACAD_XDICTIONARY
360
4D4
102
}
102
{ACAD_REACTORS
330
4D2
102
}
330
4D2
100
AcDbMaterial
  1
ByLayer
  2

 72
     0
 73
     2
 43
0.0008202099737533
 43
0.0
 43
0.0
 43
0.0
 43
0.0
 43
0.0008202099737533
 43
0.0
 43
0.0
 43
0.0
 43
0.0
 43
1.0
 43
0.0
 43
0.0
 43
0.0
 43
0.0
 43
1.0
 77
     0
 78
     2
 47
0.0008202099737533
 47
0.0
 47
0.0
 47
0.0
 47
0.0
 47
0.0008202099737533
 47
0.0
 47
0.0
 47
0.0
 47
0.0
 47
1.0
 47
0.0
 47
0.0
 47
0.0
 47
0.0
 47
1.0
171
     0
172
     2
 49
0.0008202099737533
 49
0.0
 49
0.0
 49
0.0
 49
0.0
 49
0.0008202099737533
 49
0.0
 49
0.0
 49
0.0
 49
0.0
 49
1.0
 49
0.0
 49
0.0
 49
0.0
 49
0.0
 49
1.0
175
     0
176
     2
142
0.0008202099737533
142
0.0
142
0.0
142
0.0
142
0.0
142
0.0008202099737533
142
0.0
142
0.0
142
0.0
142
0.0
142
1.0
142
0.0
142
0.0
142
0.0
142
0.0
142
1.0
179
     0
270
     2
144
0.0008202099737533
144
0.0
144
0.0
144
0.0
144
0.0
144
0.0008202099737533
144
0.0
144
0.0
144
0.0
144
0.0
144
1.0
144
0.0
144
0.0
144
0.0
144
0.0
144
1.0
274
     2
147
0.0008202099737533
147
0.0
147
0.0
147
0.0
147
0.0
147
0.0008202099737533
147
0.0
147
0.0
147
0.0
147
0.0
147
1.0
147
0.0
147
0.0
147
0.0
147
0.0
147
1.0
  0
MATERIAL
  5
4E3
102
{ACAD_XDICTIONARY
360
4E4
102
}
102
{ACAD_REACTORS
330
4D2
102
}
330
4D2
100
AcDbMaterial
  1
Global
  2

 72
     0
 73
     2
 43
0.0008202099737533
 43
0.0
 43
0.0
 43
0.0
 43
0.0
 43
0.0008202099737533
 43
0.0
 43
0.0
 43
0.0
 43
0.0
 43
1.0
 43
0.0
 43
0.0
 43
0.0
 43
0.0
 43
1.0
 77
     0
 78
     2
 47
0.0008202099737533
 47
0.0
 47
0.0
 47
0.0
 47
0.0
 47
0.0008202099737533
 47
0.0
 47
0.0
 47
0.0
 47
0.0
 47
1.0
 47
0.0
 47
0.0
 47
0.0
 47
0.0
 47
1.0
171
     0
172
     2
 49
0.0008202099737533
 49
0.0
 49
0.0
 49
0.0
 49
0.0
 49
0.0008202099737533
 49
0.0
 49
0.0
 49
0.0
 49
0.0
 49
1.0
 49
0.0
 49
0.0
 49
0.0
 49
0.0
 49
1.0
175
     0
176
     2
142
0.0008202099737533
142
0.0
142
0.0
142
0.0
142
0.0
142
0.0008202099737533
142
0.0
142
0.0
142
0.0
142
0.0
142
1.0
142
0.0
142
0.0
142
0.0
142
0.0
142
1.0
179
     0
270
     2
144
0.0008202099737533
144
0.0
144
0.0
144
0.0
144
0.0
144
0.0008202099737533
144
0.0
144
0.0
144
0.0
144
0.0
144
1.0
144
0.0
144
0.0
144
0.0
144
0.0
144
1.0
274
     2
147
0.0008202099737533
147
0.0
147
0.0
147
0.0
147
0.0
147
0.0008202099737533
147
0.0
147
0.0
147
0.0
147
0.0
147
1.0
147
0.0
147
0.0
147
0.0
147
0.0
147
1.0
  0
MLEADERSTYLE
  5
51A
102
{ACAD_REACTORS
330
519
102
}
330
519
100
AcDbMLeaderStyle
170
     2
171
     1
172
     0
 90
        2
 40
0.0
 41
0.0
173
     1
 91
-1056964608
340
14
 92
       -2
290
     1
 42
2.0
291
     1
 43
0.36
  3
Standard
341
0
 44
4.0
300

342
11
174
     1
178
     6
175
     1
176
     0
 93
-1056964608
 45
4.0
292
     0
297
     0
 46
4.0
343
0
 94
-1056964608
 47
1.0
 49
1.0
140
1.0
293
     1
141
0.0
294
     1
177
     0
142
1.0
295
     0
296
     0
143
0.125
1001
ACAD_MLEADERVER
1070
     2
  0
MLINESTYLE
  5
18
102
{ACAD_REACTORS
330
17
102
}
330
17
100
AcDbMlineStyle
  2
STANDARD
 70
     0
  3

 62
   256
 51
90.0
 52
90.0
 71
     2
 49
0.5
 62
   256
  6
BYLAYER
 49
-0.5
 62
   256
  6
BYLAYER
  0
ACDBPLACEHOLDER
  5
F
102
{ACAD_REACTORS
330
E
102
}
330
E
  0
SCALE
  5
508
102
{ACAD_REACTORS
330
507
102
}
330
507
100
AcDbScale
 70
     0
300
1:1
140
1.0
141
1.0
290
     1
  0
SCALE
  5
509
102
{ACAD_REACTORS
330
507
102
}
330
507
100
AcDbScale
 70
     0
300
1:2
140
1.0
141
2.0
290
     0
  0
SCALE
  5
50A
102
{ACAD_REACTORS
330
507
102
}
330
507
100
AcDbScale
 70
     0
300
1:4
140
1.0
141
4.0
290
     0
  0
SCALE
  5
50B
102
{ACAD_REACTORS
330
507
102
}
330
507
100
AcDbScale
 70
     0
300
1:5
140
1.0
141
5.0
290
     0
  0
SCALE
  5
50C
102
{ACAD_REACTORS
330
507
102
}
330
507
100
AcDbScale
 70
     0
300
1:8
140
1.0
141
8.0
290
     0
  0
SCALE
  5
50D
102
{ACAD_REACTORS
330
507
102
}
330
507
100
AcDbScale
 70
     0
300
1:10
140
1.0
141
10.0
290
     0
  0
SCALE
  5
50E
102
{ACAD_REACTORS
330
507
102
}
330
507
100
AcDbScale
 70
     0
300
1:16
140
1.0
141
16.0
290
     0
  0
SCALE
  5
50F
102
{ACAD_REACTORS
330
507
102
}
330
507
100
AcDbScale
 70
     0
300
1:20
140
1.0
141
20.0
290
     0
  0
SCALE
  5
510
102
{ACAD_REACTORS
330
507
102
}
330
507
100
AcDbScale
 70
     0
300
1:30
140
1.0
141
30.0
290
     0
  0
SCALE
  5
511
102
{ACAD_REACTORS
330
507
102
}
330
507
100
AcDbScale
 70
     0
300
1:40
140
1.0
141
40.0
290
     0
  0
SCALE
  5
512
102
{ACAD_REACTORS
330
507
102
}
330
507
100
AcDbScale
 70
     0
300
1:50
140
1.0
141
50.0
290
     0
  0
SCALE
  5
513
102
{ACAD_REACTORS
330
507
102
}
330
507
100
AcDbScale
 70
     0
300
1:100
140
1.0
141
100.0
290
     0
  0
SCALE
  5
514
102
{ACAD_REACTORS
330
507
102
}
330
507
100
AcDbScale
 70
     0
300
2:1
140
2.0
141
1.0
290
     0
  0
SCALE
  5
515
102
{ACAD_REACTORS
330
507
102
}
330
507
100
AcDbScale
 70
     0
300
4:1
140
4.0
141
1.0
290
     0
  0
SCALE
  5
516
102
{ACAD_REACTORS
330
507
102
}
330
507
100
AcDbScale
 70
     0
300
8:1
140
8.0
141
1.0
290
     0
  0
SCALE
  5
517
102
{ACAD_REACTORS
330
507
102
}
330
507
100
AcDbScale
 70
     0
300
10:1
140
10.0
141
1.0
290
     0
  0
SCALE
  5
518
102
{ACAD_REACTORS
330
507
102
}
330
507
100
AcDbScale
 70
     0
300
100:1
140
100.0
141
1.0
290
     0
  0
ACAD_PROXY_OBJECT
  5
51C
102
{ACAD_REACTORS
330
51B
102
}
330
51B
100
AcDbProxyObject
 90
      499
 91
      508
 95
  3276827
 70
     0
 93
     3262
310
92CD000000180000000000000000A2040000006000000000000000028800000000000001220233000000180009940000006000000000000000028800000000000000A20400000060000000000000000288100000000000005C8080C0000006000400000064003100000000000000881000000000000008808340C16A22A7D9
310
0FC9F8CAE65A70A583A07E1FE81C635378FA1F8CAE65A70A583A17E7944A7F127A97E9FA109A00CA00E800E400D200C6006A006000882480160010002780160010002880160010002980160010002C00160010002D002B24A007800B8008200C600AC00C200E4004000AC00D200CA00EE00A600CA00C600E800D200DE00DC0
310
0A600E800C200E400E8009200C8007C004A005A004A007800B8008200C600AC00C200E4004000AC00D200CA00EE00A600CA00C600E800D200DE00DC008A00DC00C8009200C8007C004A00400050004A007800B8008200C600AC00C200E4004000AC00D200CA00EE00A600C600C200D800CA004000B800CC00400044004A00E
310
600DC0044007C004A005200832080270029802480198018804C03C
340
11
340
0
340
0
340
16
340
16
340
11
 94
        0
  0
TABLESTYLE
  5
506
102
{ACAD_XDICTIONARY
360
51F
102
}
102
{ACAD_REACTORS
330
505
102
}
330
505
100
AcDbTableStyle
  3
Standard
 70
     0
 71
     0
 40
0.06
 41
0.06
280
     0
281
     0
  7
STANDARD
140
4.5
170
     2
 62
     0
 63
   257
283
     1
274
    -2
284
     1
 64
     0
275
    -2
285
     1
 65
     0
276
    -2
286
     1
 66
     0
277
    -2
287
     1
 67
     0
278
    -2
288
     1
 68
     0
279
    -2
289
     1
 69
     0
  7
STANDARD
140
6.0
170
     5
 62
     0
 63
   257
283
     1
274
    -2
284
     1
 64
     0
275
    -2
285
     1
 65
     0
276
    -2
286
     1
 66
     0
277
    -2
287
     1
 67
     0
278
    -2
288
     1
 68
     0
279
    -2
289
     1
 69
     0
  7
STANDARD
140
4.5
170
     5
 62
     0
 63
   257
283
     1
274
    -2
284
     1
 64
     0
275
    -2
285
     1
 65
     0
276
    -2
286
     1
 66
     0
277
    -2
287
     1
 67
     0
278
    -2
288
     1
 68
     0
279
    -2
289
     1
 69
     0
  0
VISUALSTYLE
  5
4F1
102
{ACAD_XDICTIONARY
360
6EB
102
}
102
{ACAD_REACTORS
330
4EB
102
}
330
4EB
100
AcDbVisualStyle
  2
2dWireframe
 70
     4
 71
     0
 72
     2
 73
     0
 90
        0
 40
-0.6
 41
-30.0
 62
     5
 63
     7
421
 16777215
 74
     1
 91
        4
 64
     7
 65
   257
 75
     1
175
     1
 42
1.0
 92
        0
 66
   257
 43
1.0
 76
     1
 77
     6
 78
     2
 67
     7
 79
     5
170
     0
171
     0
290
     0
174
     0
 93
        1
 44
0.0
173
     0
291
     0
 45
0.0
1001
ACAD
1000
AcDbSavedByObjectVersion
1070
     0
  0
VISUALSTYLE
  5
4F0
102
{ACAD_XDICTIONARY
360
6E9
102
}
102
{ACAD_REACTORS
330
4EB
102
}
330
4EB
100
AcDbVisualStyle
  2
Basic
 70
     7
 71
     1
 72
     0
 73
     1
 90
        0
 40
-0.6
 41
-30.0
 62
     5
 63
     7
421
 16777215
 74
     0
 91
        4
 64
     7
 65
   257
 75
     1
175
     1
 42
1.0
 92
        8
 66
     7
 43
1.0
 76
     1
 77
     6
 78
     2
 67
     7
 79
     5
170
     0
171
     0
290
     0
174
     0
 93
        1
 44
0.0
173
     0
291
     1
 45
0.0
1001
ACAD
1000
AcDbSavedByObjectVersion
1070
     0
  0
VISUALSTYLE
  5
4F7
102
{ACAD_XDICTIONARY
360
6F7
102
}
102
{ACAD_REACTORS
330
4EB
102
}
330
4EB
100
AcDbVisualStyle
  2
Brighten
 70
    12
 71
     2
 72
     2
 73
     0
 90
        0
 40
-0.6
 41
-30.0
 62
     5
 63
     7
421
 16777215
 74
     1
 91
        4
 64
     7
 65
   257
 75
     1
175
     1
 42
1.0
 92
        8
 66
     7
 43
1.0
 76
     1
 77
     6
 78
     2
 67
     7
 79
     5
170
     0
171
     0
290
     0
174
     0
 93
        1
 44
50.0
173
     0
291
     1
 45
0.0
1001
ACAD
1000
AcDbSavedByObjectVersion
1070
     0
  0
VISUALSTYLE
  5
4FB
102
{ACAD_XDICTIONARY
360
6FF
102
}
102
{ACAD_REACTORS
330
4EB
102
}
330
4EB
100
AcDbVisualStyle
  2
ColorChange
 70
    16
 71
     2
 72
     2
 73
     3
 90
        0
 40
-0.6
 41
-30.0
 62
     5
 63
     8
421
  8421504
 74
     1
 91
        4
 64
     7
 65
   257
 75
     1
175
     1
 42
1.0
 92
        8
 66
     8
424
  8421504
 43
1.0
 76
     1
 77
     6
 78
     2
 67
     7
 79
     5
170
     0
171
     0
290
     0
174
     0
 93
        1
 44
0.0
173
     0
291
     1
 45
0.0
1001
ACAD
1000
AcDbSavedByObjectVersion
1070
     0
  0
VISUALSTYLE
  5
4F4
102
{ACAD_XDICTIONARY
360
6F1
102
}
102
{ACAD_REACTORS
330
4EB
102
}
330
4EB
100
AcDbVisualStyle
  2
Conceptual
 70
     9
 71
     3
 72
     2
 73
     0
 90
        0
 40
-0.6
 41
-30.0
 62
     5
 63
     7
421
 16777215
 74
     2
 91
        2
 64
     7
 65
   257
 75
     1
175
     1
 42
179.0
 92
        8
 66
     7
 43
1.0
 76
     1
 77
     6
 78
     2
 67
     7
 79
     3
170
     0
171
     0
290
     0
174
     0
 93
        1
 44
0.0
173
     0
291
     0
 45
0.0
1001
ACAD
1000
AcDbSavedByObjectVersion
1070
     0
  0
VISUALSTYLE
  5
4F6
102
{ACAD_XDICTIONARY
360
6F5
102
}
102
{ACAD_REACTORS
330
4EB
102
}
330
4EB
100
AcDbVisualStyle
  2
Dim
 70
    11
 71
     2
 72
     2
 73
     0
 90
        0
 40
-0.6
 41
-30.0
 62
     5
 63
     7
421
 16777215
 74
     1
 91
        4
 64
     7
 65
   257
 75
     1
175
     1
 42
1.0
 92
        8
 66
     7
 43
1.0
 76
     1
 77
     6
 78
     2
 67
     7
 79
     5
170
     0
171
     0
290
     0
174
     0
 93
        1
 44
-50.0
173
     0
291
     1
 45
0.0
1001
ACAD
1000
AcDbSavedByObjectVersion
1070
     0
  0
VISUALSTYLE
  5
503
102
{ACAD_XDICTIONARY
360
70F
102
}
102
{ACAD_REACTORS
330
4EB
102
}
330
4EB
100
AcDbVisualStyle
  2
EdgeColorOff
 70
    22
 71
     2
 72
     2
 73
     0
 90
        0
 40
-0.6
 41
-30.0
 62
     5
 63
     7
421
 16777215
 74
     1
 91
        4
 64
     7
 65
   257
 75
     1
175
     1
 42
1.0
 92
        8
 66
     7
 43
1.0
 76
     1
 77
     6
 78
     2
 67
     7
 79
     5
170
     0
171
     0
290
     0
174
     0
 93
        1
 44
0.0
173
     0
291
     1
 45
0.0
1001
ACAD
1000
AcDbSavedByObjectVersion
1070
     0
  0
VISUALSTYLE
  5
4FA
102
{ACAD_XDICTIONARY
360
6FD
102
}
102
{ACAD_REACTORS
330
4EB
102
}
330
4EB
100
AcDbVisualStyle
  2
Facepattern
 70
    15
 71
     2
 72
     2
 73
     0
 90
        0
 40
-0.6
 41
-30.0
 62
     5
 63
     7
421
 16777215
 74
     1
 91
        4
 64
     7
 65
   257
 75
     1
175
     1
 42
1.0
 92
        8
 66
     7
 43
1.0
 76
     1
 77
     6
 78
     2
 67
     7
 79
     5
170
     0
171
     0
290
     0
174
     0
 93
        1
 44
0.0
173
     0
291
     1
 45
0.0
1001
ACAD
1000
AcDbSavedByObjectVersion
1070
     0
  0
VISUALSTYLE
  5
4EC
102
{ACAD_XDICTIONARY
360
6E1
102
}
102
{ACAD_REACTORS
330
4EB
102
}
330
4EB
100
AcDbVisualStyle
  2
Flat
 70
     0
 71
     2
 72
     1
 73
     1
 90
        2
 40
-0.6
 41
30.0
 62
     5
 63
     7
421
 16777215
 74
     0
 91
        0
 64
     7
 65
   257
 75
     1
175
     1
 42
1.0
 92
        8
 66
     7
 43
1.0
 76
     1
 77
     6
 78
     2
 67
     7
 79
     5
170
     0
171
     0
290
     0
174
     0
 93
       13
 44
0.0
173
     0
291
     1
 45
0.0
1001
ACAD
1000
AcDbSavedByObjectVersion
1070
     0
  0
VISUALSTYLE
  5
4ED
102
{ACAD_XDICTIONARY
360
6E3
102
}
102
{ACAD_REACTORS
330
4EB
102
}
330
4EB
100
AcDbVisualStyle
  2
FlatWithEdges
 70
     1
 71
     2
 72
     1
 73
     1
 90
        2
 40
-0.6
 41
30.0
 62
     5
 63
     7
421
 16777215
 74
     1
 91
        0
 64
     7
 65
   257
 75
     1
175
     1
 42
1.0
 92
        0
 66
   257
 43
1.0
 76
     1
 77
     6
 78
     2
 67
     7
 79
     5
170
     0
171
     0
290
     0
174
     0
 93
       13
 44
0.0
173
     0
291
     1
 45
0.0
1001
ACAD
1000
AcDbSavedByObjectVersion
1070
     0
  0
VISUALSTYLE
  5
4EE
102
{ACAD_XDICTIONARY
360
6E5
102
}
102
{ACAD_REACTORS
330
4EB
102
}
330
4EB
100
AcDbVisualStyle
  2
Gouraud
 70
     2
 71
     2
 72
     2
 73
     1
 90
        2
 40
-0.6
 41
30.0
 62
     5
 63
     7
421
 16777215
 74
     0
 91
        0
 64
     7
 65
   257
 75
     1
175
     1
 42
1.0
 92
        0
 66
     7
 43
1.0
 76
     1
 77
     6
 78
     2
 67
     7
 79
     5
170
     0
171
     0
290
     0
174
     0
 93
       13
 44
0.0
173
     0
291
     1
 45
0.0
1001
ACAD
1000
AcDbSavedByObjectVersion
1070
     0
  0
VISUALSTYLE
  5
4EF
102
{ACAD_XDICTIONARY
360
6E7
102
}
102
{ACAD_REACTORS
330
4EB
102
}
330
4EB
100
AcDbVisualStyle
  2
GouraudWithEdges
 70
     3
 71
     2
 72
     2
 73
     1
 90
        2
 40
-0.6
 41
30.0
 62
     5
 63
     7
421
 16777215
 74
     1
 91
        0
 64
     7
 65
   257
 75
     1
175
     1
 42
1.0
 92
        0
 66
   257
 43
1.0
 76
     1
 77
     6
 78
     2
 67
     7
 79
     5
170
     0
171
     0
290
     0
174
     0
 93
       13
 44
0.0
173
     0
291
     1
 45
0.0
1001
ACAD
1000
AcDbSavedByObjectVersion
1070
     0
  0
VISUALSTYLE
  5
4F3
102
{ACAD_XDICTIONARY
360
6EF
102
}
102
{ACAD_REACTORS
330
4EB
102
}
330
4EB
100
AcDbVisualStyle
  2
Hidden
 70
     6
 71
     1
 72
     2
 73
     2
 90
        0
 40
-0.6
 41
-30.0
 62
     5
 63
     7
421
 16777215
 74
     2
 91
        2
 64
     7
 65
   257
 75
     2
175
     1
 42
40.0
 92
        0
 66
   257
 43
1.0
 76
     1
 77
     6
 78
     2
 67
     7
 79
     3
170
     0
171
     0
290
     0
174
     0
 93
        1
 44
0.0
173
     0
291
     0
 45
0.0
1001
ACAD
1000
AcDbSavedByObjectVersion
1070
     0
  0
VISUALSTYLE
  5
501
102
{ACAD_XDICTIONARY
360
70B
102
}
102
{ACAD_REACTORS
330
4EB
102
}
330
4EB
100
AcDbVisualStyle
  2
JitterOff
 70
    20
 71
     2
 72
     2
 73
     0
 90
        0
 40
-0.6
 41
-30.0
 62
     5
 63
     7
421
 16777215
 74
     1
 91
        4
 64
     7
 65
   257
 75
     1
175
     1
 42
1.0
 92
       10
 66
     7
 43
1.0
 76
     1
 77
     6
 78
     2
 67
     7
 79
     5
170
     0
171
     0
290
     0
174
     0
 93
        1
 44
0.0
173
     0
291
     1
 45
0.0
1001
ACAD
1000
AcDbSavedByObjectVersion
1070
     0
  0
VISUALSTYLE
  5
4F9
102
{ACAD_XDICTIONARY
360
6FB
102
}
102
{ACAD_REACTORS
330
4EB
102
}
330
4EB
100
AcDbVisualStyle
  2
Linepattern
 70
    14
 71
     2
 72
     2
 73
     0
 90
        0
 40
-0.6
 41
-30.0
 62
     5
 63
     7
421
 16777215
 74
     1
 91
        4
 64
     7
 65
   257
 75
     7
175
     7
 42
1.0
 92
        8
 66
     7
 43
1.0
 76
     1
 77
     6
 78
     2
 67
     7
 79
     5
170
     0
171
     0
290
     0
174
     0
 93
        1
 44
0.0
173
     0
291
     1
 45
0.0
1001
ACAD
1000
AcDbSavedByObjectVersion
1070
     0
  0
VISUALSTYLE
  5
502
102
{ACAD_XDICTIONARY
360
70D
102
}
102
{ACAD_REACTORS
330
4EB
102
}
330
4EB
100
AcDbVisualStyle
  2
OverhangOff
 70
    21
 71
     2
 72
     2
 73
     0
 90
        0
 40
-0.6
 41
-30.0
 62
     5
 63
     7
421
 16777215
 74
     1
 91
        4
 64
     7
 65
   257
 75
     1
175
     1
 42
1.0
 92
        9
 66
     7
 43
1.0
 76
     1
 77
     6
 78
     2
 67
     7
 79
     5
170
     0
171
     0
290
     0
174
     0
 93
        1
 44
0.0
173
     0
291
     1
 45
0.0
1001
ACAD
1000
AcDbSavedByObjectVersion
1070
     0
  0
VISUALSTYLE
  5
4F5
102
{ACAD_XDICTIONARY
360
6F3
102
}
102
{ACAD_REACTORS
330
4EB
102
}
330
4EB
100
AcDbVisualStyle
  2
Realistic
 70
     8
 71
     2
 72
     2
 73
     0
 90
        2
 40
-0.6
 41
30.0
 62
     5
 63
     7
421
 16777215
 74
     0
 91
        0
 64
     7
 65
   257
 75
     1
175
     1
 42
1.0
 92
        8
 66
   257
 43
1.0
 76
     1
 77
     6
 78
     2
 67
     7
 79
     3
170
     0
171
     0
290
     0
174
     0
 93
       13
 44
0.0
173
     0
291
     0
 45
0.0
1001
ACAD
1000
AcDbSavedByObjectVersion
1070
     0
  0
VISUALSTYLE
  5
500
102
{ACAD_XDICTIONARY
360
709
102
}
102
{ACAD_REACTORS
330
4EB
102
}
330
4EB
100
AcDbVisualStyle
  2
Shaded
 70
    27
 71
     2
 72
     2
 73
     1
 90
        2
 40
-0.6
 41
30.0
 62
     5
 63
     7
421
 16777215
 74
     0
 91
        4
 64
     7
 65
   257
 75
     1
175
     1
 42
1.0
 92
        8
 66
   257
 43
1.0
 76
     1
 77
     6
 78
     2
 67
     8
425
  7895160
 79
     3
170
     0
171
     0
290
     0
174
     0
 93
        5
 44
0.0
173
     0
291
     0
 45
0.0
1001
ACAD
1000
AcDbSavedByObjectVersion
1070
     0
  0
VISUALSTYLE
  5
4FF
102
{ACAD_XDICTIONARY
360
707
102
}
102
{ACAD_REACTORS
330
4EB
102
}
330
4EB
100
AcDbVisualStyle
  2
Shaded with edges
 70
    26
 71
     2
 72
     2
 73
     1
 90
        2
 40
-0.6
 41
30.0
 62
     5
 63
     7
421
 16777215
 74
     1
 91
       10
 64
     7
 65
   257
 75
     2
175
     1
 42
1.0
 92
        8
 66
   257
 43
1.0
 76
     1
 77
     6
 78
     2
 67
     7
 79
     3
170
     0
171
     0
290
     0
174
     0
 93
        5
 44
0.0
173
     0
291
     0
 45
0.0
1001
ACAD
1000
AcDbSavedByObjectVersion
1070
     0
  0
VISUALSTYLE
  5
4FC
102
{ACAD_XDICTIONARY
360
701
102
}
102
{ACAD_REACTORS
330
4EB
102
}
330
4EB
100
AcDbVisualStyle
  2
Shades of Gray
 70
    23
 71
     2
 72
     2
 73
     3
 90
        0
 40
-0.6
 41
-30.0
 62
     5
 63
     7
421
 16777215
 74
     2
 91
        2
 64
     7
 65
     7
 75
     1
175
     1
 42
40.0
 92
        8
 66
     7
 43
1.0
 76
     1
 77
     6
 78
     2
 67
     7
 79
     3
170
     0
171
     0
290
     0
174
     0
 93
        1
 44
0.0
173
     0
291
     0
 45
0.0
1001
ACAD
1000
AcDbSavedByObjectVersion
1070
     0
  0
VISUALSTYLE
  5
4FD
102
{ACAD_XDICTIONARY
360
703
102
}
102
{ACAD_REACTORS
330
4EB
102
}
330
4EB
100
AcDbVisualStyle
  2
Sketchy
 70
    24
 71
     1
 72
     2
 73
     2
 90
        0
 40
-0.6
 41
-30.0
 62
     5
 63
     7
421
 16777215
 74
     2
 91
        2
 64
     7
 65
     7
 75
     1
175
     1
 42
40.0
 92
       11
 66
     7
 43
1.0
 76
     1
 77
     6
 78
     2
 67
     7
 79
     6
170
     0
171
     0
290
     0
174
     0
 93
        1
 44
0.0
173
     0
291
     0
 45
0.0
1001
ACAD
1000
AcDbSavedByObjectVersion
1070
     0
  0
VISUALSTYLE
  5
4F8
102
{ACAD_XDICTIONARY
360
6F9
102
}
102
{ACAD_REACTORS
330
4EB
102
}
330
4EB
100
AcDbVisualStyle
  2
Thicken
 70
    13
 71
     2
 72
     2
 73
     0
 90
        0
 40
-0.6
 41
-30.0
 62
     5
 63
     7
421
 16777215
 74
     1
 91
        4
 64
     7
 65
   257
 75
     1
175
     1
 42
1.0
 92
       12
 66
     7
 43
1.0
 76
     1
 77
     6
 78
     2
 67
     7
 79
     5
170
     0
171
     0
290
     0
174
     0
 93
        1
 44
0.0
173
     0
291
     1
 45
0.0
1001
ACAD
1000
AcDbSavedByObjectVersion
1070
     0
  0
VISUALSTYLE
  5
4F2
102
{ACAD_XDICTIONARY
360
6ED
102
}
102
{ACAD_REACTORS
330
4EB
102
}
330
4EB
100
AcDbVisualStyle
  2
Wireframe
 70
     5
 71
     0
 72
     2
 73
     0
 90
        0
 40
-0.6
 41
-30.0
 62
     5
 63
     7
421
 16777215
 74
     1
 91
        4
 64
     7
 65
   257
 75
     1
175
     1
 42
1.0
 92
        0
 66
   257
 43
1.0
 76
     1
 77
     6
 78
     2
 67
     7
 79
     3
170
     0
171
     0
290
     0
174
     0
 93
        1
 44
0.0
173
     0
291
     0
 45
0.0
1001
ACAD
1000
AcDbSavedByObjectVersion
1070
     0
  0
VISUALSTYLE
  5
4FE
102
{ACAD_XDICTIONARY
360
705
102
}
102
{ACAD_REACTORS
330
4EB
102
}
330
4EB
100
AcDbVisualStyle
  2
X-Ray
 70
    25
 71
     2
 72
     2
 73
     1
 90
        1
 40
0.5
 41
-30.0
 62
     5
 63
     7
421
 16777215
 74
     1
 91
        0
 64
     7
 65
   257
 75
     1
175
     1
 42
1.0
 92
        8
 66
     7
 43
1.0
 76
     1
 77
     6
 78
     2
 67
     7
 79
     3
170
     0
171
     0
290
     0
174
     0
 93
       13
 44
0.0
173
     0
291
     0
 45
0.0
1001
ACAD
1000
AcDbSavedByObjectVersion
1070
     0
  0
DICTIONARYVAR
  5
558
102
{ACAD_REACTORS
330
553
102
}
330
553
100
DictionaryVariables
280
     0
  1
1:1
  0
DICTIONARYVAR
  5
555
102
{ACAD_REACTORS
330
553
102
}
330
553
100
DictionaryVariables
280
     0
  1
STANDARD
  0
DICTIONARYVAR
  5
554
102
{ACAD_REACTORS
330
553
102
}
330
553
100
DictionaryVariables
280
     0
  1
STANDARD
  0
DICTIONARYVAR
  5
556
102
{ACAD_REACTORS
330
553
102
}
330
553
100
DictionaryVariables
280
     0
  1
Metric50
  0
DICTIONARYVAR
  5
557
102
{ACAD_REACTORS
330
553
102
}
330
553
100
DictionaryVariables
280
     0
  1
Metric50
  0
DICTIONARYVAR
  5
559
102
{ACAD_REACTORS
330
553
102
}
330
553
100
DictionaryVariables
280
     0
  1
2
  0
DICTIONARY
  5
4DC
330
4DB
100
AcDbDictionary
280
     1
281
     1
  3
BUMPTILE
360
4DE
  3
DIFFUSETILE
360
4DD
  3
OPACITYTILE
360
4E1
  3
REFLECTIONTILE
360
4E0
  3
REFRACTIONTILE
360
4E2
  3
SPECULARTILE
360
4DF
  0
DICTIONARY
  5
4D4
330
4D3
100
AcDbDictionary
280
     1
281
     1
  3
BUMPTILE
360
4D6
  3
DIFFUSETILE
360
4D5
  3
OPACITYTILE
360
4D9
  3
REFLECTIONTILE
360
4D8
  3
REFRACTIONTILE
360
4DA
  3
SPECULARTILE
360
4D7
  0
DICTIONARY
  5
4E4
330
4E3
100
AcDbDictionary
280
     1
281
     1
  3
BUMPTILE
360
4E6
  3
DIFFUSETILE
360
4E5
  3
OPACITYTILE
360
4E9
  3
REFLECTIONTILE
360
4E8
  3
REFRACTIONTILE
360
4EA
  3
SPECULARTILE
360
4E7
  0
DICTIONARY
  5
51F
330
506
100
AcDbDictionary
280
     1
281
     1
  3
ACAD_ROUNDTRIP_2008_TABLESTYLE_CELLSTYLEMAP
360
7C5
  3
ACAD_XREC_ROUNDTRIP
360
7C4
  0
DICTIONARY
  5
6EB
330
4F1
100
AcDbDictionary
280
     1
281
     1
  3
ACAD_XREC_ROUNDTRIP
360
6EC
  0
DICTIONARY
  5
6E9
330
4F0
100
AcDbDictionary
280
     1
281
     1
  3
ACAD_XREC_ROUNDTRIP
360
6EA
  0
DICTIONARY
  5
6F7
330
4F7
100
AcDbDictionary
280
     1
281
     1
  3
ACAD_XREC_ROUNDTRIP
360
6F8
  0
DICTIONARY
  5
6FF
330
4FB
100
AcDbDictionary
280
     1
281
     1
  3
ACAD_XREC_ROUNDTRIP
360
700
  0
DICTIONARY
  5
6F1
330
4F4
100
AcDbDictionary
280
     1
281
     1
  3
ACAD_XREC_ROUNDTRIP
360
6F2
  0
DICTIONARY
  5
6F5
330
4F6
100
AcDbDictionary
280
     1
281
     1
  3
ACAD_XREC_ROUNDTRIP
360
6F6
  0
DICTIONARY
  5
70F
330
503
100
AcDbDictionary
280
     1
281
     1
  3
ACAD_XREC_ROUNDTRIP
360
710
  0
DICTIONARY
  5
6FD
330
4FA
100
AcDbDictionary
280
     1
281
     1
  3
ACAD_XREC_ROUNDTRIP
360
6FE
  0
DICTIONARY
  5
6E1
330
4EC
100
AcDbDictionary
280
     1
281
     1
  3
ACAD_XREC_ROUNDTRIP
360
6E2
  0
DICTIONARY
  5
6E3
330
4ED
100
AcDbDictionary
280
     1
281
     1
  3
ACAD_XREC_ROUNDTRIP
360
6E4
  0
DICTIONARY
  5
6E5
330
4EE
100
AcDbDictionary
280
     1
281
     1
  3
ACAD_XREC_ROUNDTRIP
360
6E6
  0
DICTIONARY
  5
6E7
330
4EF
100
AcDbDictionary
280
     1
281
     1
  3
ACAD_XREC_ROUNDTRIP
360
6E8
  0
DICTIONARY
  5
6EF
330
4F3
100
AcDbDictionary
280
     1
281
     1
  3
ACAD_XREC_ROUNDTRIP
360
6F0
  0
DICTIONARY
  5
70B
330
501
100
AcDbDictionary
280
     1
281
     1
  3
ACAD_XREC_ROUNDTRIP
360
70C
  0
DICTIONARY
  5
6FB
330
4F9
100
AcDbDictionary
280
     1
281
     1
  3
ACAD_XREC_ROUNDTRIP
360
6FC
  0
DICTIONARY
  5
70D
330
502
100
AcDbDictionary
280
     1
281
     1
  3
ACAD_XREC_ROUNDTRIP
360
70E
  0
DICTIONARY
  5
6F3
330
4F5
100
AcDbDictionary
280
     1
281
     1
  3
ACAD_XREC_ROUNDTRIP
360
6F4
  0
DICTIONARY
  5
709
330
500
100
AcDbDictionary
280
     1
281
     1
  3
ACAD_XREC_ROUNDTRIP
360
70A
  0
DICTIONARY
  5
707
330
4FF
100
AcDbDictionary
280
     1
281
     1
  3
ACAD_XREC_ROUNDTRIP
360
708
  0
DICTIONARY
  5
701
330
4FC
100
AcDbDictionary
280
     1
281
     1
  3
ACAD_XREC_ROUNDTRIP
360
702
  0
DICTIONARY
  5
703
330
4FD
100
AcDbDictionary
280
     1
281
     1
  3
ACAD_XREC_ROUNDTRIP
360
704
  0
DICTIONARY
  5
6F9
330
4F8
100
AcDbDictionary
280
     1
281
     1
  3
ACAD_XREC_ROUNDTRIP
360
6FA
  0
DICTIONARY
  5
6ED
330
4F2
100
AcDbDictionary
280
     1
281
     1
  3
ACAD_XREC_ROUNDTRIP
360
6EE
  0
DICTIONARY
  5
705
330
4FE
100
AcDbDictionary
280
     1
281
     1
  3
ACAD_XREC_ROUNDTRIP
360
706
  0
XRECORD
  5
4DE
102
{ACAD_REACTORS
330
4DC
102
}
330
4DC
100
AcDbXrecord
280
     1
270
     1
271
     1
  0
XRECORD
  5
4DD
102
{ACAD_REACTORS
330
4DC
102
}
330
4DC
100
AcDbXrecord
280
     1
270
     1
271
     1
  0
XRECORD
  5
4E1
102
{ACAD_REACTORS
330
4DC
102
}
330
4DC
100
AcDbXrecord
280
     1
270
     1
271
     1
  0
XRECORD
  5
4E0
102
{ACAD_REACTORS
330
4DC
102
}
330
4DC
100
AcDbXrecord
280
     1
270
     1
271
     1
  0
XRECORD
  5
4E2
102
{ACAD_REACTORS
330
4DC
102
}
330
4DC
100
AcDbXrecord
280
     1
270
     1
271
     1
  0
XRECORD
  5
4DF
102
{ACAD_REACTORS
330
4DC
102
}
330
4DC
100
AcDbXrecord
280
     1
270
     1
271
     1
  0
XRECORD
  5
4D6
102
{ACAD_REACTORS
330
4D4
102
}
330
4D4
100
AcDbXrecord
280
     1
270
     1
271
     1
  0
XRECORD
  5
4D5
102
{ACAD_REACTORS
330
4D4
102
}
330
4D4
100
AcDbXrecord
280
     1
270
     1
271
     1
  0
XRECORD
  5
4D9
102
{ACAD_REACTORS
330
4D4
102
}
330
4D4
100
AcDbXrecord
280
     1
270
     1
271
     1
  0
XRECORD
  5
4D8
102
{ACAD_REACTORS
330
4D4
102
}
330
4D4
100
AcDbXrecord
280
     1
270
     1
271
     1
  0
XRECORD
  5
4DA
102
{ACAD_REACTORS
330
4D4
102
}
330
4D4
100
AcDbXrecord
280
     1
270
     1
271
     1
  0
XRECORD
  5
4D7
102
{ACAD_REACTORS
330
4D4
102
}
330
4D4
100
AcDbXrecord
280
     1
270
     1
271
     1
  0
XRECORD
  5
4E6
102
{ACAD_REACTORS
330
4E4
102
}
330
4E4
100
AcDbXrecord
280
     1
270
     1
271
     1
  0
XRECORD
  5
4E5
102
{ACAD_REACTORS
330
4E4
102
}
330
4E4
100
AcDbXrecord
280
     1
270
     1
271
     1
  0
XRECORD
  5
4E9
102
{ACAD_REACTORS
330
4E4
102
}
330
4E4
100
AcDbXrecord
280
     1
270
     1
271
     1
  0
XRECORD
  5
4E8
102
{ACAD_REACTORS
330
4E4
102
}
330
4E4
100
AcDbXrecord
280
     1
270
     1
271
     1
  0
XRECORD
  5
4EA
102
{ACAD_REACTORS
330
4E4
102
}
330
4E4
100
AcDbXrecord
280
     1
270
     1
271
     1
  0
XRECORD
  5
4E7
102
{ACAD_REACTORS
330
4E4
102
}
330
4E4
100
AcDbXrecord
280
     1
270
     1
271
     1
  0
CELLSTYLEMAP
  5
7C5
102
{ACAD_REACTORS
330
51F
102
}
330
51F
100
AcDbCellStyleMap
 90
        3
300
CELLSTYLE
  1
TABLEFORMAT_BEGIN
 90
        5
170
     1
 91
        0
 92
        0
 62
   257
 93
        1
300
CONTENTFORMAT
  1
CONTENTFORMAT_BEGIN
 90
        0
 91
        0
 92
      512
 93
        0
300

 40
0.0
140
1.0
 94
        5
 62
     0
340
11
144
6.0
309
CONTENTFORMAT_END
171
     1
301
MARGIN
  1
CELLMARGIN_BEGIN
 40
1.5
 40
1.5
 40
1.5
 40
1.5
 40
4.5
 40
4.5
309
CELLMARGIN_END
 94
        6
 95
        1
302
GRIDFORMAT
  1
GRIDFORMAT_BEGIN
 90
        0
 91
        1
 62
     0
 92
       -2
340
0
 93
        0
 40
1.125
309
GRIDFORMAT_END
 95
        2
302
GRIDFORMAT
  1
GRIDFORMAT_BEGIN
 90
        0
 91
        1
 62
     0
 92
       -2
340
0
 93
        0
 40
1.125
309
GRIDFORMAT_END
 95
        4
302
GRIDFORMAT
  1
GRIDFORMAT_BEGIN
 90
        0
 91
        1
 62
     0
 92
       -2
340
0
 93
        0
 40
1.125
309
GRIDFORMAT_END
 95
        8
302
GRIDFORMAT
  1
GRIDFORMAT_BEGIN
 90
        0
 91
        1
 62
     0
 92
       -2
340
0
 93
        0
 40
1.125
309
GRIDFORMAT_END
 95
       16
302
GRIDFORMAT
  1
GRIDFORMAT_BEGIN
 90
        0
 91
        1
 62
     0
 92
       -2
340
0
 93
        0
 40
1.125
309
GRIDFORMAT_END
 95
       32
302
GRIDFORMAT
  1
GRIDFORMAT_BEGIN
 90
        0
 91
        1
 62
     0
 92
       -2
340
0
 93
        0
 40
1.125
309
GRIDFORMAT_END
309
TABLEFORMAT_END
  1
CELLSTYLE_BEGIN
 90
        1
 91
        1
300
_TITLE
309
CELLSTYLE_END
300
CELLSTYLE
  1
TABLEFORMAT_BEGIN
 90
        5
170
     1
 91
        0
 92
        0
 62
   257
 93
        1
300
CONTENTFORMAT
  1
CONTENTFORMAT_BEGIN
 90
        0
 91
        0
 92
      512
 93
        0
300

 40
0.0
140
1.0
 94
        5
 62
     0
340
11
144
4.5
309
CONTENTFORMAT_END
171
     1
301
MARGIN
  1
CELLMARGIN_BEGIN
 40
1.5
 40
1.5
 40
1.5
 40
1.5
 40
4.5
 40
4.5
309
CELLMARGIN_END
 94
        6
 95
        1
302
GRIDFORMAT
  1
GRIDFORMAT_BEGIN
 90
        0
 91
        1
 62
     0
 92
       -2
340
0
 93
        0
 40
1.125
309
GRIDFORMAT_END
 95
        2
302
GRIDFORMAT
  1
GRIDFORMAT_BEGIN
 90
        0
 91
        1
 62
     0
 92
       -2
340
0
 93
        0
 40
1.125
309
GRIDFORMAT_END
 95
        4
302
GRIDFORMAT
  1
GRIDFORMAT_BEGIN
 90
        0
 91
        1
 62
     0
 92
       -2
340
0
 93
        0
 40
1.125
309
GRIDFORMAT_END
 95
        8
302
GRIDFORMAT
  1
GRIDFORMAT_BEGIN
 90
        0
 91
        1
 62
     0
 92
       -2
340
0
 93
        0
 40
1.125
309
GRIDFORMAT_END
 95
       16
302
GRIDFORMAT
  1
GRIDFORMAT_BEGIN
 90
        0
 91
        1
 62
     0
 92
       -2
340
0
 93
        0
 40
1.125
309
GRIDFORMAT_END
 95
       32
302
GRIDFORMAT
  1
GRIDFORMAT_BEGIN
 90
        0
 91
        1
 62
     0
 92
       -2
340
0
 93
        0
 40
1.125
309
GRIDFORMAT_END
309
TABLEFORMAT_END
  1
CELLSTYLE_BEGIN
 90
        2
 91
        1
300
_HEADER
309
CELLSTYLE_END
300
CELLSTYLE
  1
TABLEFORMAT_BEGIN
 90
        5
170
     1
 91
        0
 92
        0
 62
   257
 93
        1
300
CONTENTFORMAT
  1
CONTENTFORMAT_BEGIN
 90
        0
 91
        0
 92
      512
 93
        0
300

 40
0.0
140
1.0
 94
        2
 62
     0
340
11
144
4.5
309
CONTENTFORMAT_END
171
     1
301
MARGIN
  1
CELLMARGIN_BEGIN
 40
1.5
 40
1.5
 40
1.5
 40
1.5
 40
4.5
 40
4.5
309
CELLMARGIN_END
 94
        6
 95
        1
302
GRIDFORMAT
  1
GRIDFORMAT_BEGIN
 90
        0
 91
        1
 62
     0
 92
       -2
340
0
 93
        0
 40
1.125
309
GRIDFORMAT_END
 95
        2
302
GRIDFORMAT
  1
GRIDFORMAT_BEGIN
 90
        0
 91
        1
 62
     0
 92
       -2
340
0
 93
        0
 40
1.125
309
GRIDFORMAT_END
 95
        4
302
GRIDFORMAT
  1
GRIDFORMAT_BEGIN
 90
        0
 91
        1
 62
     0
 92
       -2
340
0
 93
        0
 40
1.125
309
GRIDFORMAT_END
 95
        8
302
GRIDFORMAT
  1
GRIDFORMAT_BEGIN
 90
        0
 91
        1
 62
     0
 92
       -2
340
0
 93
        0
 40
1.125
309
GRIDFORMAT_END
 95
       16
302
GRIDFORMAT
  1
GRIDFORMAT_BEGIN
 90
        0
 91
        1
 62
     0
 92
       -2
340
0
 93
        0
 40
1.125
309
GRIDFORMAT_END
 95
       32
302
GRIDFORMAT
  1
GRIDFORMAT_BEGIN
 90
        0
 91
        1
 62
     0
 92
       -2
340
0
 93
        0
 40
1.125
309
GRIDFORMAT_END
309
TABLEFORMAT_END
  1
CELLSTYLE_BEGIN
 90
        3
 91
        2
300
_DATA
309
CELLSTYLE_END
  0
XRECORD
  5
7C4
102
{ACAD_REACTORS
330
51F
102
}
330
51F
100
AcDbXrecord
280
     1
102
ACAD_ROUNDTRIP_PRE2007_TABLESTYLE
 90
      512
 91
        0
  1

 92
      512
 93
        0
  2

 94
      512
 95
        0
  3

  0
XRECORD
  5
6EC
102
{ACAD_REACTORS
330
6EB
102
}
330
6EB
100
AcDbXrecord
280
     1
102
RTVSPropertyOp0
 70
     1
102
RTVSPropertyOp1
 70
     1
102
RTVSPropertyOp2
 70
     1
102
RTVSPropertyOp3
 70
     1
102
RTVSPropertyOp4
 70
     1
102
RTVSPropertyOp5
 70
     1
102
RTVSPropertyOp6
 70
     1
102
RTVSPropertyOp7
 70
     1
102
RTVSPropertyOp8
 70
     1
102
RTVSPropertyOp9
 70
     1
102
RTVSPropertyOp10
 70
     1
102
RTVSPropertyOp11
 70
     1
102
RTVSPropertyOp12
 70
     1
102
RTVSPropertyOp13
 70
     1
102
RTVSPropertyOp14
 70
     1
102
RTVSPropertyOp15
 70
     1
102
RTVSPropertyOp16
 70
     1
102
RTVSPropertyOp17
 70
     1
102
RTVSPropertyOp18
 70
     1
102
RTVSPropertyOp19
 70
     1
102
RTVSPropertyOp20
 70
     1
102
RTVSPropertyOp21
 70
     1
102
RTVSPropertyOp22
 70
     1
102
RTVSPropertyOp23
 70
     1
102
RTVSPropertyOp24
 70
     1
102
RTVSPropertyOp25
 70
     1
102
RTVSPropertyOp26
 70
     1
102
RTVSPropertyOp27
 70
     1
  0
XRECORD
  5
6EA
102
{ACAD_REACTORS
330
6E9
102
}
330
6E9
100
AcDbXrecord
280
     1
102
RTVSPropertyOp0
 70
     1
102
RTVSPropertyOp1
 70
     1
102
RTVSPropertyOp2
 70
     1
102
RTVSPropertyOp3
 70
     1
102
RTVSPropertyOp4
 70
     1
102
RTVSPropertyOp5
 70
     1
102
RTVSPropertyOp6
 70
     1
102
RTVSPropertyOp7
 70
     1
102
RTVSPropertyOp8
 70
     1
102
RTVSPropertyOp9
 70
     1
102
RTVSPropertyOp10
 70
     1
102
RTVSPropertyOp11
 70
     1
102
RTVSPropertyOp12
 70
     1
102
RTVSPropertyOp13
 70
     1
102
RTVSPropertyOp14
 70
     1
102
RTVSPropertyOp15
 70
     1
102
RTVSPropertyOp16
 70
     1
102
RTVSPropertyOp17
 70
     1
102
RTVSPropertyOp18
 70
     1
102
RTVSPropertyOp19
 70
     1
102
RTVSPropertyOp20
 70
     1
102
RTVSPropertyOp21
 70
     1
102
RTVSPropertyOp22
 70
     1
102
RTVSPropertyOp23
 70
     1
102
RTVSPropertyOp24
 70
     1
102
RTVSPropertyOp25
 70
     1
102
RTVSPropertyOp26
 70
     1
102
RTVSPropertyOp27
 70
     1
  0
XRECORD
  5
6F8
102
{ACAD_REACTORS
330
6F7
102
}
330
6F7
100
AcDbXrecord
280
     1
102
RTVSPropertyOp0
 70
     1
102
RTVSPropertyOp1
 70
     1
102
RTVSPropertyOp2
 70
     1
102
RTVSPropertyOp3
 70
     1
102
RTVSPropertyOp4
 70
     1
102
RTVSPropertyOp5
 70
     1
102
RTVSPropertyOp6
 70
     1
102
RTVSPropertyOp7
 70
     1
102
RTVSPropertyOp8
 70
     1
102
RTVSPropertyOp9
 70
     1
102
RTVSPropertyOp10
 70
     1
102
RTVSPropertyOp11
 70
     1
102
RTVSPropertyOp12
 70
     1
102
RTVSPropertyOp13
 70
     1
102
RTVSPropertyOp14
 70
     1
102
RTVSPropertyOp15
 70
     1
102
RTVSPropertyOp16
 70
     1
102
RTVSPropertyOp17
 70
     1
102
RTVSPropertyOp18
 70
     1
102
RTVSPropertyOp19
 70
     1
102
RTVSPropertyOp20
 70
     1
102
RTVSPropertyOp21
 70
     1
102
RTVSPropertyOp22
 70
     1
102
RTVSPropertyOp23
 70
     1
102
RTVSPropertyOp24
 70
     1
102
RTVSPropertyOp25
 70
     1
102
RTVSPropertyOp26
 70
     1
102
RTVSPropertyOp27
 70
     1
  0
XRECORD
  5
700
102
{ACAD_REACTORS
330
6FF
102
}
330
6FF
100
AcDbXrecord
280
     1
102
RTVSPropertyOp0
 70
     1
102
RTVSPropertyOp1
 70
     1
102
RTVSPropertyOp2
 70
     1
102
RTVSPropertyOp3
 70
     1
102
RTVSPropertyOp4
 70
     1
102
RTVSPropertyOp5
 70
     1
102
RTVSPropertyOp6
 70
     1
102
RTVSPropertyOp7
 70
     1
102
RTVSPropertyOp8
 70
     1
102
RTVSPropertyOp9
 70
     1
102
RTVSPropertyOp10
 70
     1
102
RTVSPropertyOp11
 70
     1
102
RTVSPropertyOp12
 70
     1
102
RTVSPropertyOp13
 70
     1
102
RTVSPropertyOp14
 70
     1
102
RTVSPropertyOp15
 70
     1
102
RTVSPropertyOp16
 70
     1
102
RTVSPropertyOp17
 70
     1
102
RTVSPropertyOp18
 70
     1
102
RTVSPropertyOp19
 70
     1
102
RTVSPropertyOp20
 70
     1
102
RTVSPropertyOp21
 70
     1
102
RTVSPropertyOp22
 70
     1
102
RTVSPropertyOp23
 70
     1
102
RTVSPropertyOp24
 70
     1
102
RTVSPropertyOp25
 70
     1
102
RTVSPropertyOp26
 70
     1
102
RTVSPropertyOp27
 70
     1
  0
XRECORD
  5
6F2
102
{ACAD_REACTORS
330
6F1
102
}
330
6F1
100
AcDbXrecord
280
     1
102
RTVSPropertyOp0
 70
     1
102
RTVSPropertyOp1
 70
     1
102
RTVSPropertyOp2
 70
     1
102
RTVSPropertyOp3
 70
     1
102
RTVSPropertyOp4
 70
     1
102
RTVSPropertyOp5
 70
     1
102
RTVSPropertyOp6
 70
     1
102
RTVSPropertyOp7
 70
     1
102
RTVSPropertyOp8
 70
     1
102
RTVSPropertyOp9
 70
     1
102
RTVSPropertyOp10
 70
     1
102
RTVSPropertyOp11
 70
     1
102
RTVSPropertyOp12
 70
     1
102
RTVSPropertyOp13
 70
     1
102
RTVSPropertyOp14
 70
     1
102
RTVSPropertyOp15
 70
     1
102
RTVSPropertyOp16
 70
     1
102
RTVSPropertyOp17
 70
     1
102
RTVSPropertyOp18
 70
     1
102
RTVSPropertyOp19
 70
     1
102
RTVSPropertyOp20
 70
     1
102
RTVSPropertyOp21
 70
     1
102
RTVSPropertyOp22
 70
     1
102
RTVSPropertyOp23
 70
     1
102
RTVSPropertyOp24
 70
     1
102
RTVSPropertyOp25
 70
     1
102
RTVSPropertyOp26
 70
     1
102
RTVSPropertyOp27
 70
     1
  0
XRECORD
  5
6F6
102
{ACAD_REACTORS
330
6F5
102
}
330
6F5
100
AcDbXrecord
280
     1
102
RTVSPropertyOp0
 70
     1
102
RTVSPropertyOp1
 70
     1
102
RTVSPropertyOp2
 70
     1
102
RTVSPropertyOp3
 70
     1
102
RTVSPropertyOp4
 70
     1
102
RTVSPropertyOp5
 70
     1
102
RTVSPropertyOp6
 70
     1
102
RTVSPropertyOp7
 70
     1
102
RTVSPropertyOp8
 70
     1
102
RTVSPropertyOp9
 70
     1
102
RTVSPropertyOp10
 70
     1
102
RTVSPropertyOp11
 70
     1
102
RTVSPropertyOp12
 70
     1
102
RTVSPropertyOp13
 70
     1
102
RTVSPropertyOp14
 70
     1
102
RTVSPropertyOp15
 70
     1
102
RTVSPropertyOp16
 70
     1
102
RTVSPropertyOp17
 70
     1
102
RTVSPropertyOp18
 70
     1
102
RTVSPropertyOp19
 70
     1
102
RTVSPropertyOp20
 70
     1
102
RTVSPropertyOp21
 70
     1
102
RTVSPropertyOp22
 70
     1
102
RTVSPropertyOp23
 70
     1
102
RTVSPropertyOp24
 70
     1
102
RTVSPropertyOp25
 70
     1
102
RTVSPropertyOp26
 70
     1
102
RTVSPropertyOp27
 70
     1
  0
XRECORD
  5
710
102
{ACAD_REACTORS
330
70F
102
}
330
70F
100
AcDbXrecord
280
     1
102
RTVSPropertyOp0
 70
     0
102
RTVSPropertyOp1
 70
     0
102
RTVSPropertyOp2
 70
     0
102
RTVSPropertyOp3
 70
     0
102
RTVSPropertyOp4
 70
     0
102
RTVSPropertyOp5
 70
     0
102
RTVSPropertyOp6
 70
     0
102
RTVSPropertyOp7
 70
     0
102
RTVSPropertyOp8
 70
     0
102
RTVSPropertyOp9
 70
     0
102
RTVSPropertyOp10
 70
     0
102
RTVSPropertyOp11
 70
     0
102
RTVSPropertyOp12
 70
     0
102
RTVSPropertyOp13
 70
     0
102
RTVSPropertyOp14
 70
     2
102
RTVSPropertyOp15
 70
     0
102
RTVSPropertyOp16
 70
     0
102
RTVSPropertyOp17
 70
     0
102
RTVSPropertyOp18
 70
     0
102
RTVSPropertyOp19
 70
     0
102
RTVSPropertyOp20
 70
     0
102
RTVSPropertyOp21
 70
     0
102
RTVSPropertyOp22
 70
     0
102
RTVSPropertyOp23
 70
     0
102
RTVSPropertyOp24
 70
     0
102
RTVSPropertyOp25
 70
     0
102
RTVSPropertyOp26
 70
     0
102
RTVSPropertyOp27
 70
     0
  0
XRECORD
  5
6FE
102
{ACAD_REACTORS
330
6FD
102
}
330
6FD
100
AcDbXrecord
280
     1
102
RTVSPropertyOp0
 70
     1
102
RTVSPropertyOp1
 70
     1
102
RTVSPropertyOp2
 70
     1
102
RTVSPropertyOp3
 70
     1
102
RTVSPropertyOp4
 70
     1
102
RTVSPropertyOp5
 70
     1
102
RTVSPropertyOp6
 70
     1
102
RTVSPropertyOp7
 70
     1
102
RTVSPropertyOp8
 70
     1
102
RTVSPropertyOp9
 70
     1
102
RTVSPropertyOp10
 70
     1
102
RTVSPropertyOp11
 70
     1
102
RTVSPropertyOp12
 70
     1
102
RTVSPropertyOp13
 70
     1
102
RTVSPropertyOp14
 70
     1
102
RTVSPropertyOp15
 70
     1
102
RTVSPropertyOp16
 70
     1
102
RTVSPropertyOp17
 70
     1
102
RTVSPropertyOp18
 70
     1
102
RTVSPropertyOp19
 70
     1
102
RTVSPropertyOp20
 70
     1
102
RTVSPropertyOp21
 70
     1
102
RTVSPropertyOp22
 70
     1
102
RTVSPropertyOp23
 70
     1
102
RTVSPropertyOp24
 70
     1
102
RTVSPropertyOp25
 70
     1
102
RTVSPropertyOp26
 70
     1
102
RTVSPropertyOp27
 70
     1
  0
XRECORD
  5
6E2
102
{ACAD_REACTORS
330
6E1
102
}
330
6E1
100
AcDbXrecord
280
     1
102
RTVSPropertyOp0
 70
     1
102
RTVSPropertyOp1
 70
     1
102
RTVSPropertyOp2
 70
     1
102
RTVSPropertyOp3
 70
     1
102
RTVSPropertyOp4
 70
     1
102
RTVSPropertyOp5
 70
     1
102
RTVSPropertyOp6
 70
     1
102
RTVSPropertyOp7
 70
     1
102
RTVSPropertyOp8
 70
     1
102
RTVSPropertyOp9
 70
     1
102
RTVSPropertyOp10
 70
     1
102
RTVSPropertyOp11
 70
     1
102
RTVSPropertyOp12
 70
     1
102
RTVSPropertyOp13
 70
     1
102
RTVSPropertyOp14
 70
     1
102
RTVSPropertyOp15
 70
     1
102
RTVSPropertyOp16
 70
     1
102
RTVSPropertyOp17
 70
     1
102
RTVSPropertyOp18
 70
     1
102
RTVSPropertyOp19
 70
     1
102
RTVSPropertyOp20
 70
     1
102
RTVSPropertyOp21
 70
     1
102
RTVSPropertyOp22
 70
     1
102
RTVSPropertyOp23
 70
     1
102
RTVSPropertyOp24
 70
     1
102
RTVSPropertyOp25
 70
     1
102
RTVSPropertyOp26
 70
     1
102
RTVSPropertyOp27
 70
     1
  0
XRECORD
  5
6E4
102
{ACAD_REACTORS
330
6E3
102
}
330
6E3
100
AcDbXrecord
280
     1
102
RTVSPropertyOp0
 70
     1
102
RTVSPropertyOp1
 70
     1
102
RTVSPropertyOp2
 70
     1
102
RTVSPropertyOp3
 70
     1
102
RTVSPropertyOp4
 70
     1
102
RTVSPropertyOp5
 70
     1
102
RTVSPropertyOp6
 70
     1
102
RTVSPropertyOp7
 70
     1
102
RTVSPropertyOp8
 70
     1
102
RTVSPropertyOp9
 70
     1
102
RTVSPropertyOp10
 70
     1
102
RTVSPropertyOp11
 70
     1
102
RTVSPropertyOp12
 70
     1
102
RTVSPropertyOp13
 70
     1
102
RTVSPropertyOp14
 70
     1
102
RTVSPropertyOp15
 70
     1
102
RTVSPropertyOp16
 70
     1
102
RTVSPropertyOp17
 70
     1
102
RTVSPropertyOp18
 70
     1
102
RTVSPropertyOp19
 70
     1
102
RTVSPropertyOp20
 70
     1
102
RTVSPropertyOp21
 70
     1
102
RTVSPropertyOp22
 70
     1
102
RTVSPropertyOp23
 70
     1
102
RTVSPropertyOp24
 70
     1
102
RTVSPropertyOp25
 70
     1
102
RTVSPropertyOp26
 70
     1
102
RTVSPropertyOp27
 70
     1
  0
XRECORD
  5
6E6
102
{ACAD_REACTORS
330
6E5
102
}
330
6E5
100
AcDbXrecord
280
     1
102
RTVSPropertyOp0
 70
     1
102
RTVSPropertyOp1
 70
     1
102
RTVSPropertyOp2
 70
     1
102
RTVSPropertyOp3
 70
     1
102
RTVSPropertyOp4
 70
     1
102
RTVSPropertyOp5
 70
     1
102
RTVSPropertyOp6
 70
     1
102
RTVSPropertyOp7
 70
     1
102
RTVSPropertyOp8
 70
     1
102
RTVSPropertyOp9
 70
     1
102
RTVSPropertyOp10
 70
     1
102
RTVSPropertyOp11
 70
     1
102
RTVSPropertyOp12
 70
     1
102
RTVSPropertyOp13
 70
     1
102
RTVSPropertyOp14
 70
     1
102
RTVSPropertyOp15
 70
     1
102
RTVSPropertyOp16
 70
     1
102
RTVSPropertyOp17
 70
     1
102
RTVSPropertyOp18
 70
     1
102
RTVSPropertyOp19
 70
     1
102
RTVSPropertyOp20
 70
     1
102
RTVSPropertyOp21
 70
     1
102
RTVSPropertyOp22
 70
     1
102
RTVSPropertyOp23
 70
     1
102
RTVSPropertyOp24
 70
     1
102
RTVSPropertyOp25
 70
     1
102
RTVSPropertyOp26
 70
     1
102
RTVSPropertyOp27
 70
     1
  0
XRECORD
  5
6E8
102
{ACAD_REACTORS
330
6E7
102
}
330
6E7
100
AcDbXrecord
280
     1
102
RTVSPropertyOp0
 70
     1
102
RTVSPropertyOp1
 70
     1
102
RTVSPropertyOp2
 70
     1
102
RTVSPropertyOp3
 70
     1
102
RTVSPropertyOp4
 70
     1
102
RTVSPropertyOp5
 70
     1
102
RTVSPropertyOp6
 70
     1
102
RTVSPropertyOp7
 70
     1
102
RTVSPropertyOp8
 70
     1
102
RTVSPropertyOp9
 70
     1
102
RTVSPropertyOp10
 70
     1
102
RTVSPropertyOp11
 70
     1
102
RTVSPropertyOp12
 70
     1
102
RTVSPropertyOp13
 70
     1
102
RTVSPropertyOp14
 70
     1
102
RTVSPropertyOp15
 70
     1
102
RTVSPropertyOp16
 70
     1
102
RTVSPropertyOp17
 70
     1
102
RTVSPropertyOp18
 70
     1
102
RTVSPropertyOp19
 70
     1
102
RTVSPropertyOp20
 70
     1
102
RTVSPropertyOp21
 70
     1
102
RTVSPropertyOp22
 70
     1
102
RTVSPropertyOp23
 70
     1
102
RTVSPropertyOp24
 70
     1
102
RTVSPropertyOp25
 70
     1
102
RTVSPropertyOp26
 70
     1
102
RTVSPropertyOp27
 70
     1
  0
XRECORD
  5
6F0
102
{ACAD_REACTORS
330
6EF
102
}
330
6EF
100
AcDbXrecord
280
     1
102
RTVSPropertyOp0
 70
     1
102
RTVSPropertyOp1
 70
     1
102
RTVSPropertyOp2
 70
     1
102
RTVSPropertyOp3
 70
     1
102
RTVSPropertyOp4
 70
     1
102
RTVSPropertyOp5
 70
     1
102
RTVSPropertyOp6
 70
     1
102
RTVSPropertyOp7
 70
     1
102
RTVSPropertyOp8
 70
     1
102
RTVSPropertyOp9
 70
     1
102
RTVSPropertyOp10
 70
     1
102
RTVSPropertyOp11
 70
     1
102
RTVSPropertyOp12
 70
     1
102
RTVSPropertyOp13
 70
     1
102
RTVSPropertyOp14
 70
     1
102
RTVSPropertyOp15
 70
     1
102
RTVSPropertyOp16
 70
     1
102
RTVSPropertyOp17
 70
     1
102
RTVSPropertyOp18
 70
     1
102
RTVSPropertyOp19
 70
     1
102
RTVSPropertyOp20
 70
     1
102
RTVSPropertyOp21
 70
     1
102
RTVSPropertyOp22
 70
     1
102
RTVSPropertyOp23
 70
     1
102
RTVSPropertyOp24
 70
     1
102
RTVSPropertyOp25
 70
     1
102
RTVSPropertyOp26
 70
     1
102
RTVSPropertyOp27
 70
     1
  0
XRECORD
  5
70C
102
{ACAD_REACTORS
330
70B
102
}
330
70B
100
AcDbXrecord
280
     1
102
RTVSPropertyOp0
 70
     0
102
RTVSPropertyOp1
 70
     0
102
RTVSPropertyOp2
 70
     0
102
RTVSPropertyOp3
 70
     0
102
RTVSPropertyOp4
 70
     0
102
RTVSPropertyOp5
 70
     0
102
RTVSPropertyOp6
 70
     0
102
RTVSPropertyOp7
 70
     0
102
RTVSPropertyOp8
 70
     0
102
RTVSPropertyOp9
 70
     0
102
RTVSPropertyOp10
 70
     0
102
RTVSPropertyOp11
 70
     0
102
RTVSPropertyOp12
 70
     0
102
RTVSPropertyOp13
 70
     0
102
RTVSPropertyOp14
 70
     2
102
RTVSPropertyOp15
 70
     0
102
RTVSPropertyOp16
 70
     0
102
RTVSPropertyOp17
 70
     0
102
RTVSPropertyOp18
 70
     0
102
RTVSPropertyOp19
 70
     0
102
RTVSPropertyOp20
 70
     0
102
RTVSPropertyOp21
 70
     0
102
RTVSPropertyOp22
 70
     0
102
RTVSPropertyOp23
 70
     0
102
RTVSPropertyOp24
 70
     0
102
RTVSPropertyOp25
 70
     0
102
RTVSPropertyOp26
 70
     0
102
RTVSPropertyOp27
 70
     0
  0
XRECORD
  5
6FC
102
{ACAD_REACTORS
330
6FB
102
}
330
6FB
100
AcDbXrecord
280
     1
102
RTVSPropertyOp0
 70
     1
102
RTVSPropertyOp1
 70
     1
102
RTVSPropertyOp2
 70
     1
102
RTVSPropertyOp3
 70
     1
102
RTVSPropertyOp4
 70
     1
102
RTVSPropertyOp5
 70
     1
102
RTVSPropertyOp6
 70
     1
102
RTVSPropertyOp7
 70
     1
102
RTVSPropertyOp8
 70
     1
102
RTVSPropertyOp9
 70
     1
102
RTVSPropertyOp10
 70
     1
102
RTVSPropertyOp11
 70
     1
102
RTVSPropertyOp12
 70
     1
102
RTVSPropertyOp13
 70
     1
102
RTVSPropertyOp14
 70
     1
102
RTVSPropertyOp15
 70
     1
102
RTVSPropertyOp16
 70
     1
102
RTVSPropertyOp17
 70
     1
102
RTVSPropertyOp18
 70
     1
102
RTVSPropertyOp19
 70
     1
102
RTVSPropertyOp20
 70
     1
102
RTVSPropertyOp21
 70
     1
102
RTVSPropertyOp22
 70
     1
102
RTVSPropertyOp23
 70
     1
102
RTVSPropertyOp24
 70
     1
102
RTVSPropertyOp25
 70
     1
102
RTVSPropertyOp26
 70
     1
102
RTVSPropertyOp27
 70
     1
  0
XRECORD
  5
70E
102
{ACAD_REACTORS
330
70D
102
}
330
70D
100
AcDbXrecord
280
     1
102
RTVSPropertyOp0
 70
     0
102
RTVSPropertyOp1
 70
     0
102
RTVSPropertyOp2
 70
     0
102
RTVSPropertyOp3
 70
     0
102
RTVSPropertyOp4
 70
     0
102
RTVSPropertyOp5
 70
     0
102
RTVSPropertyOp6
 70
     0
102
RTVSPropertyOp7
 70
     0
102
RTVSPropertyOp8
 70
     0
102
RTVSPropertyOp9
 70
     0
102
RTVSPropertyOp10
 70
     0
102
RTVSPropertyOp11
 70
     0
102
RTVSPropertyOp12
 70
     0
102
RTVSPropertyOp13
 70
     0
102
RTVSPropertyOp14
 70
     2
102
RTVSPropertyOp15
 70
     0
102
RTVSPropertyOp16
 70
     0
102
RTVSPropertyOp17
 70
     0
102
RTVSPropertyOp18
 70
     0
102
RTVSPropertyOp19
 70
     0
102
RTVSPropertyOp20
 70
     0
102
RTVSPropertyOp21
 70
     0
102
RTVSPropertyOp22
 70
     0
102
RTVSPropertyOp23
 70
     0
102
RTVSPropertyOp24
 70
     0
102
RTVSPropertyOp25
 70
     0
102
RTVSPropertyOp26
 70
     0
102
RTVSPropertyOp27
 70
     0
  0
XRECORD
  5
6F4
102
{ACAD_REACTORS
330
6F3
102
}
330
6F3
100
AcDbXrecord
280
     1
102
RTVSPropertyOp0
 70
     1
102
RTVSPropertyOp1
 70
     1
102
RTVSPropertyOp2
 70
     1
102
RTVSPropertyOp3
 70
     1
102
RTVSPropertyOp4
 70
     1
102
RTVSPropertyOp5
 70
     1
102
RTVSPropertyOp6
 70
     1
102
RTVSPropertyOp7
 70
     1
102
RTVSPropertyOp8
 70
     1
102
RTVSPropertyOp9
 70
     1
102
RTVSPropertyOp10
 70
     1
102
RTVSPropertyOp11
 70
     1
102
RTVSPropertyOp12
 70
     1
102
RTVSPropertyOp13
 70
     1
102
RTVSPropertyOp14
 70
     1
102
RTVSPropertyOp15
 70
     1
102
RTVSPropertyOp16
 70
     1
102
RTVSPropertyOp17
 70
     1
102
RTVSPropertyOp18
 70
     1
102
RTVSPropertyOp19
 70
     1
102
RTVSPropertyOp20
 70
     1
102
RTVSPropertyOp21
 70
     1
102
RTVSPropertyOp22
 70
     1
102
RTVSPropertyOp23
 70
     1
102
RTVSPropertyOp24
 70
     1
102
RTVSPropertyOp25
 70
     1
102
RTVSPropertyOp26
 70
     1
102
RTVSPropertyOp27
 70
     1
  0
XRECORD
  5
70A
102
{ACAD_REACTORS
330
709
102
}
330
709
100
AcDbXrecord
280
     1
102
RTVSPropertyOp0
 70
     1
102
RTVSPropertyOp1
 70
     1
102
RTVSPropertyOp2
 70
     1
102
RTVSPropertyOp3
 70
     1
102
RTVSPropertyOp4
 70
     1
102
RTVSPropertyOp5
 70
     1
102
RTVSPropertyOp6
 70
     1
102
RTVSPropertyOp7
 70
     1
102
RTVSPropertyOp8
 70
     1
102
RTVSPropertyOp9
 70
     1
102
RTVSPropertyOp10
 70
     1
102
RTVSPropertyOp11
 70
     1
102
RTVSPropertyOp12
 70
     1
102
RTVSPropertyOp13
 70
     1
102
RTVSPropertyOp14
 70
     1
102
RTVSPropertyOp15
 70
     1
102
RTVSPropertyOp16
 70
     1
102
RTVSPropertyOp17
 70
     1
102
RTVSPropertyOp18
 70
     1
102
RTVSPropertyOp19
 70
     1
102
RTVSPropertyOp20
 70
     1
102
RTVSPropertyOp21
 70
     1
102
RTVSPropertyOp22
 70
     1
102
RTVSPropertyOp23
 70
     1
102
RTVSPropertyOp24
 70
     1
102
RTVSPropertyOp25
 70
     1
102
RTVSPropertyOp26
 70
     1
102
RTVSPropertyOp27
 70
     1
  0
XRECORD
  5
708
102
{ACAD_REACTORS
330
707
102
}
330
707
100
AcDbXrecord
280
     1
102
RTVSPropertyOp0
 70
     1
102
RTVSPropertyOp1
 70
     1
102
RTVSPropertyOp2
 70
     1
102
RTVSPropertyOp3
 70
     1
102
RTVSPropertyOp4
 70
     1
102
RTVSPropertyOp5
 70
     1
102
RTVSPropertyOp6
 70
     1
102
RTVSPropertyOp7
 70
     1
102
RTVSPropertyOp8
 70
     1
102
RTVSPropertyOp9
 70
     1
102
RTVSPropertyOp10
 70
     1
102
RTVSPropertyOp11
 70
     1
102
RTVSPropertyOp12
 70
     1
102
RTVSPropertyOp13
 70
     1
102
RTVSPropertyOp14
 70
     1
102
RTVSPropertyOp15
 70
     1
102
RTVSPropertyOp16
 70
     1
102
RTVSPropertyOp17
 70
     1
102
RTVSPropertyOp18
 70
     1
102
RTVSPropertyOp19
 70
     1
102
RTVSPropertyOp20
 70
     1
102
RTVSPropertyOp21
 70
     1
102
RTVSPropertyOp22
 70
     1
102
RTVSPropertyOp23
 70
     1
102
RTVSPropertyOp24
 70
     1
102
RTVSPropertyOp25
 70
     1
102
RTVSPropertyOp26
 70
     1
102
RTVSPropertyOp27
 70
     1
  0
XRECORD
  5
702
102
{ACAD_REACTORS
330
701
102
}
330
701
100
AcDbXrecord
280
     1
102
RTVSPropertyOp0
 70
     1
102
RTVSPropertyOp1
 70
     1
102
RTVSPropertyOp2
 70
     1
102
RTVSPropertyOp3
 70
     1
102
RTVSPropertyOp4
 70
     1
102
RTVSPropertyOp5
 70
     1
102
RTVSPropertyOp6
 70
     1
102
RTVSPropertyOp7
 70
     1
102
RTVSPropertyOp8
 70
     1
102
RTVSPropertyOp9
 70
     1
102
RTVSPropertyOp10
 70
     1
102
RTVSPropertyOp11
 70
     1
102
RTVSPropertyOp12
 70
     1
102
RTVSPropertyOp13
 70
     1
102
RTVSPropertyOp14
 70
     1
102
RTVSPropertyOp15
 70
     1
102
RTVSPropertyOp16
 70
     1
102
RTVSPropertyOp17
 70
     1
102
RTVSPropertyOp18
 70
     1
102
RTVSPropertyOp19
 70
     1
102
RTVSPropertyOp20
 70
     1
102
RTVSPropertyOp21
 70
     1
102
RTVSPropertyOp22
 70
     1
102
RTVSPropertyOp23
 70
     1
102
RTVSPropertyOp24
 70
     1
102
RTVSPropertyOp25
 70
     1
102
RTVSPropertyOp26
 70
     1
102
RTVSPropertyOp27
 70
     1
  0
XRECORD
  5
704
102
{ACAD_REACTORS
330
703
102
}
330
703
100
AcDbXrecord
280
     1
102
RTVSPropertyOp0
 70
     1
102
RTVSPropertyOp1
 70
     1
102
RTVSPropertyOp2
 70
     1
102
RTVSPropertyOp3
 70
     1
102
RTVSPropertyOp4
 70
     1
102
RTVSPropertyOp5
 70
     1
102
RTVSPropertyOp6
 70
     1
102
RTVSPropertyOp7
 70
     1
102
RTVSPropertyOp8
 70
     1
102
RTVSPropertyOp9
 70
     1
102
RTVSPropertyOp10
 70
     1
102
RTVSPropertyOp11
 70
     1
102
RTVSPropertyOp12
 70
     1
102
RTVSPropertyOp13
 70
     1
102
RTVSPropertyOp14
 70
     1
102
RTVSPropertyOp15
 70
     1
102
RTVSPropertyOp16
 70
     1
102
RTVSPropertyOp17
 70
     1
102
RTVSPropertyOp18
 70
     1
102
RTVSPropertyOp19
 70
     1
102
RTVSPropertyOp20
 70
     1
102
RTVSPropertyOp21
 70
     1
102
RTVSPropertyOp22
 70
     1
102
RTVSPropertyOp23
 70
     1
102
RTVSPropertyOp24
 70
     1
102
RTVSPropertyOp25
 70
     1
102
RTVSPropertyOp26
 70
     1
102
RTVSPropertyOp27
 70
     1
  0
XRECORD
  5
6FA
102
{ACAD_REACTORS
330
6F9
102
}
330
6F9
100
AcDbXrecord
280
     1
102
RTVSPropertyOp0
 70
     1
102
RTVSPropertyOp1
 70
     1
102
RTVSPropertyOp2
 70
     1
102
RTVSPropertyOp3
 70
     1
102
RTVSPropertyOp4
 70
     1
102
RTVSPropertyOp5
 70
     1
102
RTVSPropertyOp6
 70
     1
102
RTVSPropertyOp7
 70
     1
102
RTVSPropertyOp8
 70
     1
102
RTVSPropertyOp9
 70
     1
102
RTVSPropertyOp10
 70
     1
102
RTVSPropertyOp11
 70
     1
102
RTVSPropertyOp12
 70
     1
102
RTVSPropertyOp13
 70
     1
102
RTVSPropertyOp14
 70
     1
102
RTVSPropertyOp15
 70
     1
102
RTVSPropertyOp16
 70
     1
102
RTVSPropertyOp17
 70
     1
102
RTVSPropertyOp18
 70
     1
102
RTVSPropertyOp19
 70
     1
102
RTVSPropertyOp20
 70
     1
102
RTVSPropertyOp21
 70
     1
102
RTVSPropertyOp22
 70
     1
102
RTVSPropertyOp23
 70
     1
102
RTVSPropertyOp24
 70
     1
102
RTVSPropertyOp25
 70
     1
102
RTVSPropertyOp26
 70
     1
102
RTVSPropertyOp27
 70
     1
  0
XRECORD
  5
6EE
102
{ACAD_REACTORS
330
6ED
102
}
330
6ED
100
AcDbXrecord
280
     1
102
RTVSPropertyOp0
 70
     1
102
RTVSPropertyOp1
 70
     1
102
RTVSPropertyOp2
 70
     1
102
RTVSPropertyOp3
 70
     1
102
RTVSPropertyOp4
 70
     1
102
RTVSPropertyOp5
 70
     1
102
RTVSPropertyOp6
 70
     1
102
RTVSPropertyOp7
 70
     1
102
RTVSPropertyOp8
 70
     1
102
RTVSPropertyOp9
 70
     1
102
RTVSPropertyOp10
 70
     1
102
RTVSPropertyOp11
 70
     1
102
RTVSPropertyOp12
 70
     1
102
RTVSPropertyOp13
 70
     1
102
RTVSPropertyOp14
 70
     1
102
RTVSPropertyOp15
 70
     1
102
RTVSPropertyOp16
 70
     1
102
RTVSPropertyOp17
 70
     1
102
RTVSPropertyOp18
 70
     1
102
RTVSPropertyOp19
 70
     1
102
RTVSPropertyOp20
 70
     1
102
RTVSPropertyOp21
 70
     1
102
RTVSPropertyOp22
 70
     1
102
RTVSPropertyOp23
 70
     1
102
RTVSPropertyOp24
 70
     1
102
RTVSPropertyOp25
 70
     1
102
RTVSPropertyOp26
 70
     1
102
RTVSPropertyOp27
 70
     1
  0
XRECORD
  5
706
102
{ACAD_REACTORS
330
705
102
}
330
705
100
AcDbXrecord
280
     1
102
RTVSPropertyOp0
 70
     1
102
RTVSPropertyOp1
 70
     1
102
RTVSPropertyOp2
 70
     1
102
RTVSPropertyOp3
 70
     1
102
RTVSPropertyOp4
 70
     1
102
RTVSPropertyOp5
 70
     1
102
RTVSPropertyOp6
 70
     1
102
RTVSPropertyOp7
 70
     1
102
RTVSPropertyOp8
 70
     1
102
RTVSPropertyOp9
 70
     1
102
RTVSPropertyOp10
 70
     1
102
RTVSPropertyOp11
 70
     1
102
RTVSPropertyOp12
 70
     1
102
RTVSPropertyOp13
 70
     1
102
RTVSPropertyOp14
 70
     1
102
RTVSPropertyOp15
 70
     1
102
RTVSPropertyOp16
 70
     1
102
RTVSPropertyOp17
 70
     1
102
RTVSPropertyOp18
 70
     1
102
RTVSPropertyOp19
 70
     1
102
RTVSPropertyOp20
 70
     1
102
RTVSPropertyOp21
 70
     1
102
RTVSPropertyOp22
 70
     1
102
RTVSPropertyOp23
 70
     1
102
RTVSPropertyOp24
 70
     1
102
RTVSPropertyOp25
 70
     1
102
RTVSPropertyOp26
 70
     1
102
RTVSPropertyOp27
 70
     1
  0
ENDSEC
  0
EOF
