  0
SECTION
  2
HEADER
  9
$ACADVER
  1
AC1018
  9
$ACADMAINTVER
 70
   104
  9
$DWGCODEPAGE
  3
ANSI_936
  9
$LASTSAVEDBY
  1
chaxiu.zhu
  9
$INSBASE
 10
0.0
 20
0.0
 30
0.0
  9
$EXTMIN
 10
29827.4438854465
 20
-107.3722797148948
 30
-0.00000001
  9
$EXTMAX
 10
30821.18761176102
 20
994.1408076181129
 30
0.00000001
  9
$LIMMIN
 10
0.0
 20
0.0
  9
$LIMMAX
 10
420.0
 20
297.0
  9
$ORTHOMODE
 70
     1
  9
$REGENMODE
 70
     1
  9
$FILLMODE
 70
     1
  9
$QTEXTMODE
 70
     0
  9
$MIRRTEXT
 70
     0
  9
$LTSCALE
 40
1.0
  9
$ATTMODE
 70
     1
  9
$TEXTSIZE
 40
2.5
  9
$TRACEWID
 40
1.0
  9
$TEXTSTYLE
  7
Standard
  9
$CLAYER
  8
轮廓线.
  9
$CELTYPE
  6
ByLayer
  9
$CECOLOR
 62
   256
  9
$CELTSCALE
 40
1.0
  9
$DISPSILH
 70
     0
  9
$DIMSCALE
 40
0.5
  9
$DIMASZ
 40
20.0
  9
$DIMEXO
 40
0.0
  9
$DIMDLI
 40
3.75
  9
$DIMRND
 40
0.0
  9
$DIMDLE
 40
0.0
  9
$DIMEXE
 40
10.0
  9
$DIMTP
 40
0.0
  9
$DIMTM
 40
0.0
  9
$DIMTXT
 40
30.0
  9
$DIMCEN
 40
0.0
  9
$DIMTSZ
 40
0.0
  9
$DIMTOL
 70
     0
  9
$DIMLIM
 70
     0
  9
$DIMTIH
 70
     0
  9
$DIMTOH
 70
     1
  9
$DIMSE1
 70
     0
  9
$DIMSE2
 70
     0
  9
$DIMTAD
 70
     0
  9
$DIMZIN
 70
     8
  9
$DIMBLK
  1

  9
$DIMASO
 70
     1
  9
$DIMSHO
 70
     1
  9
$DIMPOST
  1

  9
$DIMAPOST
  1

  9
$DIMALT
 70
     0
  9
$DIMALTD
 70
     3
  9
$DIMALTF
 40
0.03937007874016
  9
$DIMLFAC
 40
1.0
  9
$DIMTOFL
 70
     1
  9
$DIMTVP
 40
0.0
  9
$DIMTIX
 70
     0
  9
$DIMSOXD
 70
     0
  9
$DIMSAH
 70
     0
  9
$DIMBLK1
  1

  9
$DIMBLK2
  1

  9
$DIMSTYLE
  2
宋体
  9
$DIMCLRD
 70
     0
  9
$DIMCLRE
 70
     0
  9
$DIMCLRT
 70
     0
  9
$DIMTFAC
 40
1.0
  9
$DIMGAP
 40
20.0
  9
$DIMJUST
 70
     0
  9
$DIMSD1
 70
     0
  9
$DIMSD2
 70
     0
  9
$DIMTOLJ
 70
     1
  9
$DIMTZIN
 70
     8
  9
$DIMALTZ
 70
     0
  9
$DIMALTTZ
 70
     0
  9
$DIMUPT
 70
     0
  9
$DIMDEC
 70
     0
  9
$DIMTDEC
 70
     0
  9
$DIMALTU
 70
     2
  9
$DIMALTTD
 70
     3
  9
$DIMTXSTY
  7
Standard
  9
$DIMAUNIT
 70
     0
  9
$DIMADEC
 70
     0
  9
$DIMALTRND
 40
0.0
  9
$DIMAZIN
 70
     0
  9
$DIMDSEP
 70
    46
  9
$DIMATFIT
 70
     3
  9
$DIMFRAC
 70
     0
  9
$DIMLDRBLK
  1

  9
$DIMLUNIT
 70
     2
  9
$DIMLWD
 70
    -2
  9
$DIMLWE
 70
    -2
  9
$DIMTMOVE
 70
     1
  9
$LUNITS
 70
     2
  9
$LUPREC
 70
     4
  9
$SKETCHINC
 40
1.0
  9
$FILLETRAD
 40
0.0
  9
$AUNITS
 70
     0
  9
$AUPREC
 70
     0
  9
$MENU
  1
.
  9
$ELEVATION
 40
0.0
  9
$PELEVATION
 40
0.0
  9
$THICKNESS
 40
0.0
  9
$LIMCHECK
 70
     0
  9
$CHAMFERA
 40
0.0
  9
$CHAMFERB
 40
0.0
  9
$CHAMFERC
 40
0.0
  9
$CHAMFERD
 40
0.0
  9
$SKPOLY
 70
     0
  9
$TDCREATE
 40
2455843.370532037
  9
$TDUCREATE
 40
2455843.037198704
  9
$TDUPDATE
 40
2458858.509187049
  9
$TDUUPDATE
 40
2458858.175853715
  9
$TDINDWG
 40
19.5254851157
  9
$TDUSRTIMER
 40
19.5254849537
  9
$USRTIMER
 70
     1
  9
$ANGBASE
 50
0.0
  9
$ANGDIR
 70
     0
  9
$PDMODE
 70
     0
  9
$PDSIZE
 40
0.0
  9
$PLINEWID
 40
0.0
  9
$SPLFRAME
 70
     0
  9
$SPLINETYPE
 70
     6
  9
$SPLINESEGS
 70
     8
  9
$HANDSEED
  5
1CC
  9
$SURFTAB1
 70
     6
  9
$SURFTAB2
 70
     6
  9
$SURFTYPE
 70
     6
  9
$SURFU
 70
     6
  9
$SURFV
 70
     6
  9
$UCSBASE
  2

  9
$UCSNAME
  2

  9
$UCSORG
 10
0.0
 20
0.0
 30
0.0
  9
$UCSXDIR
 10
1.0
 20
0.0
 30
0.0
  9
$UCSYDIR
 10
0.0
 20
1.0
 30
0.0
  9
$UCSORTHOREF
  2

  9
$UCSORTHOVIEW
 70
     0
  9
$UCSORGTOP
 10
0.0
 20
0.0
 30
0.0
  9
$UCSORGBOTTOM
 10
0.0
 20
0.0
 30
0.0
  9
$UCSORGLEFT
 10
0.0
 20
0.0
 30
0.0
  9
$UCSORGRIGHT
 10
0.0
 20
0.0
 30
0.0
  9
$UCSORGFRONT
 10
0.0
 20
0.0
 30
0.0
  9
$UCSORGBACK
 10
0.0
 20
0.0
 30
0.0
  9
$PUCSBASE
  2

  9
$PUCSNAME
  2

  9
$PUCSORG
 10
0.0
 20
0.0
 30
0.0
  9
$PUCSXDIR
 10
1.0
 20
0.0
 30
0.0
  9
$PUCSYDIR
 10
0.0
 20
1.0
 30
0.0
  9
$PUCSORTHOREF
  2

  9
$PUCSORTHOVIEW
 70
     0
  9
$PUCSORGTOP
 10
0.0
 20
0.0
 30
0.0
  9
$PUCSORGBOTTOM
 10
0.0
 20
0.0
 30
0.0
  9
$PUCSORGLEFT
 10
0.0
 20
0.0
 30
0.0
  9
$PUCSORGRIGHT
 10
0.0
 20
0.0
 30
0.0
  9
$PUCSORGFRONT
 10
0.0
 20
0.0
 30
0.0
  9
$PUCSORGBACK
 10
0.0
 20
0.0
 30
0.0
  9
$USERI1
 70
     0
  9
$USERI2
 70
     0
  9
$USERI3
 70
     0
  9
$USERI4
 70
     0
  9
$USERI5
 70
     0
  9
$USERR1
 40
0.0
  9
$USERR2
 40
0.0
  9
$USERR3
 40
0.0
  9
$USERR4
 40
0.0
  9
$USERR5
 40
2.5
  9
$WORLDVIEW
 70
     1
  9
$SHADEDGE
 70
     3
  9
$SHADEDIF
 70
    70
  9
$TILEMODE
 70
     1
  9
$MAXACTVP
 70
    64
  9
$PINSBASE
 10
0.0
 20
0.0
 30
0.0
  9
$PLIMCHECK
 70
     0
  9
$PEXTMIN
 10
0.0
 20
0.0
 30
0.0
  9
$PEXTMAX
 10
0.0
 20
0.0
 30
0.0
  9
$PLIMMIN
 10
0.0
 20
0.0
  9
$PLIMMAX
 10
12.0
 20
9.0
  9
$UNITMODE
 70
     0
  9
$VISRETAIN
 70
     1
  9
$PLINEGEN
 70
     0
  9
$PSLTSCALE
 70
     1
  9
$TREEDEPTH
 70
  3020
  9
$CMLSTYLE
  2
Standard
  9
$CMLJUST
 70
     0
  9
$CMLSCALE
 40
20.0
  9
$PROXYGRAPHICS
 70
     1
  9
$MEASUREMENT
 70
     1
  9
$CELWEIGHT
370
    -1
  9
$ENDCAPS
280
     0
  9
$JOINSTYLE
280
     0
  9
$LWDISPLAY
290
     0
  9
$INSUNITS
 70
     4
  9
$HYPERLINKBASE
  1

  9
$STYLESHEET
  1

  9
$XEDIT
290
     1
  9
$CEPSNTYPE
380
     0
  9
$PSTYLEMODE
290
     1
  9
$FINGERPRINTGUID
  2
{0E2110CE-71BF-4E12-84BA-81689458447F}
  9
$VERSIONGUID
  2
{647E916E-8393-44E8-A19D-0CDFCDF95485}
  9
$EXTNAMES
290
     1
  9
$PSVPSCALE
 40
0.0
  9
$OLESTARTUP
290
     0
  9
$SORTENTS
280
   127
  9
$INDEXCTL
280
     0
  9
$HIDETEXT
280
     1
  9
$XCLIPFRAME
290
     0
  9
$HALOGAP
280
     0
  9
$OBSCOLOR
 70
   257
  9
$OBSLTYPE
280
     0
  9
$INTERSECTIONDISPLAY
280
     0
  9
$INTERSECTIONCOLOR
 70
   257
  9
$DIMASSOC
280
     2
  9
$PROJECTNAME
  1

  0
ENDSEC
  0
SECTION
  2
CLASSES
  0
CLASS
  1
ACDBDICTIONARYWDFLT
  2
AcDbDictionaryWithDefault
  3
ObjectDBX Classes
 90
        0
 91
        1
280
     0
281
     0
  0
CLASS
  1
DICTIONARYVAR
  2
AcDbDictionaryVar
  3
ObjectDBX Classes
 90
        0
 91
        3
280
     0
281
     0
  0
CLASS
  1
TABLESTYLE
  2
AcDbTableStyle
  3
ObjectDBX Classes
 90
     4095
 91
        1
280
     0
281
     0
  0
CLASS
  1
MATERIAL
  2
AcDbMaterial
  3
ObjectDBX Classes
 90
        0
 91
        3
280
     0
281
     0
  0
CLASS
  1
VISUALSTYLE
  2
AcDbVisualStyle
  3
ObjectDBX Classes
 90
     4095
 91
       16
280
     0
281
     0
  0
CLASS
  1
VLO-VL
  2
vlo_VL
  3
VL|AutoLISP based application
 90
        0
 91
        0
280
     0
281
     0
  0
CLASS
  1
SORTENTSTABLE
  2
AcDbSortentsTable
  3
ObjectDBX Classes
 90
        0
 91
        1
280
     0
281
     0
  0
CLASS
  1
DIMASSOC
  2
AcDbDimAssoc
  3
"ZcDbDimAssoc|Product Desc:     ZwDim ZRX App For Dimension|Company:          ZwSoft.|WEB Address:      www.zwsoft.com"
 90
        0
 91
        0
280
     0
281
     0
  0
CLASS
  1
EXACXREFPANELOBJECT
  2
ExAcXREFPanelObject
  3
EXAC_ESW
 90
     1025
 91
        0
280
     1
281
     0
  0
CLASS
  1
NPOCOLLECTION
  2
AcDbImpNonPersistentObjectsCollection
  3
ObjectDBX Classes
 90
     1153
 91
        0
280
     0
281
     0
  0
CLASS
  1
SCALE
  2
AcDbScale
  3
ObjectDBX Classes
 90
     1153
 91
       33
280
     0
281
     0
  0
CLASS
  1
MLEADERSTYLE
  2
AcDbMLeaderStyle
  3
ACDB_MLEADERSTYLE_CLASS
 90
     4095
 91
        1
280
     0
281
     0
  0
CLASS
  1
CELLSTYLEMAP
  2
AcDbCellStyleMap
  3
ObjectDBX Classes
 90
     1152
 91
        1
280
     0
281
     0
  0
ENDSEC
  0
SECTION
  2
TABLES
  0
TABLE
  2
VPORT
  5
23
330
0
100
AcDbSymbolTable
 70
     2
  0
VPORT
  5
1A5
330
23
100
AcDbSymbolTableRecord
100
AcDbViewportTableRecord
  2
*Active
 70
     0
 10
0.0
 20
0.0
 11
1.0
 21
1.0
 12
31008.33372459723
 22
299.4083523459591
 13
0.0
 23
0.0
 14
10.0
 24
10.0
 15
10.0
 25
10.0
 16
0.0
 26
0.0
 36
1.0
 17
0.0
 27
0.0
 37
0.0
 40
1508.328496575837
 41
1.857503152585119
 42
50.0
 43
0.0
 44
0.0
 50
0.0
 51
0.0
 71
     0
 72
  1000
 73
     1
 74
     3
 75
     0
 76
     0
 77
     0
 78
     0
281
     0
 65
     1
110
0.0
120
0.0
130
0.0
111
1.0
121
0.0
131
0.0
112
0.0
122
1.0
132
0.0
 79
     0
146
0.0
  0
ENDTAB
  0
TABLE
  2
LTYPE
  5
1E
330
0
100
AcDbSymbolTable
 70
     1
  0
LTYPE
  5
1F
330
1E
100
AcDbSymbolTableRecord
100
AcDbLinetypeTableRecord
  2
ByBlock
 70
     0
  3

 72
    65
 73
     0
 40
0.0
  0
LTYPE
  5
20
330
1E
100
AcDbSymbolTableRecord
100
AcDbLinetypeTableRecord
  2
ByLayer
 70
     0
  3

 72
    65
 73
     0
 40
0.0
  0
LTYPE
  5
C
330
1E
100
AcDbSymbolTableRecord
100
AcDbLinetypeTableRecord
  2
Continuous
 70
     0
  3
Solid line
 72
    65
 73
     0
 40
0.0
  0
ENDTAB
  0
TABLE
  2
LAYER
  5
15
102
{ACAD_XDICTIONARY
360
16
102
}
330
0
100
AcDbSymbolTable
 70
     4
  0
LAYER
  5
6
330
15
100
AcDbSymbolTableRecord
100
AcDbLayerTableRecord
  2
0
 70
     0
 62
     7
  6
Continuous
370
    -3
390
7
  0
LAYER
  5
38
330
15
100
AcDbSymbolTableRecord
100
AcDbLayerTableRecord
  2
轮廓线.
 70
     0
 62
   255
  6
Continuous
370
    30
390
7
1001
AcAecLayerStandard
1000

1000

  0
LAYER
  5
BF
330
15
100
AcDbSymbolTableRecord
100
AcDbLayerTableRecord
  2
尺寸标注
 70
     0
 62
    80
  6
Continuous
370
    18
390
7
1001
AcAecLayerStandard
1000

1000

  0
LAYER
  5
59
330
15
100
AcDbSymbolTableRecord
100
AcDbLayerTableRecord
  2
02___PRT_ALL_AXES
 70
     0
 62
     7
  6
Continuous
370
    -3
390
7
  0
ENDTAB
  0
TABLE
  2
STYLE
  5
1B
330
0
100
AcDbSymbolTable
 70
     4
  0
STYLE
  5
1C
330
1B
100
AcDbSymbolTableRecord
100
AcDbTextStyleTableRecord
  2
Standard
 70
     0
 40
0.0
 41
1.0
 50
0.0
 71
     0
 42
2.5
  3
SimSun.ttf
  4

1001
ACAD
1000
SimSun
1071
    34306
  0
STYLE
  5
2F
330
1B
100
AcDbSymbolTableRecord
100
AcDbTextStyleTableRecord
  2
Arial
 70
     0
 40
0.0
 41
1.0
 50
0.0
 71
     0
 42
2.5
  3
arial.ttf
  4

1001
ACAD
1000
Arial
1071
       34
  0
STYLE
  5
2D
330
1B
100
AcDbSymbolTableRecord
100
AcDbTextStyleTableRecord
  2
TXT
 70
     0
 40
0.0
 41
1.0
 50
0.0
 71
     0
 42
2.5
  3
txt.shx
  4

  0
STYLE
  5
2B
330
1B
100
AcDbSymbolTableRecord
100
AcDbTextStyleTableRecord
  2
TT宋体
 70
     0
 40
0.0
 41
1.0
 50
0.0
 71
     0
 42
2.5
  3
SimSun.ttf
  4

1001
ACAD
1000
SimSun
1071
    34306
  0
ENDTAB
  0
TABLE
  2
VIEW
  5
21
330
0
100
AcDbSymbolTable
 70
     0
  0
ENDTAB
  0
TABLE
  2
UCS
  5
22
330
0
100
AcDbSymbolTable
 70
     0
  0
ENDTAB
  0
TABLE
  2
APPID
  5
27
330
0
100
AcDbSymbolTable
 70
     5
  0
APPID
  5
1A
330
27
100
AcDbSymbolTableRecord
100
AcDbRegAppTableRecord
  2
ACAD
 70
     0
  0
APPID
  5
10
330
27
100
AcDbSymbolTableRecord
100
AcDbRegAppTableRecord
  2
ACAD_PSEXT
 70
     0
  0
APPID
  5
39
330
27
100
AcDbSymbolTableRecord
100
AcDbRegAppTableRecord
  2
AcAecLayerStandard
 70
     0
  0
APPID
  5
16B
330
27
100
AcDbSymbolTableRecord
100
AcDbRegAppTableRecord
  2
ACAD_EXEMPT_FROM_CAD_STANDARDS
 70
     0
  0
APPID
  5
1CB
330
27
100
AcDbSymbolTableRecord
100
AcDbRegAppTableRecord
  2
ACAD_MLEADERVER
 70
     0
  0
ENDTAB
  0
TABLE
  2
DIMSTYLE
  5
28
330
0
100
AcDbSymbolTable
 70
     4
100
AcDbDimStyleTable
 71
     4
340
29
340
2A
340
2C
340
2E
  0
DIMSTYLE
105
29
330
28
100
AcDbSymbolTableRecord
100
AcDbDimStyleTableRecord
  2
宋体
 70
     0
 40
0.5
 41
20.0
 42
0.0
 43
3.75
 44
10.0
 73
     0
 78
     8
140
30.0
141
0.0
143
0.03937007874016
147
20.0
171
     3
172
     1
271
     0
272
     0
274
     3
279
     1
284
     8
340
1C
  0
DIMSTYLE
105
2E
330
28
100
AcDbSymbolTableRecord
100
AcDbDimStyleTableRecord
  2
Arial
 70
     0
 40
0.7
 41
20.0
 42
0.0
 43
3.75
 44
10.0
 73
     0
 78
     8
140
30.0
141
0.0
143
0.03937007874016
147
20.0
171
     3
172
     1
271
     0
272
     0
274
     3
279
     1
284
     8
340
2F
  0
DIMSTYLE
105
2C
330
28
100
AcDbSymbolTableRecord
100
AcDbDimStyleTableRecord
  2
TXT
 70
     0
 40
0.7
 41
20.0
 42
0.0
 43
3.75
 44
10.0
 73
     0
 78
     8
140
30.0
141
0.0
143
0.03937007874016
147
20.0
171
     3
172
     1
271
     0
272
     0
274
     3
279
     1
284
     8
340
2D
  0
DIMSTYLE
105
2A
330
28
100
AcDbSymbolTableRecord
100
AcDbDimStyleTableRecord
  2
新标注1比10 无框
 70
     0
 40
0.6
 41
20.0
 42
5.0
 43
3.75
 44
5.0
 73
     0
 78
     8
140
30.0
141
5.0
143
0.03937007874016
147
20.0
171
     3
172
     1
176
   256
177
   256
271
     0
272
     0
274
     3
279
     1
284
     8
340
2B
  0
ENDTAB
  0
TABLE
  2
BLOCK_RECORD
  5
1
330
0
100
AcDbSymbolTable
 70
     0
  0
BLOCK_RECORD
  5
2
102
{ACAD_XDICTIONARY
360
3
102
}
330
1
100
AcDbSymbolTableRecord
100
AcDbBlockTableRecord
  2
*Model_Space
340
E
  0
BLOCK_RECORD
  5
11
330
1
100
AcDbSymbolTableRecord
100
AcDbBlockTableRecord
  2
*Paper_Space
340
14
  0
ENDTAB
  0
ENDSEC
  0
SECTION
  2
BLOCKS
  0
BLOCK
  5
5
330
2
100
AcDbEntity
  8
0
100
AcDbBlockBegin
  2
*Model_Space
 70
     0
 10
0.0
 20
0.0
 30
0.0
  3
*Model_Space
  1

  0
ENDBLK
  5
D
330
2
100
AcDbEntity
  8
0
100
AcDbBlockEnd
  0
BLOCK
  5
12
330
11
100
AcDbEntity
 67
     1
  8
0
100
AcDbBlockBegin
  2
*Paper_Space
 70
     0
 10
0.0
 20
0.0
 30
0.0
  3
*Paper_Space
  1

  0
ENDBLK
  5
13
330
11
100
AcDbEntity
 67
     1
  8
0
100
AcDbBlockEnd
  0
ENDSEC
  0
SECTION
  2
ENTITIES
  0
LINE
  5
3E
330
2
100
AcDbEntity
  8
0
  6
Continuous
 62
     7
100
AcDbLine
 10
29827.44508910931
 20
666.7997564752927
 30
0.0
 11
29827.44508910931
 21
672.7997564752927
 31
0.0
  0
LINE
  5
40
330
2
100
AcDbEntity
  8
0
  6
Continuous
 62
     7
100
AcDbLine
 10
30079.94508910931
 20
476.7997564752927
 30
0.0
 11
30004.94508910931
 21
476.7997564752927
 31
0.0
  0
LWPOLYLINE
  5
41
330
2
100
AcDbEntity
  8
0
  6
Continuous
 62
     7
100
AcDbPolyline
 90
       26
 70
     0
 43
0.0
 10
29993.72694085121
 20
512.3813967561927
 10
29981.69122261101
 20
512.6447804903928
 10
29969.57335414521
 20
513.1440753487927
 10
29957.49296802421
 20
513.9636201013932
 10
29945.57851445441
 20
515.2214916988928
 10
29933.93238102391
 20
517.0145788793929
 10
29922.66402017561
 20
519.4910616843926
 10
29911.98927041861
 20
522.7913394385928
 10
29902.54211101721
 20
526.8172826922928
 10
29894.78779105371
 20
531.2095088630926
 10
29888.495725778
 20
535.7948100657927
 10
29883.23916698831
 20
540.5757533337927
 10
29878.61997132231
 20
545.708970778493
 10
29874.46050775331
 20
551.3770177808928
 10
29870.81619653821
 20
557.4470064795928
 10
29867.68465176801
 20
563.7586186191929
 10
29865.02612290721
 20
570.1650415021926
 10
29862.7243593657
 20
576.7357378224928
 10
29860.63134348431
 20
583.7275159273927
 10
29858.64868566691
 20
591.4355426026927
 10
29856.71953470371
 20
600.1200171727928
 10
29854.81528884431
 20
609.9361731394928
 10
29852.91264500411
 20
620.9722067606926
 10
29851.03649381201
 20
632.8554580345926
 10
29849.25909411071
 20
644.9511819387926
 10
29847.69635973351
 20
656.5605600308927
  0
LINE
  5
45
330
2
100
AcDbEntity
  8
0
  6
Continuous
 62
     7
100
AcDbLine
 10
30003.5769353557
 20
502.9056852577928
 30
0.0
 11
30004.94508910931
 21
476.7997564752927
 31
0.0
  0
LINE
  5
48
330
2
100
AcDbEntity
  8
0
  6
Continuous
 62
     7
100
AcDbLine
 10
30081.31324283571
 20
502.9056847382926
 30
0.0
 11
30079.94508910931
 21
476.7997564752927
 31
0.0
  0
LINE
  5
4A
330
2
100
AcDbEntity
  8
0
  6
Continuous
 62
     7
100
AcDbLine
 10
29832.44466919721
 20
661.7997564752926
 30
0.0
 11
29841.74478773511
 21
661.7997564752926
 31
0.0
  0
LINE
  5
4B
330
2
100
AcDbEntity
  8
0
  6
Continuous
 62
     7
100
AcDbLine
 10
30243.14538983051
 20
661.7997564752926
 30
0.0
 11
30252.44550902141
 21
661.7997564752926
 31
0.0
  0
LINE
  5
4E
330
2
100
AcDbEntity
  8
0
  6
Continuous
 62
     7
100
AcDbLine
 10
29831.44388545641
 20
676.7997564752927
 30
0.0
 11
29848.3818109302
 21
676.7997564752927
 31
0.0
  0
LINE
  5
4F
330
2
100
AcDbEntity
  8
0
  6
Continuous
 62
     7
100
AcDbLine
 10
29831.44388545651
 20
676.7997564752927
 30
0.0
 11
30253.44629276211
 21
676.7997564752927
 31
0.0
  0
LINE
  5
50
330
2
100
AcDbEntity
  8
0
  6
Continuous
 62
     7
100
AcDbLine
 10
30236.5625026109
 20
676.7997564752927
 30
0.0
 11
30253.44629276211
 21
676.7997564752927
 31
0.0
  0
LWPOLYLINE
  5
51
330
2
100
AcDbEntity
  8
0
  6
Continuous
 62
     7
100
AcDbPolyline
 90
       26
 70
     0
 43
0.0
 10
30237.19381848831
 20
656.5605600556928
 10
30235.63323964881
 20
644.9664697929924
 10
30233.87081455501
 20
632.9677571057928
 10
30232.00589473081
 20
621.1452467090926
 10
30230.09247562581
 20
610.0327582571926
 10
30228.14281680111
 20
599.986002987493
 10
30226.14640147121
 20
591.0385431134927
 10
30224.09507664881
 20
583.1412733604925
 10
30221.9403534164
 20
576.0433414988929
 10
30219.58075786161
 20
569.4273261591929
 10
30216.86824882911
 20
563.0208515072927
 10
30213.69486154671
 20
556.7579029119928
 10
30210.01208444271
 20
550.753095124593
 10
30205.81375269261
 20
545.1541344113925
 10
30201.14009992981
 20
540.066581861793
 10
30195.79093442551
 20
535.3055548080929
 10
30189.39020962851
 20
530.7550626792926
 10
30181.55523579591
 20
526.4298592803929
 10
30172.13402607301
 20
522.5150516700928
 10
30161.61854639821
 20
519.3344983131928
 10
30150.58413045081
 20
516.9464409475927
 10
30139.14574533261
 20
515.2003107388927
 10
30127.32810612951
 20
513.9577568618928
 10
30115.25730118841
 20
513.1409428231927
 10
30103.13572463981
 20
512.6428354060927
 10
30091.16323714201
 20
512.3813967530927
  0
LINE
  5
52
330
2
100
AcDbEntity
  8
0
  6
Continuous
 62
     7
100
AcDbLine
 10
30257.44508910931
 20
666.7997564752927
 30
0.0
 11
30257.44508910931
 21
672.7997564752927
 31
0.0
  0
LWPOLYLINE
  5
53
330
2
100
AcDbEntity
  8
0
  6
Continuous
 62
     7
100
AcDbPolyline
 90
       44
 70
     0
 43
0.0
 10
30087.44508910931
 20
320.5847691016938
 10
30097.59014649441
 20
319.4877587713049
 10
30108.1785186068
 20
318.0510222502053
 10
30118.66462951381
 20
316.3259323788052
 10
30128.90604766941
 20
314.3365701776052
 10
30139.54103484031
 20
311.908932840005
 10
30151.34723344611
 20
308.6904979392052
 10
30164.37922601871
 20
304.3398270112052
 10
30178.57838317761
 20
298.349631743105
 10
30193.77282716851
 20
289.8935924513048
 10
30207.56656527681
 20
279.3438665554054
 10
30218.8576163587
 20
267.1747779137054
 10
30228.97353633981
 20
251.8716938431048
 10
30237.8688031509
 20
232.9297809066052
 10
30245.2800071601
 20
210.3060731660048
 10
30250.63453936591
 20
186.6236466520054
 10
30253.98161818081
 20
165.3600098698052
 10
30255.92697891591
 20
146.7721394300051
 10
30256.95891034571
 20
130.2980469031049
 10
30257.39397351761
 20
115.1495437835051
 10
30257.39891584811
 20
100.474623847705
 10
30256.97854301191
 20
85.40527684150537
 10
30255.97593366251
 20
69.08821272100522
 10
30254.0908425696
 20
50.75336652230499
 10
30250.88141185721
 20
29.9639585289051
 10
30245.79501825751
 20
6.880983012605156
 10
30238.63660698491
 20
-15.69081625049466
 10
30229.92328807111
 20
-34.88787126329453
 10
30219.93645200291
 20
-50.51879326119479
 10
30208.81554939301
 20
-62.93585151219486
 10
30195.26436918811
 20
-73.65583587479477
 10
30179.7807044194
 20
-82.51281236369459
 10
30165.08320830921
 20
-88.82120239239474
 10
30151.68458422281
 20
-93.33381798379468
 10
30139.62198208581
 20
-96.63342074899492
 10
30128.85595004111
 20
-99.091642038195
 10
30118.5837282739
 20
-101.0849858184947
 10
30108.1053318021
 20
-102.8065490663948
 10
30097.5245171397
 20
-104.2402966674949
 10
30086.96783816001
 20
-105.3801028896946
 10
30076.32685203001
 20
-106.2511373878947
 10
30065.45704007831
 20
-106.870837560295
 10
30054.21335712951
 20
-107.2454909836947
 10
30042.44508910931
 20
-107.3722797148948
  0
LWPOLYLINE
  5
54
330
2
100
AcDbEntity
  8
0
  6
Continuous
 62
     7
100
AcDbPolyline
 90
       76
 70
     0
 43
0.0
 10
30042.44508909461
 20
311.8093700840049
 10
30030.86679100451
 20
311.6840247897048
 10
30020.68645721061
 20
311.352769266005
 10
30011.20166963251
 20
310.8409789003049
 10
30001.77132047051
 20
310.123208751605
 10
29992.20592561741
 20
309.1694143703048
 10
29982.67547198011
 20
307.9796281768054
 10
29973.2173024727
 20
306.5508753060053
 10
29963.79336650221
 20
304.871384323505
 10
29954.38924993271
 20
302.920544713405
 10
29945.0284941604
 20
300.6611169316052
 10
29935.84944674341
 20
298.0826112894051
 10
29926.93423614031
 20
295.160234925605
 10
29918.23475593421
 20
291.8233279942051
 10
29910.45011895301
 20
288.3345003736053
 10
29903.9258395069
 20
284.959375375005
 10
29898.19171573791
 20
281.5756808571054
 10
29892.46802052311
 20
277.7120488461055
 10
29886.8823738542
 20
273.3397332665054
 10
29881.7230711533
 20
268.6048481445055
 10
29877.1932997241
 20
263.7282070370052
 10
29872.86660774151
 20
258.2966125835051
 10
29868.52161150171
 20
251.9203739876052
 10
29864.26801114341
 20
244.5941667643051
 10
29860.10832531971
 20
236.1313456125049
 10
29856.11325543981
 20
226.4323272950051
 10
29852.56392723611
 20
216.084972432705
 10
29849.72361284311
 20
206.2283600761052
 10
29847.42315624861
 20
196.8761361803049
 10
29845.43903977521
 20
187.5158125029052
 10
29843.72188677181
 20
178.0755778454054
 10
29842.26127657451
 20
168.6025816152055
 10
29841.0445123771
 20
159.1064785276053
 10
29840.06421412161
 20
149.5880670813053
 10
29839.31211711021
 20
140.0493985319049
 10
29838.77283449251
 20
130.4961074708053
 10
29838.42922761231
 20
120.939718678705
 10
29838.26799729321
 20
111.3869893529049
 10
29838.28713289121
 20
101.8351140935051
 10
29838.48674931971
 20
92.28188941750477
 10
29838.87042577761
 20
82.72943463140519
 10
29839.4531686324
 20
73.18346029980512
 10
29840.25231971551
 20
63.65089604500508
 10
29841.28139648721
 20
54.14351856310486
 10
29842.54676478081
 20
44.66769187950513
 10
29844.06090420581
 20
35.19238163730506
 10
29845.8395625806
 20
25.73308491190483
 10
29847.86524843811
 20
16.46902562240529
 10
29850.18414735931
 20
7.315012411504994
 10
29853.06433189121
 20
-2.407425570094801
 10
29856.7046341337
 20
-12.72871197149516
 10
29860.9282936667
 20
-22.66184678699483
 10
29865.27265717931
 20
-31.178575872495
 10
29869.61119551761
 20
-38.36029865009505
 10
29873.99899133931
 20
-44.54499500389511
 10
29878.32428955701
 20
-49.76139891079492
 10
29882.9746898556
 20
-54.56989626619497
 10
29888.22244938761
 20
-59.19699940399505
 10
29893.84963436711
 20
-63.4403593648949
 10
29899.54829652381
 20
-67.16062114159467
 10
29905.30176922501
 20
-70.45437131569497
 10
29911.81759333671
 20
-73.73114831229486
 10
29919.30551717981
 20
-77.00836580049463
 10
29927.48992515261
 20
-80.10056837339517
 10
29936.0601220113
 20
-82.89076824969516
 10
29945.15848961611
 20
-85.43944128299472
 10
29954.57582521321
 20
-87.70689927539478
 10
29964.00595392751
 20
-89.65694362379464
 10
29973.42428339681
 20
-91.32924965929488
 10
29982.88100523181
 20
-92.75233123319457
 10
29992.41413442521
 20
-93.93728997729477
 10
30001.98347222121
 20
-94.88635411389486
 10
30011.41349384641
 20
-95.59922877419467
 10
30020.87191581951
 20
-96.10532761029526
 10
30030.97949612811
 20
-96.43105767499491
 10
30042.44508912401
 20
-96.55392952929515
  0
LWPOLYLINE
  5
55
330
2
100
AcDbEntity
  8
0
  6
Continuous
 62
     7
100
AcDbPolyline
 90
       50
 70
     0
 43
0.0
 10
29857.9127656593
 20
107.6277202851051
 10
29858.05406452081
 20
95.76668870030472
 10
29858.42889532741
 20
85.30916798330554
 10
29858.97941453801
 20
75.97900352570514
 10
29859.66907022801
 20
67.51136120170531
 10
29860.48234681771
 20
59.64043847220501
 10
29861.42350848891
 20
52.10416302070507
 10
29862.5126392117
 20
44.68010076930522
 10
29863.76773288541
 20
37.26554609930508
 10
29865.1955519475
 20
29.86048843120534
 10
29866.76802751171
 20
22.64308629510515
 10
29868.46460103831
 20
15.74690184180554
 10
29870.28382165471
 20
9.182864968005105
 10
29872.22486606631
 20
2.954424594504871
 10
29874.28694981351
 20
-2.936329753395057
 10
29876.44995226881
 20
-8.452979304294785
 10
29878.63927403291
 20
-13.4530915441951
 10
29880.75974480751
 20
-17.80830850229495
 10
29882.77848049231
 20
-21.56609210059514
 10
29884.7468728689
 20
-24.91050817939504
 10
29886.73882205961
 20
-28.0089381561952
 10
29888.80820186891
 20
-30.95154131949448
 10
29890.89216295171
 20
-33.65610056239484
 10
29892.9258184677
 20
-36.0669106409946
 10
29894.9402110767
 20
-38.25089317699485
 10
29896.99954463491
 20
-40.29113891449469
 10
29899.19784621551
 20
-42.28296577829451
 10
29901.63613699241
 20
-44.30519994339511
 10
29904.35116544671
 20
-46.36373817799494
 10
29907.28790463561
 20
-48.39852982309503
 10
29910.44521012581
 20
-50.39930968239469
 10
29913.92326333861
 20
-52.41405987819462
 10
29917.83817652491
 20
-54.47835851099489
 10
29922.29082920971
 20
-56.60224521999499
 10
29927.24204105691
 20
-58.72800224699449
 10
29932.58750397561
 20
-60.790503226895
 10
29938.2545474212
 20
-62.75126915769488
 10
29944.26641727901
 20
-64.61158941249505
 10
29950.65672561421
 20
-66.37688937879466
 10
29957.45655265751
 20
-68.04841486539453
 10
29964.67055764111
 20
-69.62030725349496
 10
29972.11019534851
 20
-71.05459765019486
 10
29979.54764764521
 20
-72.31271950599467
 10
29986.94669072261
 20
-73.39736984619458
 10
29994.38409262481
 20
-74.32667849129439
 10
30002.12938128241
 20
-75.1298119498947
 10
30010.49401455351
 20
-75.81646708279504
 10
30019.79212788531
 20
-76.37226656079474
 10
30030.3370490025
 20
-76.75718583649495
 10
30042.44508910931
 20
-76.90460316479448
  0
LWPOLYLINE
  5
56
330
2
100
AcDbEntity
  8
0
  6
Continuous
 62
     7
100
AcDbPolyline
 90
       74
 70
     0
 43
0.0
 10
30042.44508910741
 20
303.4460708055053
 10
30049.84730108311
 20
303.3947664490056
 10
30057.52333763201
 20
303.2277351560051
 10
30065.50247549231
 20
302.9224414612054
 10
30073.81184079931
 20
302.4517420315055
 10
30082.44545237131
 20
301.7870532714055
 10
30091.21347916431
 20
300.9183612464053
 10
30099.90689389691
 20
299.8535364174054
 10
30108.54190179081
 20
298.5861013486051
 10
30117.16633981871
 20
297.1030396280053
 10
30125.73914138761
 20
295.3981530792053
 10
30134.23033914681
 20
293.4530134660049
 10
30142.6755918347
 20
291.2270845390053
 10
30151.0586585997
 20
288.672818885605
 10
30159.28018987131
 20
285.7614952108051
 10
30167.30013275011
 20
282.4351791407048
 10
30175.14296215901
 20
278.6002352164055
 10
30182.7484986
 20
274.1791351051052
 10
30189.97050510961
 20
269.0981657909055
 10
30196.64190707371
 20
263.292048818505
 10
30202.62424206201
 20
256.7691113445048
 10
30207.88042074141
 20
249.6451172649054
 10
30212.4591670391
 20
242.0931200876053
 10
30216.41999640111
 20
234.3007271400052
 10
30219.83347782051
 20
226.3746319552051
 10
30222.81195969881
 20
218.2705543715051
 10
30225.43267894931
 20
209.9791617480055
 10
30227.7249911557
 20
201.592873334805
 10
30229.7308783691
 20
193.1488245762052
 10
30231.49519132691
 20
184.6038022143052
 10
30233.03195391281
 20
176.0135486035051
 10
30234.3402035266
 20
167.4957636131052
 10
30235.46060377471
 20
158.8208251833052
 10
30236.43361325091
 20
149.5249254002051
 10
30237.25889684611
 20
139.1355523130055
 10
30237.88153153491
 20
127.3953110295051
 10
30238.21698647151
 20
114.6532876033052
 10
30238.22676244471
 20
101.3726466707053
 10
30237.89382806831
 20
88.17133466020505
 10
30237.24055315991
 20
75.84628268130519
 10
30236.36932384691
 20
65.04181536060468
 10
30235.35169574421
 20
55.51484366140494
 10
30234.1924413513
 20
46.72526411720491
 10
30232.8469378465
 20
38.13804266700527
 10
30231.2758455006
 20
29.52003310910504
 10
30229.47625245021
 20
20.96766986680496
 10
30227.42718060541
 20
12.503413975905
 10
30225.07748489601
 20
4.079145941205297
 10
30222.3853127781
 20
-4.255605739094789
 10
30219.3162044171
 20
-12.40566885869475
 10
30215.80153882391
 20
-20.35137411589494
 10
30211.75342239611
 20
-28.09562981129466
 10
30207.05359191521
 20
-35.61062814649495
 10
30201.61486583891
 20
-42.72151995979448
 10
30195.65224785431
 20
-48.98400174279505
 10
30189.44578931931
 20
-54.24827801779475
 10
30182.98500377681
 20
-58.77265053079509
 10
30176.13666143081
 20
-62.81061436699474
 10
30168.69998263151
 20
-66.54140278509476
 10
30160.63618295381
 20
-69.98026853229475
 10
30152.30058984331
 20
-73.00550468989468
 10
30143.9400775643
 20
-75.61006772649489
 10
30135.5438713087
 20
-77.87173860389476
 10
30127.08741514711
 20
-79.85173239999494
 10
30118.55952198151
 20
-81.58673254689484
 10
30109.97096718441
 20
-83.10016116919497
 10
30101.34168712181
 20
-84.40224715329486
 10
30092.67339418311
 20
-85.49856283539474
 10
30083.96440592651
 20
-86.39539619349443
 10
30075.25801042071
 20
-87.09770832249478
 10
30066.62661890471
 20
-87.61266004159461
 10
30058.19066725921
 20
-87.95201842819507
 10
30050.08385300311
 20
-88.13594046759453
 10
30042.44508911121
 20
-88.19063021369492
  0
LWPOLYLINE
  5
57
330
2
100
AcDbEntity
  8
0
  6
Continuous
 62
     7
100
AcDbPolyline
 90
       51
 70
     0
 43
0.0
 10
30042.44508910931
 20
292.1600437351049
 10
30029.9631931885
 20
292.0032078190052
 10
30019.18585112421
 20
291.5978326596055
 10
30009.7599604997
 20
291.0189093560052
 10
30001.3394095475
 20
290.3108361498052
 10
29993.5773660953
 20
289.4889221543053
 10
29986.13144419481
 20
288.541249991305
 10
29978.73062664241
 20
287.438309136005
 10
29971.31561345861
 20
286.1653742971053
 10
29963.92465851761
 20
284.7219042652055
 10
29956.72825104601
 20
283.1341559708053
 10
29949.8474543226
 20
281.4197488251052
 10
29943.29701725021
 20
279.5809836240055
 10
29937.08493573511
 20
277.619517440105
 10
29931.2154173976
 20
275.5374525446054
 10
29925.72331240121
 20
273.3552427669051
 10
29920.73761403071
 20
271.1415541400052
 10
29916.37560092641
 20
268.9858492699054
 10
29912.6031787272
 20
266.9262888319049
 10
29909.27549620831
 20
264.9340759155052
 10
29906.25748932441
 20
262.9606352682054
 10
29903.47180682351
 20
260.9726266387056
 10
29900.9733480153
 20
259.028501673105
 10
29898.80122251181
 20
257.1917453427054
 10
29896.88010263581
 20
255.4331593096053
 10
29895.11413339031
 20
253.6859156492051
 10
29893.40879112661
 20
251.863849237805
 10
29891.67954230821
 20
249.8706210821051
 10
29889.86091555631
 20
247.604143773005
 10
29887.95876226951
 20
245.0314760463048
 10
29886.02044899821
 20
242.178377340605
 10
29884.05988295081
 20
239.0321235462057
 10
29882.05772285191
 20
235.5201986044053
 10
29880.00231209481
 20
231.5590079282051
 10
29877.89989605751
 20
227.0806561919048
 10
29875.80507733671
 20
222.1273876650053
 10
29873.77480651471
 20
216.7910452156052
 10
29871.84240066071
 20
211.1303502738051
 10
29870.00680210411
 20
205.1217550268052
 10
29868.26342868091
 20
198.733150056305
 10
29866.61170455811
 20
191.9332233669051
 10
29865.0579925734
 20
184.7200572499055
 10
29863.6426825027
 20
177.294305749705
 10
29862.40355145211
 20
169.8795329896052
 10
29861.3331113027
 20
162.480413082505
 10
29860.41232724461
 20
154.997150721605
 10
29859.61895229411
 20
147.1986033859052
 10
29858.94783937601
 20
138.8249903365053
 10
29858.41315336001
 20
129.6140656669054
 10
29858.04963054961
 20
119.304405198905
 10
29857.9127656593
 20
107.6277202851051
  0
LWPOLYLINE
  5
58
330
2
100
AcDbEntity
  8
02___PRT_ALL_AXES
  6
Continuous
 62
     7
100
AcDbPolyline
 90
        7
 70
     0
 43
0.0
 10
30042.44508910931
 20
289.8479964792055
 10
30039.48432570881
 20
289.7862058826054
 10
30036.711647107
 20
289.6043699225052
 10
30034.3215683736
 20
289.3155449161054
 10
30032.48362161261
 20
288.9422792833052
 10
30031.32841545191
 20
288.5136873163051
 10
30030.94508910941
 20
288.0745292013048
  0
LWPOLYLINE
  5
5A
330
2
100
AcDbEntity
  8
02___PRT_ALL_AXES
  6
Continuous
 62
     7
100
AcDbPolyline
 90
        7
 70
     0
 43
0.0
 10
30042.44508910931
 20
286.499121510205
 10
30045.4152448017
 20
286.5485027859054
 10
30048.17902379341
 20
286.6945924485049
 10
30050.5498834243
 20
286.9315390809056
 10
30052.3709540591
 20
287.2487761811053
 10
30053.53398163181
 20
287.6341556979051
 10
30053.9450891084
 20
288.0745073022049
  0
LWPOLYLINE
  5
5B
330
2
100
AcDbEntity
  8
02___PRT_ALL_AXES
  6
Continuous
 62
     7
100
AcDbPolyline
 90
        7
 70
     0
 43
0.0
 10
30030.94508910941
 20
288.0745292013048
 10
30031.35665340541
 20
287.6339196614049
 10
30032.52067001821
 20
287.2484373799052
 10
30034.34320614621
 20
286.9311554782048
 10
30036.71727896581
 20
286.6941378914053
 10
30039.47737602241
 20
286.5484199520052
 10
30042.44508910931
 20
286.499121510205
  0
LWPOLYLINE
  5
5C
330
2
100
AcDbEntity
  8
02___PRT_ALL_AXES
  6
Continuous
 62
     7
100
AcDbPolyline
 90
        7
 70
     0
 43
0.0
 10
30053.9450891084
 20
288.0745073022049
 10
30053.56216186851
 20
288.5134594513051
 10
30052.40989931391
 20
288.9413824831049
 10
30050.57188205161
 20
289.3150315802054
 10
30048.18419424231
 20
289.6038528579051
 10
30045.40992602521
 20
289.7860328223051
 10
30042.44508910931
 20
289.8479964792055
  0
LWPOLYLINE
  5
5D
330
2
100
AcDbEntity
  8
0
  6
Continuous
 62
     7
100
AcDbPolyline
 90
       50
 70
     0
 43
0.0
 10
30226.97741255931
 20
107.6277202851051
 10
30226.83611369781
 20
119.4887518699051
 10
30226.46128289121
 20
129.9462725869048
 10
30225.91076368061
 20
139.2764370445052
 10
30225.2211079906
 20
147.744079368505
 10
30224.40783140091
 20
155.6150020981049
 10
30223.46666972971
 20
163.1512775495052
 10
30222.37753900691
 20
170.5753398010051
 10
30221.12244533321
 20
177.9898944709052
 10
30219.69462627111
 20
185.394952139105
 10
30218.12215070691
 20
192.6123542751052
 10
30216.42557718031
 20
199.5085387284052
 10
30214.6063565639
 20
206.0725756022052
 10
30212.66531215231
 20
212.3010159758055
 10
30210.60322840511
 20
218.1917703236054
 10
30208.44022594981
 20
223.7084198746052
 10
30206.25090418571
 20
228.7085321145055
 10
30204.13043341111
 20
233.0637490725053
 10
30202.11169772631
 20
236.8215326708055
 10
30200.14330534971
 20
240.1659487496054
 10
30198.15135615901
 20
243.2643787265056
 10
30196.08197634971
 20
246.2069818898048
 10
30193.99801526691
 20
248.9115411327052
 10
30191.96435975091
 20
251.322351211305
 10
30189.94996714191
 20
253.5063337472052
 10
30187.8906335837
 20
255.546579484705
 10
30185.69233200311
 20
257.5384063486049
 10
30183.25404122621
 20
259.5606405137055
 10
30180.539012772
 20
261.6191787482053
 10
30177.60227358301
 20
263.6539703933054
 10
30174.44496809281
 20
265.654750252605
 10
30170.96691488001
 20
267.6695004484054
 10
30167.0520016937
 20
269.7337990812052
 10
30162.59934900891
 20
271.8576857902053
 10
30157.64813716181
 20
273.9834428172049
 10
30152.30267424301
 20
276.0459437971054
 10
30146.63563079741
 20
278.0067097279052
 10
30140.62376093971
 20
279.867029982805
 10
30134.23345260451
 20
281.6323299490055
 10
30127.43362556121
 20
283.3038554356049
 10
30120.21962057751
 20
284.8757478237053
 10
30112.77998287021
 20
286.3100382204052
 10
30105.34253057351
 20
287.568160076205
 10
30097.94348749601
 20
288.652810416505
 10
30090.50608559381
 20
289.5821190616048
 10
30082.76079693621
 20
290.3852525202051
 10
30074.39616366511
 20
291.071907653105
 10
30065.0980503333
 20
291.6277071311051
 10
30054.55312921611
 20
292.0126264067053
 10
30042.44508910931
 20
292.1600437351049
  0
LWPOLYLINE
  5
5E
330
2
100
AcDbEntity
  8
0
  6
Continuous
 62
     7
100
AcDbPolyline
 90
       51
 70
     0
 43
0.0
 10
30042.44508910931
 20
-76.90460316479448
 10
30054.92698503011
 20
-76.7477672486948
 10
30065.70432709441
 20
-76.34239208939516
 10
30075.13021771891
 20
-75.76346878569484
 10
30083.55076867111
 20
-75.05539557959491
 10
30091.31281212331
 20
-74.23348158409453
 10
30098.75873402381
 20
-73.28580942099461
 10
30106.15955157621
 20
-72.18286856579471
 10
30113.57456476001
 20
-70.90993372679486
 10
30120.96551970101
 20
-69.46646369489508
 10
30128.16192717271
 20
-67.87871540049491
 10
30135.042723896
 20
-66.16430825479483
 10
30141.5931609684
 20
-64.32554305379472
 10
30147.80524248361
 20
-62.36407686989469
 10
30153.6747608211
 20
-60.28201197429507
 10
30159.1668658175
 20
-58.09980219659474
 10
30164.15256418801
 20
-55.88611356969477
 10
30168.51457729221
 20
-53.73040869959504
 10
30172.28699949141
 20
-51.67084826159452
 10
30175.61468201041
 20
-49.67863534519484
 10
30178.63268889421
 20
-47.70519469799501
 10
30181.41837139511
 20
-45.71718606849481
 10
30183.91683020331
 20
-43.77306110279505
 10
30186.08895570681
 20
-41.93630477239503
 10
30188.01007558281
 20
-40.17771873929496
 10
30189.77604482831
 20
-38.43047507889469
 10
30191.481387092
 20
-36.60840866759509
 10
30193.21063591041
 20
-34.61518051179473
 10
30195.0292626623
 20
-32.34870320279469
 10
30196.93141594911
 20
-29.77603547609488
 10
30198.86972922031
 20
-26.9229367703947
 10
30200.83029526781
 20
-23.77668297599439
 10
30202.83245536671
 20
-20.26475803409494
 10
30204.88786612381
 20
-16.30356735789473
 10
30206.99028216111
 20
-11.8252156216945
 10
30209.08510088181
 20
-6.871947094794904
 10
30211.11537170391
 20
-1.535604645394869
 10
30213.04777755791
 20
4.125090296405232
 10
30214.88337611451
 20
10.13368554340513
 10
30216.62674953771
 20
16.52229051390486
 10
30218.27847366051
 20
23.32221720330517
 10
30219.83218564521
 20
30.53538332030484
 10
30221.24749571591
 20
37.96113482050532
 10
30222.48662676651
 20
45.37590758070519
 10
30223.55706691591
 20
52.7750274877053
 10
30224.47785097391
 20
60.25828984860527
 10
30225.27122592451
 20
68.05683718430509
 10
30225.94233884261
 20
76.430450233805
 10
30226.47702485861
 20
85.64137490340499
 10
30226.84054766901
 20
95.95103537140539
 10
30226.97741255931
 20
107.6277202851051
  0
LWPOLYLINE
  5
5F
330
2
100
AcDbEntity
  8
0
  6
Continuous
 62
     7
100
AcDbPolyline
 90
       74
 70
     0
 43
0.0
 10
30042.44508911121
 20
-88.19063023519493
 10
30035.04287713551
 20
-88.13932587869521
 10
30027.3668405866
 20
-87.97229458569473
 10
30019.38770272631
 20
-87.66700089099458
 10
30011.07833741931
 20
-87.19630146119516
 10
30002.44472584731
 20
-86.53161270109512
 10
29993.67669905431
 20
-85.66292067619498
 10
29984.9832843217
 20
-84.59809584709502
 10
29976.34827642781
 20
-83.33066077839475
 10
29967.72383839991
 20
-81.84759905769487
 10
29959.151036831
 20
-80.14271250889487
 10
29950.65983907181
 20
-78.19757289579456
 10
29942.21458638391
 20
-75.97164396869493
 10
29933.83151961891
 20
-73.41737831539467
 10
29925.60998834731
 20
-70.50605464059526
 10
29917.59004546851
 20
-67.17973857039442
 10
29909.7472160597
 20
-63.34479464619517
 10
29902.14167961871
 20
-58.92369453489482
 10
29894.91967310901
 20
-53.84272522069477
 10
29888.24827114491
 20
-48.03660824829467
 10
29882.26593615661
 20
-41.51367077419445
 10
29877.00975747721
 20
-34.38967669459498
 10
29872.43101117951
 20
-26.83767951729488
 10
29868.47018181751
 20
-19.04528656969478
 10
29865.05670039811
 20
-11.11919138499479
 10
29862.0782185198
 20
-3.015113801294774
 10
29859.45749926931
 20
5.276278822204858
 10
29857.16518706291
 20
13.66256723550532
 10
29855.15929984951
 20
22.1066159940051
 10
29853.39498689171
 20
30.65163835600515
 10
29851.85822430571
 20
39.24189196680527
 10
29850.54997469201
 20
47.75967695710505
 10
29849.42957444391
 20
56.43461538690508
 10
29848.45656496771
 20
65.73051517010526
 10
29847.63128137251
 20
76.11988825720482
 10
29847.00864668371
 20
87.86012954070519
 10
29846.67319174711
 20
100.6021529669051
 10
29846.66341577391
 20
113.882793899505
 10
29846.99635015031
 20
127.0841059100053
 10
29847.64962505871
 20
139.4091578890052
 10
29848.52085437171
 20
150.2136252097048
 10
29849.53848247441
 20
159.7405969088054
 10
29850.69773686731
 20
168.5301764530054
 10
29852.04324037211
 20
177.1173979032051
 10
29853.61433271801
 20
185.7354074611053
 10
29855.41392576831
 20
194.2877707034054
 10
29857.46299761321
 20
202.7520265943053
 10
29859.81269332261
 20
211.176294629005
 10
29862.5048654405
 20
219.5110463093056
 10
29865.57397380151
 20
227.6611094289051
 10
29869.08863939471
 20
235.6068146861053
 10
29873.13675582251
 20
243.351070381505
 10
29877.83658630341
 20
250.8660687167053
 10
29883.2753123797
 20
257.9769605300048
 10
29889.23793036431
 20
264.239442313105
 10
29895.44438889931
 20
269.5037185881052
 10
29901.90517444181
 20
274.0280911010054
 10
29908.75351678781
 20
278.0660549372051
 10
29916.19019558711
 20
281.7968433554051
 10
29924.25399526481
 20
285.2357091026052
 10
29932.58958837531
 20
288.260945260105
 10
29940.95010065431
 20
290.8655082968053
 10
29949.34630690981
 20
293.1271791741051
 10
29957.8027630715
 20
295.1071729703049
 10
29966.33065623701
 20
296.8421731171052
 10
29974.91921103411
 20
298.3556017395054
 10
29983.5484910967
 20
299.6576877236052
 10
29992.21678403551
 20
300.7540034057051
 10
30000.92577229211
 20
301.6508367638048
 10
30009.63216779781
 20
302.3531488927051
 10
30018.26355931391
 20
302.868100611905
 10
30026.69951095941
 20
303.2074589984054
 10
30034.8063252155
 20
303.3913810379049
 10
30042.44508910741
 20
303.4460707839053
  0
LWPOLYLINE
  5
60
330
2
100
AcDbEntity
  8
0
  6
Continuous
 62
     7
100
AcDbPolyline
 90
       76
 70
     0
 43
0.0
 10
30042.44508912401
 20
-96.55392951379463
 10
30054.02338721411
 20
-96.42858421949449
 10
30064.20372100801
 20
-96.09732869569462
 10
30073.68850858611
 20
-95.58553833009455
 10
30083.11885774811
 20
-94.86776818139469
 10
30092.6842526012
 20
-93.91397380009449
 10
30102.21470623851
 20
-92.72418760659503
 10
30111.67287574591
 20
-91.29543473569492
 10
30121.09681171641
 20
-89.61594375319464
 10
30130.50092828591
 20
-87.66510414319464
 10
30139.86168405821
 20
-85.4056763612948
 10
30149.0407314752
 20
-82.82717071909473
 10
30157.95594207831
 20
-79.90479435539464
 10
30166.65542228441
 20
-76.56788742389472
 10
30174.44005926561
 20
-73.07905980339501
 10
30180.96433871171
 20
-69.7039348047947
 10
30186.69846248071
 20
-66.32024028689511
 10
30192.42215769551
 20
-62.45660827579513
 10
30198.00780436441
 20
-58.0842926962946
 10
30203.16710706531
 20
-53.34940757419508
 10
30207.69687849451
 20
-48.47276646679484
 10
30212.02357047711
 20
-43.04117201319468
 10
30216.3685667169
 20
-36.66493341729483
 10
30220.62216707521
 20
-29.33872619399472
 10
30224.7818528989
 20
-20.87590504229456
 10
30228.77692277881
 20
-11.17688672469512
 10
30232.32625098251
 20
-0.8295318623945604
 10
30235.1665653755
 20
9.027080494205165
 10
30237.46702197001
 20
18.37930439000501
 10
30239.4511384434
 20
27.73962806740519
 10
30241.16829144681
 20
37.17986272490498
 10
30242.6289016441
 20
46.65285895510487
 10
30243.84566584151
 20
56.14896204270507
 10
30244.8259640969
 20
65.66737348890502
 10
30245.5780611084
 20
75.20604203840548
 10
30246.11734372611
 20
84.75933309940501
 10
30246.46095060631
 20
94.31572189160533
 10
30246.62218092541
 20
103.8684512174054
 10
30246.6030453273
 20
113.4203264768052
 10
30246.40342889891
 20
122.9735511528047
 10
30246.01975244101
 20
132.5260059388051
 10
30245.43700958621
 20
142.0719802705052
 10
30244.6378585031
 20
151.6045445252052
 10
30243.60878173141
 20
161.111922007205
 10
30242.34341343781
 20
170.5877486908052
 10
30240.82927401281
 20
180.0630589330053
 10
30239.05061563801
 20
189.5223556584055
 10
30237.02492978041
 20
198.786414947805
 10
30234.70603085931
 20
207.9404281588054
 10
30231.82584632741
 20
217.6628661403051
 10
30228.18554408491
 20
227.9841525417055
 10
30223.96188455191
 20
237.9172873573052
 10
30219.61752103921
 20
246.4340164428049
 10
30215.27898270101
 20
253.6157392203049
 10
30210.89118687931
 20
259.800435574105
 10
30206.56588866161
 20
265.0168394810048
 10
30201.91548836301
 20
269.8253368365054
 10
30196.66772883101
 20
274.4524399742054
 10
30191.04054385151
 20
278.6957999352053
 10
30185.34188169481
 20
282.4160617118055
 10
30179.5884089936
 20
285.7098118860053
 10
30173.07258488191
 20
288.9865888826053
 10
30165.58466103881
 20
292.263806370805
 10
30157.40025306601
 20
295.3560089437056
 10
30148.83005620731
 20
298.1462088199055
 10
30139.73168860251
 20
300.694881853205
 10
30130.31435300541
 20
302.9623398457052
 10
30120.88422429101
 20
304.912384194105
 10
30111.4658948218
 20
306.5846902296053
 10
30102.00917298681
 20
308.007771803505
 10
30092.47604379341
 20
309.1927305476052
 10
30082.90670599741
 20
310.1417946842052
 10
30073.47668437221
 20
310.8546693445055
 10
30064.01826239911
 20
311.3607681805051
 10
30053.91068209051
 20
311.6864982453048
 10
30042.44508909461
 20
311.809370099505
  0
ARC
  5
61
330
2
100
AcDbEntity
  8
0
  6
Continuous
 62
     7
100
AcDbCircle
 10
30091.29953003461
 20
502.3823256682926
 30
0.0
 40
9.9999983309
100
AcDbArc
 50
90.78091402475147
 51
176.9999957389159
  0
ARC
  5
62
330
2
100
AcDbEntity
  8
0
  6
Continuous
 62
     7
100
AcDbCircle
 10
29993.59064848921
 20
502.3823256668925
 30
0.0
 40
9.9999982686
100
AcDbArc
 50
3.0000043589084
 51
89.2190877240211
  0
ARC
  5
63
330
2
100
AcDbEntity
  8
0
  6
Continuous
 62
     7
100
AcDbCircle
 10
29841.7447877726
 20
655.7997564752927
 30
0.0
 40
6.000000041699999
100
AcDbArc
 50
7.284747213429068
 51
89.99997304088816
  0
ARC
  5
66
330
2
100
AcDbEntity
  8
0
  6
Continuous
 62
     7
100
AcDbCircle
 10
30243.14538930931
 20
655.7997564752927
 30
0.0
 40
5.999999987
100
AcDbArc
 50
90.00001610455553
 51
172.7152514101895
  0
ARC
  5
6A
330
2
100
AcDbEntity
  8
0
  6
Continuous
 62
     7
100
AcDbCircle
 10
30252.4455090209
 20
666.7997564752927
 30
0.0
 40
5.0
100
AcDbArc
 50
270.0000000129234
 51
0.0
  0
ARC
  5
6B
330
2
100
AcDbEntity
  8
0
  6
Continuous
 62
     7
100
AcDbCircle
 10
29832.44466919771
 20
666.7997564752927
 30
0.0
 40
5.0
100
AcDbArc
 50
180.0
 51
269.9999999870767
  0
ARC
  5
6F
330
2
100
AcDbEntity
  8
0
  6
Continuous
 62
     7
100
AcDbCircle
 10
30253.44629276211
 20
672.7997564752927
 30
0.0
 40
4.0
100
AcDbArc
 50
0.0
 51
89.99999999895779
  0
ARC
  5
73
330
2
100
AcDbEntity
  8
0
  6
Continuous
 62
     7
100
AcDbCircle
 10
29831.44388545651
 20
672.7997564752927
 30
0.0
 40
4.0
100
AcDbArc
 50
90.0000000010422
 51
180.0
  0
CIRCLE
  5
77
330
2
100
AcDbEntity
  8
0
  6
Continuous
 62
     7
100
AcDbCircle
 10
30042.44508910931
 20
107.6277202851051
 30
0.0
 40
34.0
  0
CIRCLE
  5
78
330
2
100
AcDbEntity
  8
0
  6
Continuous
 62
     7
100
AcDbCircle
 10
30042.44508910931
 20
107.6277202851051
 30
0.0
 40
22.25
  0
LWPOLYLINE
  5
79
330
2
100
AcDbEntity
  8
0
  6
Continuous
 62
     7
100
AcDbPolyline
 90
       44
 70
     0
 43
0.0
 10
29997.44508910931
 20
320.5847691016938
 10
29987.30003172421
 20
319.4877587713049
 10
29976.71165961181
 20
318.0510222502053
 10
29966.22554870481
 20
316.3259323788052
 10
29955.98413054921
 20
314.3365701776052
 10
29945.34914337831
 20
311.908932840005
 10
29933.54294477251
 20
308.6904979392052
 10
29920.51095219991
 20
304.3398270112052
 10
29906.31179504101
 20
298.349631743105
 10
29891.11735105011
 20
289.8935924513048
 10
29877.32361294181
 20
279.3438665554054
 10
29866.03256185991
 20
267.1747779137054
 10
29855.91664187881
 20
251.8716938431048
 10
29847.02137506771
 20
232.9297809066052
 10
29839.61017105851
 20
210.3060731660048
 10
29834.25563885271
 20
186.6236466520054
 10
29830.90856003781
 20
165.3600098698052
 10
29828.96319930271
 20
146.7721394300051
 10
29827.93126787291
 20
130.2980469031049
 10
29827.49620470101
 20
115.1495437835051
 10
29827.49126237051
 20
100.474623847705
 10
29827.91163520671
 20
85.40527684150537
 10
29828.91424455611
 20
69.08821272100522
 10
29830.79933564901
 20
50.75336652230499
 10
29834.00876636141
 20
29.9639585289051
 10
29839.09515996111
 20
6.880983012605156
 10
29846.25357123371
 20
-15.69081625049466
 10
29854.96689014751
 20
-34.88787126329453
 10
29864.95372621571
 20
-50.51879326119479
 10
29876.07462882561
 20
-62.93585151219486
 10
29889.62580903051
 20
-73.65583587479477
 10
29905.10947379921
 20
-82.51281236369459
 10
29919.80696990941
 20
-88.82120239239474
 10
29933.20559399581
 20
-93.33381798379468
 10
29945.26819613281
 20
-96.63342074899492
 10
29956.03422817751
 20
-99.091642038195
 10
29966.30644994471
 20
-101.0849858184947
 10
29976.78484641651
 20
-102.8065490663948
 10
29987.36566107891
 20
-104.2402966674949
 10
29997.92234005861
 20
-105.3801028896946
 10
30008.56332618861
 20
-106.2511373878947
 10
30019.43313814031
 20
-106.870837560295
 10
30030.67682108911
 20
-107.2454909836947
 10
30042.44508910931
 20
-107.3722797148948
  0
LINE
  5
7A
330
2
100
AcDbEntity
  8
轮廓线.
100
AcDbLine
 10
29997.44508910931
 20
327.6277202851052
 30
0.0
 11
30087.44508910931
 21
327.6277202851052
 31
0.0
  0
LINE
  5
7B
330
2
100
AcDbEntity
  8
轮廓线.
100
AcDbLine
 10
30087.44508910931
 20
327.6277202851052
 30
0.0
 11
30087.44508910931
 21
320.5847691016938
 31
0.0
  0
LINE
  5
7C
330
2
100
AcDbEntity
  8
轮廓线.
100
AcDbLine
 10
29997.44508910931
 20
327.6277202851052
 30
0.0
 11
29997.44508910931
 21
320.5847691016938
 31
0.0
  0
MTEXT
  5
BE
330
2
100
AcDbEntity
  8
尺寸标注
100
AcDbMText
 10
30048.30605256254
 20
977.4741409514463
 30
0.0
 40
75.0
 41
801.6353349369019
 71
     2
 72
     5
  1
SCALE\P1:1
 73
     1
 44
1.0
  0
LINE
  5
13E
330
2
100
AcDbEntity
  8
0
  6
Continuous
 62
     7
100
AcDbLine
 10
30821.18760268532
 20
672.7997364430148
 30
0.0
 11
30821.18760268532
 21
666.7997364430148
 31
0.0
  0
LWPOLYLINE
  5
13F
330
2
100
AcDbEntity
  8
0
  6
Continuous
 62
     7
100
AcDbPolyline
 90
       18
 70
     0
 43
0.0
 10
30800.93633206012
 20
656.5605399906148
 10
30798.45496829892
 20
638.5809063266151
 10
30795.89489329682
 20
622.0426195494146
 10
30793.20770945222
 20
606.6540547915146
 10
30790.18321605812
 20
592.276558483415
 10
30786.58193572562
 20
578.8723567633151
 10
30782.13830136362
 20
566.489908550915
 10
30776.66183811502
 20
555.3928417342149
 10
30770.09790706132
 20
545.8138091016149
 10
30762.45391296922
 20
537.782148947515
 10
30753.56489772562
 20
531.0294348051147
 10
30743.19906408662
 20
525.4518902090149
 10
30731.36924040562
 20
521.021221613515
 10
30718.27125643852
 20
517.7077287748147
 10
30704.11538565002
 20
515.3596026746145
 10
30688.87346663672
 20
513.7790164922148
 10
30672.49094594992
 20
512.8410707765151
 10
30654.90575291672
 20
512.3813767508149
  0
LINE
  5
140
330
2
100
AcDbEntity
  8
0
  6
Continuous
 62
     7
100
AcDbLine
 10
30643.68760268532
 20
476.7997364430148
 30
0.0
 11
30568.68760268532
 21
476.7997364430148
 31
0.0
  0
LINE
  5
141
330
2
100
AcDbEntity
  8
0
  6
Continuous
 62
     7
100
AcDbLine
 10
30568.62148084982
 20
478.0614162242145
 30
0.0
 11
30576.49787768192
 21
478.0614162242145
 31
0.0
  0
LINE
  5
142
330
2
100
AcDbEntity
  8
0
  6
Continuous
 62
     7
100
AcDbLine
 10
30546.18760268532
 20
482.7997364430148
 30
0.0
 11
30572.55159612092
 21
482.7997364430148
 31
0.0
  0
LWPOLYLINE
  5
143
330
2
100
AcDbEntity
  8
0
  6
Continuous
 62
     7
100
AcDbPolyline
 90
       21
 70
     0
 43
0.0
 10
30572.55178948422
 20
482.7997364430148
 10
30573.36452999792
 20
482.8269902440147
 10
30574.14271532872
 20
482.9026549426148
 10
30574.90726233462
 20
483.0212024921147
 10
30575.66738261822
 20
483.1794386484148
 10
30576.42313257052
 20
483.3743270433151
 10
30577.16873114662
 20
483.6021031848149
 10
30577.89492209522
 20
483.8581052287145
 10
30578.59029994352
 20
484.1367639593145
 10
30579.24190246322
 20
484.4314092393151
 10
30579.83803412052
 20
484.7350925299147
 10
30580.37112323962
 20
485.0420118998149
 10
30580.83744670472
 20
485.3477914188147
 10
30581.23367205062
 20
485.6472477532147
 10
30581.55720452402
 20
485.9333893287148
 10
30581.81117876662
 20
486.2010032072148
 10
30582.00391658382
 20
486.448266430315
 10
30582.14605914522
 20
486.6768128344147
 10
30582.24800134482
 20
486.8916857133149
 10
30582.31713162422
 20
487.0989067062146
 10
30582.35709938692
 20
487.302217847915
  0
LWPOLYLINE
  5
144
330
2
100
AcDbEntity
  8
0
  6
Continuous
 62
     7
100
AcDbPolyline
 90
       20
 70
     0
 43
0.0
 10
30576.49787768192
 20
478.0614162242145
 10
30577.26400636012
 20
478.1051813540147
 10
30578.01371264422
 20
478.2313919092148
 10
30578.76096255592
 20
478.4382005538145
 10
30579.50988363742
 20
478.7256773456147
 10
30580.25637888622
 20
479.0926317837147
 10
30580.99113870742
 20
479.535213404215
 10
30581.70194100252
 20
480.0465412731146
 10
30582.37488500232
 20
480.6163667611149
 10
30582.99525880652
 20
481.2304302473148
 10
30583.55183359782
 20
481.873599247715
 10
30584.03889675402
 20
482.5332149569148
 10
30584.45369884552
 20
483.1974541551148
 10
30584.79219060222
 20
483.846818431115
 10
30585.05623720342
 20
484.4635371218146
 10
30585.25412658282
 20
485.0377742086148
 10
30585.39744348892
 20
485.569286367815
 10
30585.49792305252
 20
486.0680446564146
 10
30585.56409855092
 20
486.5482808215147
 10
30585.60026541532
 20
487.0196086944152
  0
LINE
  5
145
330
2
100
AcDbEntity
  8
0
  6
Continuous
 62
     7
100
AcDbLine
 10
30582.35709915262
 20
487.302217847915
 30
0.0
 11
30546.18760268532
 21
487.302217847915
 31
0.0
  0
LWPOLYLINE
  5
146
330
2
100
AcDbEntity
  8
0
  6
Continuous
 62
     7
100
AcDbPolyline
 90
       16
 70
     0
 43
0.0
 10
30576.86731805072
 20
512.3709525839148
 10
30578.32914098412
 20
512.2508669518147
 10
30579.69081118452
 20
511.9430210086147
 10
30580.93051896042
 20
511.4770778828151
 10
30582.03322499652
 20
510.8849818516146
 10
30582.99048283212
 20
510.199971818115
 10
30583.79816205002
 20
509.4577220023147
 10
30584.46251211032
 20
508.6894843126146
 10
30585.00109593282
 20
507.9125189471151
 10
30585.43430073762
 20
507.1305486294149
 10
30585.77473004382
 20
506.3496895173147
 10
30586.02803602722
 20
505.5905645051147
 10
30586.20444846632
 20
504.8687051724146
 10
30586.31764777772
 20
504.1841447926149
 10
30586.37894133292
 20
503.5305496916148
 10
30586.39615503552
 20
502.897598116615
  0
LWPOLYLINE
  5
147
330
2
100
AcDbEntity
  8
0
  6
Continuous
 62
     7
100
AcDbPolyline
 90
       16
 70
     0
 43
0.0
 10
30576.82658115612
 20
506.968431477615
 10
30577.78262535212
 20
506.9206199222149
 10
30578.68995685452
 20
506.7977189908151
 10
30579.53070733362
 20
506.6115706137147
 10
30580.29085967102
 20
506.374934406615
 10
30580.96025395542
 20
506.1011053490147
 10
30581.53162778692
 20
505.8043379827149
 10
30582.00547675272
 20
505.4971353183145
 10
30582.39126395982
 20
505.1864208108149
 10
30582.70145031842
 20
504.873706637115
 10
30582.94367450582
 20
504.561427739015
 10
30583.12121355412
 20
504.2578046570151
 10
30583.24117161532
 20
503.9690734024147
 10
30583.31344746682
 20
503.6952473727151
 10
30583.34631291812
 20
503.4337979388147
 10
30583.34533818122
 20
503.1806019781152
  0
LINE
  5
148
330
2
100
AcDbEntity
  8
0
  6
Continuous
 62
     7
100
AcDbLine
 10
30552.13219166682
 20
507.3767177436147
 30
0.0
 11
30558.89972155532
 21
507.2045477635147
 31
0.0
  0
LINE
  5
149
330
2
100
AcDbEntity
  8
0
  6
Continuous
 62
     7
100
AcDbLine
 10
30552.30997161182
 20
512.7760178180151
 30
0.0
 11
30559.02805950312
 21
512.6053704587148
 31
0.0
  0
LINE
  5
14A
330
2
100
AcDbEntity
  8
0
  6
Continuous
 62
     7
100
AcDbLine
 10
30558.89972155532
 20
507.2045477635147
 30
0.0
 11
30565.60029473522
 21
507.084505277915
 31
0.0
  0
LINE
  5
14B
330
2
100
AcDbEntity
  8
0
  6
Continuous
 62
     7
100
AcDbLine
 10
30559.02805950312
 20
512.6053704587148
 30
0.0
 11
30565.68799873182
 21
512.4862751949149
 31
0.0
  0
LWPOLYLINE
  5
14C
330
2
100
AcDbEntity
  8
0
  6
Continuous
 62
     7
100
AcDbPolyline
 90
        3
 70
     0
 43
0.0
 10
30565.60029473522
 20
507.084505277915
 10
30572.73057586842
 20
507.0009543051146
 10
30576.82658115612
 20
506.968431477615
  0
LWPOLYLINE
  5
14D
330
2
100
AcDbEntity
  8
0
  6
Continuous
 62
     7
100
AcDbPolyline
 90
        3
 70
     0
 43
0.0
 10
30565.68799873182
 20
512.4862751949149
 10
30572.78544006252
 20
512.4033037702147
 10
30576.86736257542
 20
512.3710223211146
  0
LINE
  5
14E
330
2
100
AcDbEntity
  8
0
  6
Continuous
 62
     7
100
AcDbLine
 10
30576.86736257542
 20
512.3710223211146
 30
0.0
 11
30640.65076488262
 21
512.3694236567148
 31
0.0
  0
LINE
  5
14F
330
2
100
AcDbEntity
  8
0
  6
Continuous
 62
     7
100
AcDbLine
 10
30640.65076488262
 20
512.3694236567148
 30
0.0
 11
30654.90575291672
 21
512.3813767508149
 31
0.0
  0
LINE
  5
150
330
2
100
AcDbEntity
  8
0
  6
Continuous
 62
     7
100
AcDbLine
 10
30643.68760268532
 20
476.7997364430148
 30
0.0
 11
30645.05575643902
 21
502.9056652255149
 31
0.0
  0
LWPOLYLINE
  5
151
330
2
100
AcDbEntity
  8
0
  6
Continuous
 62
     7
100
AcDbPolyline
 90
        3
 70
     0
 43
0.0
 10
30585.60026541532
 20
487.0196086944152
 10
30585.98642822272
 20
495.000019218915
 10
30586.39621500762
 20
502.8975925633148
  0
LWPOLYLINE
  5
152
330
2
100
AcDbEntity
  8
0
  6
Continuous
 62
     7
100
AcDbPolyline
 90
        3
 70
     0
 43
0.0
 10
30582.35709915262
 20
487.302217847915
 10
30582.67574664052
 20
492.6365009062147
 10
30583.34533818122
 20
503.1806019781152
  0
LINE
  5
153
330
2
100
AcDbEntity
  8
0
  6
Continuous
 62
     7
100
AcDbLine
 10
30568.68760268532
 20
476.7997364430148
 30
0.0
 11
30568.62148084982
 21
478.0614162242145
 31
0.0
  0
LWPOLYLINE
  5
154
330
2
100
AcDbEntity
  8
0
  6
Continuous
 62
     7
100
AcDbPolyline
 90
        5
 70
     0
 43
0.0
 10
30408.91409896802
 20
661.7997364430148
 10
30410.99022441662
 20
661.422170785715
 10
30412.80505849112
 20
660.3369925462147
 10
30414.13019507592
 20
658.6807770623149
 10
30414.79885890722
 20
656.6619673411151
  0
LINE
  5
155
330
2
100
AcDbEntity
  8
0
  6
Continuous
 62
     7
100
AcDbLine
 10
30816.18760268532
 20
661.7997364430148
 30
0.0
 11
30399.21709471702
 21
661.7997364430148
 31
0.0
  0
LINE
  5
156
330
2
100
AcDbEntity
  8
0
  6
Continuous
 62
     7
100
AcDbLine
 10
30393.24351406252
 20
661.7997364430148
 30
0.0
 11
30391.18760268532
 21
661.7997364430148
 31
0.0
  0
LINE
  5
157
330
2
100
AcDbEntity
  8
0
  6
Continuous
 62
     7
100
AcDbLine
 10
30817.18760268532
 20
676.7997364430148
 30
0.0
 11
30395.18760268532
 21
676.7997364430148
 31
0.0
  0
LWPOLYLINE
  5
158
330
2
100
AcDbEntity
  8
0
  6
Continuous
 62
     7
100
AcDbPolyline
 90
       52
 70
     0
 43
0.0
 10
30414.79885915002
 20
656.6619676916148
 10
30415.55708179552
 20
651.0837141634147
 10
30416.31689813122
 20
645.729687465915
 10
30417.10376355402
 20
640.3876612986151
 10
30417.92115360062
 20
635.0203824634149
 10
30418.76323075422
 20
629.6553532934149
 10
30419.63335341022
 20
624.2626930463147
 10
30420.54929106052
 20
618.7712224819152
 10
30421.53529628842
 20
613.1185016128147
 10
30422.61740029592
 20
607.255904187015
 10
30423.82443573212
 20
601.1698100917146
 10
30425.16858970642
 20
594.9557588647149
 10
30426.63033637622
 20
588.8376610343148
 10
30428.17271859662
 20
583.0667631390151
 10
30429.74424778652
 20
577.820074363115
 10
30431.30129672422
 20
573.1678913885148
 10
30432.82230100442
 20
569.0906727846149
 10
30434.30252049652
 20
565.5060113723147
 10
30435.76185528632
 20
562.2882710915146
 10
30437.24549481102
 20
559.2949125955146
 10
30438.80605830632
 20
556.4130782754146
 10
30440.47403347272
 20
553.5977961113148
 10
30442.25295741042
 20
550.8581612850148
 10
30444.14136897362
 20
548.2103172102151
 10
30446.14528560112
 20
545.6594350113146
 10
30448.26766619322
 20
543.2064881798151
 10
30450.50453622082
 20
540.8535283411147
 10
30452.85391441282
 20
538.6024022041147
 10
30455.31694985022
 20
536.4545775398146
 10
30457.88866847222
 20
534.4189054767148
 10
30460.55582056542
 20
532.5098544349148
 10
30463.30103516022
 20
530.733616719015
 10
30466.13842244232
 20
529.0706047280146
 10
30469.15898567772
 20
527.4688794909147
 10
30472.51694129832
 20
525.8678504396148
 10
30476.35605108442
 20
524.2394245754148
 10
30480.72754999242
 20
522.6121583885151
 10
30485.56348128432
 20
521.0561743605149
 10
30490.70317875092
 20
519.6420644499148
 10
30495.96014196652
 20
518.408710778015
 10
30501.31262694562
 20
517.340288545015
 10
30506.87323228972
 20
516.4025382724148
 10
30512.55838214122
 20
515.5950996881147
 10
30518.15161707322
 20
514.9258438015149
 10
30523.53456741542
 20
514.3862555918149
 10
30528.64365133472
 20
513.9586111094149
 10
30533.44200927942
 20
513.6231736593145
 10
30537.89678569632
 20
513.362087456915
 10
30541.97128914732
 20
513.1603059708149
 10
30545.64741446962
 20
513.0046414092148
 10
30549.02114282352
 20
512.880910703615
 10
30552.30997161182
 20
512.7760178180151
  0
LWPOLYLINE
  5
159
330
2
100
AcDbEntity
  8
0
  6
Continuous
 62
     7
100
AcDbPolyline
 90
       52
 70
     0
 43
0.0
 10
30408.91409895942
 20
656.3967588189147
 10
30409.67946199402
 20
650.7813092669148
 10
30410.44574503102
 20
645.3956870527149
 10
30411.23901389052
 20
640.023604895915
 10
30412.06287539412
 20
634.6270143763149
 10
30412.91099683872
 20
629.235793613715
 10
30413.78759667542
 20
623.8161129571149
 10
30414.71196679662
 20
618.2871631488146
 10
30415.70917393932
 20
612.5840430677149
 10
30416.80627414132
 20
606.6548687978147
 10
30418.03383472032
 20
600.4804426012151
 10
30419.40557533012
 20
594.1541104721145
 10
30420.90461919462
 20
587.8950089182149
 10
30422.49434094412
 20
581.9608809648148
 10
30424.12167903442
 20
576.5392896122148
 10
30425.74400186242
 20
571.7023075911147
 10
30427.33857516492
 20
567.4357422540151
 10
30428.89789978302
 20
563.6657983584146
 10
30430.44128589772
 20
560.2674990360147
 10
30432.01751490252
 20
557.091413416415
 10
30433.68339879112
 20
554.0182746595146
 10
30435.47127955822
 20
551.0030745582148
 10
30437.38558447772
 20
548.0567062549148
 10
30439.42718092922
 20
545.1949628984148
 10
30441.60118704302
 20
542.4278171188148
 10
30443.90379289502
 20
539.7658495243149
 10
30446.32791139802
 20
537.2149505985148
 10
30448.87350685622
 20
534.7743593950148
 10
30451.54354811092
 20
532.4441370425147
 10
30454.33491246172
 20
530.2324207026149
 10
30457.22928759422
 20
528.1579995661149
 10
30460.19779007492
 20
526.2345781123149
 10
30463.25164751342
 20
524.4420665242151
 10
30466.49049139242
 20
522.7219562659147
 10
30470.07594514102
 20
521.0097172180148
 10
30474.15493321722
 20
519.2766095262149
 10
30478.77641739232
 20
517.5534527570148
 10
30483.86264500052
 20
515.9140964461149
 10
30489.23536025112
 20
514.4332300700148
 10
30494.69768376862
 20
513.149794002215
 10
30500.23378700632
 20
512.0429081546149
 10
30505.95955932152
 20
511.0758027036149
 10
30511.78622576632
 20
510.2471491532151
 10
30517.50083257592
 20
509.5624169937146
 10
30522.98942041222
 20
509.0114680328151
 10
30528.18798075642
 20
508.575700778315
 10
30533.06054685252
 20
508.2345737023151
 10
30537.57572885662
 20
507.969558548315
 10
30541.69837524772
 20
507.7651009649148
 10
30545.41223487942
 20
507.6076218347152
 10
30548.81622912822
 20
507.4826180506152
 10
30552.13219166682
 20
507.3767177436147
  0
LWPOLYLINE
  5
15A
330
2
100
AcDbEntity
  8
0
  6
Continuous
 62
     7
100
AcDbPolyline
 90
        5
 70
     0
 43
0.0
 10
30394.25291977452
 20
666.7997364348147
 10
30394.63073216152
 20
664.8862935022147
 10
30395.70681489652
 20
663.2641364721148
 10
30397.31733568872
 20
662.1802367401151
 10
30399.21709471422
 20
661.7996167011151
  0
LWPOLYLINE
  5
15B
330
2
100
AcDbEntity
  8
0
  6
Continuous
 62
     7
100
AcDbPolyline
 90
        5
 70
     0
 43
0.0
 10
30399.21709471702
 20
661.7997364430148
 10
30398.90025146682
 20
661.6133885834146
 10
30398.62108898222
 20
661.0674741342149
 10
30398.39246899622
 20
660.2020092469147
 10
30398.22046461262
 20
659.0724637157145
  0
LWPOLYLINE
  5
15C
330
2
100
AcDbEntity
  8
0
  6
Continuous
 62
     7
100
AcDbPolyline
 90
       32
 70
     0
 43
0.0
 10
30398.06959730892
 20
656.396758757115
 10
30398.08204358262
 20
654.6314907372147
 10
30398.10909236392
 20
652.8367091938148
 10
30398.14836375112
 20
651.0446180081149
 10
30398.19814795922
 20
649.2563357634148
 10
30398.25801534742
 20
647.4478043654149
 10
30398.32896199952
 20
645.5774220284147
 10
30398.41332653112
 20
643.5930963967148
 10
30398.51440112512
 20
641.4425977241148
 10
30398.63643497902
 20
639.0727406760147
 10
30398.78389598912
 20
636.442615831415
 10
30398.96021604052
 20
633.5396215687151
 10
30399.16822635112
 20
630.3637307970148
 10
30399.41161187072
 20
626.9036847348147
 10
30399.69782777552
 20
623.1034573848146
 10
30400.03938398192
 20
618.8614877824147
 10
30400.44796002202
 20
614.1133303332148
 10
30400.92635602632
 20
608.9089917627148
 10
30401.47631006032
 20
603.3033654322148
 10
30402.11222900012
 20
597.2280509870151
 10
30402.84785959942
 20
590.6464659201146
 10
30403.65246480522
 20
583.9059583178149
 10
30404.47912754892
 20
577.4075656668146
 10
30405.28866739832
 20
571.4134919646149
 10
30406.04275226212
 20
566.1290636787148
 10
30406.73192596642
 20
561.5349583072148
 10
30407.38592460752
 20
557.3735975944146
 10
30408.04247444762
 20
553.384151254415
 10
30408.73626330582
 20
549.3693942822146
 10
30409.47820989402
 20
545.3028314724146
 10
30410.26655918292
 20
541.240484370815
 10
30411.07454191732
 20
537.3594902550149
  0
LWPOLYLINE
  5
15D
330
2
100
AcDbEntity
  8
0
  6
Continuous
 62
     7
100
AcDbPolyline
 90
        5
 70
     0
 43
0.0
 10
30406.18760268532
 20
536.7997364430148
 10
30399.99743454922
 20
571.8893031567149
 10
30395.58188051752
 20
604.7343847240149
 10
30392.48997629992
 20
634.6367404103148
 10
30391.18760268532
 20
658.7997364430147
  0
LWPOLYLINE
  5
15E
330
2
100
AcDbEntity
  8
0
  6
Continuous
 62
     7
100
AcDbPolyline
 90
       36
 70
     0
 43
0.0
 10
30411.07454191732
 20
537.3594902550149
 10
30412.11025853672
 20
533.2071502756148
 10
30413.29739234372
 20
529.3879128052148
 10
30414.55175193222
 20
525.9577536759147
 10
30415.81788871142
 20
522.9149252362149
 10
30417.07161823412
 20
520.230808324015
 10
30418.29745710712
 20
517.8893036149147
 10
30419.45691389062
 20
515.9051313106147
 10
30420.57753414072
 20
514.178630140515
 10
30421.71249993822
 20
512.6024587769152
 10
30422.92425117672
 20
511.0919585872152
 10
30424.24028125652
 20
509.6320478030147
 10
30425.65576040582
 20
508.2486925316152
 10
30427.09580258462
 20
507.0174392440149
 10
30428.60587252862
 20
505.888606256015
 10
30430.31897305762
 20
504.7665308212149
 10
30432.21661631352
 20
503.6773751949149
 10
30434.33945628672
 20
502.6076289852149
 10
30436.72798986202
 20
501.5481992191148
 10
30439.41965069772
 20
500.4924623454148
 10
30442.44383202422
 20
499.4343604971145
 10
30445.80095513712
 20
498.3719848083146
 10
30449.45397909832
 20
497.3195956296149
 10
30453.42992469502
 20
496.2785421695148
 10
30457.79073453412
 20
495.2439020235146
 10
30462.59647099992
 20
494.2156194398148
 10
30467.85836042642
 20
493.2063472889149
 10
30473.59959497912
 20
492.2263927336148
 10
30479.87439074732
 20
491.2825755963149
 10
30486.77042205602
 20
490.3813537753149
 10
30494.41890859882
 20
489.5317853004148
 10
30502.91976966762
 20
488.7628252381146
 10
30512.27717277962
 20
488.1245921095151
 10
30522.53405265042
 20
487.6580109479146
 10
30533.79956876702
 20
487.385510738215
 10
30546.18760268532
 20
487.302217847915
  0
LWPOLYLINE
  5
15F
330
2
100
AcDbEntity
  8
0
  6
Continuous
 62
     7
100
AcDbPolyline
 90
       36
 70
     0
 43
0.0
 10
30406.18760268532
 20
536.7997364430148
 10
30407.29794607042
 20
532.3476120466148
 10
30408.56329046762
 20
528.2765863318145
 10
30409.89676773292
 20
524.6302411362148
 10
30411.24367627622
 20
521.3933019358146
 10
30412.59083976412
 20
518.5096460471149
 10
30413.92435440542
 20
515.9627779480151
 10
30415.20127564792
 20
513.7778564361151
 10
30416.45023135482
 20
511.8538494128151
 10
30417.73002270992
 20
510.0767543611145
 10
30419.11240753692
 20
508.3537622050148
 10
30420.63115108722
 20
506.6691943053147
 10
30422.28239493782
 20
505.055619372215
 10
30423.97571948512
 20
503.6079180299148
 10
30425.73757126332
 20
502.2906536210148
 10
30427.70551909452
 20
501.0014392878146
 10
30429.84821609752
 20
499.7714087018148
 10
30432.20250576672
 20
498.5848112038147
 10
30434.80413473262
 20
497.4306586178149
 10
30437.68497482582
 20
496.3005325670146
 10
30440.86841192102
 20
495.186571002815
 10
30444.35532236532
 20
494.0830421885148
 10
30448.12916245522
 20
492.9958232428147
 10
30452.21974323412
 20
491.9247244866146
 10
30456.69053002982
 20
490.863967420315
 10
30461.60255819962
 20
489.8129199393147
 10
30466.96688569192
 20
488.7839804503146
 10
30472.80703397182
 20
487.7871261518148
 10
30479.17820020712
 20
486.8288001882147
 10
30486.16958433962
 20
485.9151006179144
 10
30493.91529885922
 20
485.0547393691149
 10
30502.52259952152
 20
484.2761403877148
 10
30511.99293095572
 20
483.6301976449148
 10
30522.36131843762
 20
483.1585128791147
 10
30533.72593157922
 20
482.8835677922151
 10
30546.18760268532
 20
482.7997364430148
  0
LWPOLYLINE
  5
160
330
2
100
AcDbEntity
  8
0
  6
Continuous
 62
     7
100
AcDbPolyline
 90
        3
 70
     0
 43
0.0
 10
30398.22046461262
 20
659.0724637157145
 10
30398.14459923792
 20
658.2812732613147
 10
30398.09141463212
 20
657.4361301071149
  0
LWPOLYLINE
  5
161
330
2
100
AcDbEntity
  8
0
  6
Continuous
 62
     7
100
AcDbPolyline
 90
        3
 70
     0
 43
0.0
 10
30398.09141463212
 20
657.4361301071149
 10
30398.07373697282
 20
656.9209194192149
 10
30398.06959730892
 20
656.396758757115
  0
LINE
  5
162
330
2
100
AcDbEntity
  8
0
  6
Continuous
 62
     7
100
AcDbLine
 10
30391.18760268532
 20
672.7997364430148
 30
0.0
 11
30391.18760268532
 21
658.7997364430147
 31
0.0
  0
LWPOLYLINE
  5
163
330
2
100
AcDbEntity
  8
0
  6
Continuous
 62
     7
100
AcDbPolyline
 90
        5
 70
     0
 43
0.0
 10
30394.25273538912
 20
666.7997364430148
 10
30393.93175642122
 20
666.4578987214149
 10
30393.64913242512
 20
665.4569668042149
 10
30393.41765467222
 20
663.8703914503148
 10
30393.24351406252
 20
661.7997364430148
  0
ARC
  5
164
330
2
100
AcDbEntity
  8
0
  6
Continuous
 62
     7
100
AcDbCircle
 10
30655.04204329572
 20
502.3823056363148
 30
0.0
 40
9.9999982666
100
AcDbArc
 50
90.78091053471091
 51
176.9999973005811
  0
ARC
  5
165
330
2
100
AcDbEntity
  8
0
  6
Continuous
 62
     7
100
AcDbCircle
 10
30806.88790419822
 20
655.7997364430148
 30
0.0
 40
6.0000000576
100
AcDbArc
 50
90.00002643655067
 51
172.7152537863973
  0
ARC
  5
166
330
2
100
AcDbEntity
  8
0
  6
Continuous
 62
     7
100
AcDbCircle
 10
30563.62833317612
 20
477.7997364430148
 30
0.0
 40
5.0
100
AcDbArc
 50
3.000000002788207
 51
90.0
  0
ARC
  5
167
330
2
100
AcDbEntity
  8
0
  6
Continuous
 62
     7
100
AcDbCircle
 10
30816.18761175102
 20
666.7997364430148
 30
0.0
 40
5.0
100
AcDbArc
 50
269.9998961197596
 51
0.000000000000007
  0
ARC
  5
168
330
2
100
AcDbEntity
  8
0
  6
Continuous
 62
     7
100
AcDbCircle
 10
30395.18759472232
 20
672.7997364430148
 30
0.0
 40
4.0
100
AcDbArc
 50
89.99988594159383
 51
180.0
  0
ARC
  5
169
330
2
100
AcDbEntity
  8
0
  6
Continuous
 62
     7
100
AcDbCircle
 10
30817.18761064842
 20
672.7997364430148
 30
0.0
 40
4.0
100
AcDbArc
 50
0.000000000000007
 51
90.00011405882304
  0
LINE
  5
171
330
2
100
AcDbEntity
  8
轮廓线.
100
AcDbLine
 10
30097.14948089091
 20
512.5121160795926
 30
0.0
 11
29982.39316619938
 21
512.5121160795926
 31
0.0
  0
LINE
  5
172
330
2
100
AcDbEntity
  8
轮廓线.
100
AcDbLine
 10
29841.74479059576
 20
661.799756516992
 30
0.0
 11
30247.79544942596
 21
661.7997564752926
 31
0.0
  0
ENDSEC
  0
SECTION
  2
OBJECTS
  0
DICTIONARY
  5
9
330
0
100
AcDbDictionary
281
     1
  3
ACAD_COLOR
350
36
  3
ACAD_GROUP
350
31
  3
ACAD_LAYOUT
350
F
  3
ACAD_MATERIAL
350
B
  3
ACAD_MLEADERSTYLE
350
19D
  3
ACAD_MLINESTYLE
350
32
  3
ACAD_PLOTSETTINGS
350
33
  3
ACAD_PLOTSTYLENAME
350
8
  3
ACAD_SCALELIST
350
17B
  3
ACAD_TABLESTYLE
350
37
  3
ACAD_VISUALSTYLE
350
26
  3
ACDB_RECOMPOSE_DATA
350
1AC
  3
ACDBHEADERROUNDTRIPXREC
350
1A6
  3
AcDbVariableDictionary
350
C2
  0
DICTIONARY
  5
16
330
15
100
AcDbDictionary
280
     1
281
     1
  3
ACAD_LAYERFILTERS
360
17
  3
ACAD_LAYERSTATES
360
18
  3
ACLYDICTIONARY
360
19
  0
DICTIONARY
  5
3
330
2
100
AcDbDictionary
280
     1
281
     1
  3
ACAD_SORTENTS
360
C0
  0
DICTIONARY
  5
36
102
{ACAD_REACTORS
330
9
102
}
330
9
100
AcDbDictionary
281
     1
  0
DICTIONARY
  5
31
102
{ACAD_REACTORS
330
9
102
}
330
9
100
AcDbDictionary
281
     1
  0
DICTIONARY
  5
F
102
{ACAD_REACTORS
330
9
102
}
330
9
100
AcDbDictionary
281
     1
  3
Model
350
E
  3
布局1
350
14
  0
DICTIONARY
  5
B
102
{ACAD_REACTORS
330
9
102
}
330
9
100
AcDbDictionary
281
     1
  3
ByBlock
350
35
  3
ByLayer
350
34
  3
Global
350
A
  0
DICTIONARY
  5
19D
102
{ACAD_REACTORS
330
9
102
}
330
9
100
AcDbDictionary
281
     1
  3
Standard
350
19E
  0
DICTIONARY
  5
32
102
{ACAD_REACTORS
330
9
102
}
330
9
100
AcDbDictionary
281
     1
  3
Standard
350
3A
  0
DICTIONARY
  5
33
102
{ACAD_REACTORS
330
9
102
}
330
9
100
AcDbDictionary
281
     1
  0
ACDBDICTIONARYWDFLT
  5
8
102
{ACAD_REACTORS
330
9
102
}
330
9
100
AcDbDictionary
281
     1
  3
Normal
350
7
100
AcDbDictionaryWithDefault
340
7
  0
DICTIONARY
  5
17B
102
{ACAD_REACTORS
330
9
102
}
330
9
100
AcDbDictionary
281
     1
  3
A0
350
17C
  3
A1
350
17D
  3
A2
350
17E
  3
A3
350
17F
  3
A4
350
180
  3
A5
350
181
  3
A6
350
182
  3
A7
350
183
  3
A8
350
184
  3
A9
350
185
  3
B0
350
186
  3
B1
350
187
  3
B2
350
188
  3
B3
350
189
  3
B4
350
18A
  3
B5
350
18B
  3
B6
350
18C
  3
B7
350
18D
  3
B8
350
18E
  3
B9
350
18F
  3
C0
350
190
  3
C1
350
191
  3
C2
350
192
  3
C3
350
193
  3
C4
350
194
  3
C5
350
195
  3
C6
350
196
  3
C7
350
197
  3
C8
350
198
  3
C9
350
199
  3
D0
350
19A
  3
D1
350
19B
  3
D2
350
19C
  0
DICTIONARY
  5
37
102
{ACAD_REACTORS
330
9
102
}
330
9
100
AcDbDictionary
281
     1
  3
Standard
350
3B
  0
DICTIONARY
  5
26
102
{ACAD_REACTORS
330
9
102
}
330
9
100
AcDbDictionary
281
     1
  3
2dWireframe
350
25
  3
3D Hidden
350
CB
  3
3dWireframe
350
3D
  3
Basic
350
CA
  3
Brighten
350
CE
  3
ColorChange
350
D2
  3
Conceptual
350
CC
  3
Dim
350
CD
  3
Facepattern
350
D1
  3
Flat
350
C6
  3
FlatWithEdges
350
C7
  3
Gouraud
350
C8
  3
GouraudWithEdges
350
C9
  3
Linepattern
350
D0
  3
Realistic
350
3C
  3
Thicken
350
CF
  0
XRECORD
  5
1AC
102
{ACAD_REACTORS
330
9
102
}
330
9
100
AcDbXrecord
280
     1
 90
        1
330
3B
  0
DICTIONARY
  5
1A6
102
{ACAD_REACTORS
330
9
102
}
330
9
100
AcDbDictionary
281
     1
  0
DICTIONARY
  5
C2
102
{ACAD_REACTORS
330
9
102
}
330
9
100
AcDbDictionary
281
     1
  3
CMLEADERSTYLE
350
1A4
  3
CTABLESTYLE
350
C3
  3
FIELDEVAL
350
C4
  0
DICTIONARY
  5
17
102
{ACAD_REACTORS
330
16
102
}
330
16
100
AcDbDictionary
281
     1
  0
DICTIONARY
  5
18
102
{ACAD_REACTORS
330
16
102
}
330
16
100
AcDbDictionary
281
     1
  0
DICTIONARY
  5
19
102
{ACAD_REACTORS
330
16
102
}
330
16
100
AcDbDictionary
281
     1
1001
ACAD
1000
<All
  0
SORTENTSTABLE
  5
C0
102
{ACAD_REACTORS
330
3
102
}
330
3
100
AcDbSortentsTable
330
2
  0
LAYOUT
  5
E
102
{ACAD_REACTORS
330
F
102
}
330
F
100
AcDbPlotSettings
  1

  2
none_device
  4
ISO_A4_(210.00_x_297.00_MM)
  6

 40
7.5
 41
20.0
 42
7.5
 43
20.0
 44
210.0
 45
297.0
 46
11.54999923706054
 47
-13.65000009536743
 48
0.0
 49
0.0
140
0.0
141
0.0
142
1.0
143
8.704084754739808
 70
 11952
 72
     1
 73
     0
 74
     0
  7
acad.ctb
 75
     0
147
0.1148885871608098
 76
     0
 77
     2
 78
   300
148
0.0
149
0.0
100
AcDbLayout
  1
Model
 70
     1
 71
     0
 10
0.0
 20
0.0
 11
12.0
 21
9.0
 12
0.0
 22
0.0
 32
0.0
 14
0.0
 24
0.0
 34
0.0
 15
0.0
 25
0.0
 35
0.0
146
0.0
 13
0.0
 23
0.0
 33
0.0
 16
1.0
 26
0.0
 36
0.0
 17
0.0
 27
1.0
 37
0.0
 76
     0
330
2
331
24
1001
ACAD_PSEXT
1000
None
1000
None
1000
Not applicable
1000
The layout will not be plotted unless a new plotter configuration name is selected.
1070
     0
  0
LAYOUT
  5
14
102
{ACAD_REACTORS
330
F
102
}
330
F
100
AcDbPlotSettings
  1

  2
C:\Documents and Settings\basas\Application Data\Autodesk\AutoCAD 2005\R16.1\enu\plotters\Default Windows System Printer.pc3
  4

  6

 40
0.0
 41
0.0
 42
0.0
 43
0.0
 44
0.0
 45
0.0
 46
0.0
 47
0.0
 48
0.0
 49
0.0
140
0.0
141
0.0
142
1.0
143
1.0
 70
   688
 72
     0
 73
     0
 74
     5
  7
acad.ctb
 75
    16
147
1.0
 76
     0
 77
     2
 78
   300
148
0.0
149
0.0
100
AcDbLayout
  1
布局1
 70
     1
 71
     1
 10
0.0
 20
0.0
 11
12.0
 21
9.0
 12
0.0
 22
0.0
 32
0.0
 14
0.0
 24
0.0
 34
0.0
 15
0.0
 25
0.0
 35
0.0
146
0.0
 13
0.0
 23
0.0
 33
0.0
 16
1.0
 26
0.0
 36
0.0
 17
0.0
 27
1.0
 37
0.0
 76
     0
330
11
  0
MATERIAL
  5
35
102
{ACAD_REACTORS
330
B
102
}
330
B
100
AcDbMaterial
  1
ByBlock
  2

  0
MATERIAL
  5
34
102
{ACAD_REACTORS
330
B
102
}
330
B
100
AcDbMaterial
  1
ByLayer
  2

  0
MATERIAL
  5
A
102
{ACAD_REACTORS
330
B
102
}
330
B
100
AcDbMaterial
  1
Global
  2

  0
MLEADERSTYLE
  5
19E
102
{ACAD_REACTORS
330
19D
102
}
330
19D
100
AcDbMLeaderStyle
170
     2
171
     1
172
     0
 90
        2
 40
0.0
 41
0.0
173
     1
 91
-1056964608
340
1F
 92
       -2
290
     1
 42
0.09
291
     1
 43
8.0
  3
Standard
341
0
 44
0.18
300

342
1C
174
     1
178
     1
175
     1
176
     0
 93
-1056964608
 45
0.18
292
     0
297
     0
 46
0.18
343
0
 94
-1056964608
 47
1.0
 49
1.0
140
1.0
293
     1
141
0.0
294
     1
177
     0
142
1.0
295
     0
296
     0
143
3.75
1001
ACAD_MLEADERVER
1070
     2
  0
MLINESTYLE
  5
3A
102
{ACAD_REACTORS
330
32
102
}
330
32
100
AcDbMlineStyle
  2
STANDARD
 70
     0
  3

 62
   256
 51
90.0
 52
90.0
 71
     2
 49
0.5
 62
   256
  6
BYLAYER
 49
-0.5
 62
   256
  6
BYLAYER
  0
ACDBPLACEHOLDER
  5
7
102
{ACAD_REACTORS
330
8
102
}
330
8
  0
SCALE
  5
17C
102
{ACAD_REACTORS
330
17B
102
}
330
17B
100
AcDbScale
 70
     0
300
1:1
140
1.0
141
1.0
290
     1
  0
SCALE
  5
17D
102
{ACAD_REACTORS
330
17B
102
}
330
17B
100
AcDbScale
 70
     0
300
1:2
140
1.0
141
2.0
290
     0
  0
SCALE
  5
17E
102
{ACAD_REACTORS
330
17B
102
}
330
17B
100
AcDbScale
 70
     0
300
1:4
140
1.0
141
4.0
290
     0
  0
SCALE
  5
17F
102
{ACAD_REACTORS
330
17B
102
}
330
17B
100
AcDbScale
 70
     0
300
1:5
140
1.0
141
5.0
290
     0
  0
SCALE
  5
180
102
{ACAD_REACTORS
330
17B
102
}
330
17B
100
AcDbScale
 70
     0
300
1:8
140
1.0
141
8.0
290
     0
  0
SCALE
  5
181
102
{ACAD_REACTORS
330
17B
102
}
330
17B
100
AcDbScale
 70
     0
300
1:10
140
1.0
141
10.0
290
     0
  0
SCALE
  5
182
102
{ACAD_REACTORS
330
17B
102
}
330
17B
100
AcDbScale
 70
     0
300
1:16
140
1.0
141
16.0
290
     0
  0
SCALE
  5
183
102
{ACAD_REACTORS
330
17B
102
}
330
17B
100
AcDbScale
 70
     0
300
1:20
140
1.0
141
20.0
290
     0
  0
SCALE
  5
184
102
{ACAD_REACTORS
330
17B
102
}
330
17B
100
AcDbScale
 70
     0
300
1:30
140
1.0
141
30.0
290
     0
  0
SCALE
  5
185
102
{ACAD_REACTORS
330
17B
102
}
330
17B
100
AcDbScale
 70
     0
300
1:40
140
1.0
141
40.0
290
     0
  0
SCALE
  5
186
102
{ACAD_REACTORS
330
17B
102
}
330
17B
100
AcDbScale
 70
     0
300
1:50
140
1.0
141
50.0
290
     0
  0
SCALE
  5
187
102
{ACAD_REACTORS
330
17B
102
}
330
17B
100
AcDbScale
 70
     0
300
1:100
140
1.0
141
100.0
290
     0
  0
SCALE
  5
188
102
{ACAD_REACTORS
330
17B
102
}
330
17B
100
AcDbScale
 70
     0
300
2:1
140
2.0
141
1.0
290
     0
  0
SCALE
  5
189
102
{ACAD_REACTORS
330
17B
102
}
330
17B
100
AcDbScale
 70
     0
300
4:1
140
4.0
141
1.0
290
     0
  0
SCALE
  5
18A
102
{ACAD_REACTORS
330
17B
102
}
330
17B
100
AcDbScale
 70
     0
300
8:1
140
8.0
141
1.0
290
     0
  0
SCALE
  5
18B
102
{ACAD_REACTORS
330
17B
102
}
330
17B
100
AcDbScale
 70
     0
300
10:1
140
10.0
141
1.0
290
     0
  0
SCALE
  5
18C
102
{ACAD_REACTORS
330
17B
102
}
330
17B
100
AcDbScale
 70
     0
300
100:1
140
100.0
141
1.0
290
     0
  0
SCALE
  5
18D
102
{ACAD_REACTORS
330
17B
102
}
330
17B
100
AcDbScale
 70
     0
300
1/128" = 1'-0"
140
0.0078125
141
12.0
290
     0
  0
SCALE
  5
18E
102
{ACAD_REACTORS
330
17B
102
}
330
17B
100
AcDbScale
 70
     0
300
1/64" = 1'-0"
140
0.015625
141
12.0
290
     0
  0
SCALE
  5
18F
102
{ACAD_REACTORS
330
17B
102
}
330
17B
100
AcDbScale
 70
     0
300
1/32" = 1'-0"
140
0.03125
141
12.0
290
     0
  0
SCALE
  5
190
102
{ACAD_REACTORS
330
17B
102
}
330
17B
100
AcDbScale
 70
     0
300
1/16" = 1'-0"
140
0.0625
141
12.0
290
     0
  0
SCALE
  5
191
102
{ACAD_REACTORS
330
17B
102
}
330
17B
100
AcDbScale
 70
     0
300
3/32" = 1'-0"
140
0.09375
141
12.0
290
     0
  0
SCALE
  5
192
102
{ACAD_REACTORS
330
17B
102
}
330
17B
100
AcDbScale
 70
     0
300
1/8" = 1'-0"
140
0.125
141
12.0
290
     0
  0
SCALE
  5
193
102
{ACAD_REACTORS
330
17B
102
}
330
17B
100
AcDbScale
 70
     0
300
3/16" = 1'-0"
140
0.1875
141
12.0
290
     0
  0
SCALE
  5
194
102
{ACAD_REACTORS
330
17B
102
}
330
17B
100
AcDbScale
 70
     0
300
1/4" = 1'-0"
140
0.25
141
12.0
290
     0
  0
SCALE
  5
195
102
{ACAD_REACTORS
330
17B
102
}
330
17B
100
AcDbScale
 70
     0
300
3/8" = 1'-0"
140
0.375
141
12.0
290
     0
  0
SCALE
  5
196
102
{ACAD_REACTORS
330
17B
102
}
330
17B
100
AcDbScale
 70
     0
300
1/2" = 1'-0"
140
0.5
141
12.0
290
     0
  0
SCALE
  5
197
102
{ACAD_REACTORS
330
17B
102
}
330
17B
100
AcDbScale
 70
     0
300
3/4" = 1'-0"
140
0.75
141
12.0
290
     0
  0
SCALE
  5
198
102
{ACAD_REACTORS
330
17B
102
}
330
17B
100
AcDbScale
 70
     0
300
1" = 1'-0"
140
1.0
141
12.0
290
     0
  0
SCALE
  5
199
102
{ACAD_REACTORS
330
17B
102
}
330
17B
100
AcDbScale
 70
     0
300
1-1/2" = 1'-0"
140
1.5
141
12.0
290
     0
  0
SCALE
  5
19A
102
{ACAD_REACTORS
330
17B
102
}
330
17B
100
AcDbScale
 70
     0
300
3" = 1'-0"
140
3.0
141
12.0
290
     0
  0
SCALE
  5
19B
102
{ACAD_REACTORS
330
17B
102
}
330
17B
100
AcDbScale
 70
     0
300
6" = 1'-0"
140
6.0
141
12.0
290
     0
  0
SCALE
  5
19C
102
{ACAD_REACTORS
330
17B
102
}
330
17B
100
AcDbScale
 70
     0
300
1'-0" = 1'-0"
140
12.0
141
12.0
290
     0
  0
TABLESTYLE
  5
3B
102
{ACAD_XDICTIONARY
360
1A9
102
}
102
{ACAD_REACTORS
330
37
102
}
330
37
100
AcDbTableStyle
  3
Standard
 70
     0
 71
     0
 40
1.5
 41
1.5
280
     0
281
     0
  7
Standard
140
4.5
170
     2
 62
     0
 63
   257
283
     0
274
    -2
284
     1
 64
     0
275
    -2
285
     1
 65
     0
276
    -2
286
     1
 66
     0
277
    -2
287
     1
 67
     0
278
    -2
288
     1
 68
     0
279
    -2
289
     1
 69
     0
  7
Standard
140
6.0
170
     5
 62
     0
 63
   257
283
     0
274
    -2
284
     1
 64
     0
275
    -2
285
     1
 65
     0
276
    -2
286
     1
 66
     0
277
    -2
287
     1
 67
     0
278
    -2
288
     1
 68
     0
279
    -2
289
     1
 69
     0
  7
Standard
140
4.5
170
     5
 62
     0
 63
   257
283
     0
274
    -2
284
     1
 64
     0
275
    -2
285
     1
 65
     0
276
    -2
286
     1
 66
     0
277
    -2
287
     1
 67
     0
278
    -2
288
     1
 68
     0
279
    -2
289
     1
 69
     0
  0
VISUALSTYLE
  5
25
102
{ACAD_XDICTIONARY
360
1A7
102
}
102
{ACAD_REACTORS
330
26
102
}
330
26
100
AcDbVisualStyle
  2
2dWireframe
 70
     4
 71
     0
 72
     2
 73
     1
 90
        0
 40
-0.6
 41
-30.0
 62
     5
 63
     7
421
 16777215
 74
     1
 91
        4
 64
     7
 65
   257
 75
     1
175
     1
 42
1.0
 92
        0
 66
   257
 43
1.0
 76
     1
 77
     6
 78
     2
 67
     7
 79
     5
170
     0
171
     0
290
     0
174
     0
 93
        1
 44
0.0
173
     0
291
     0
 45
0.0
1001
ACAD
1000
AcDbSavedByObjectVersion
1070
     0
  0
VISUALSTYLE
  5
CB
102
{ACAD_XDICTIONARY
360
1BB
102
}
102
{ACAD_REACTORS
330
26
102
}
330
26
100
AcDbVisualStyle
  2
3D Hidden
 70
     6
 71
     1
 72
     2
 73
     2
 90
        0
 40
-0.6
 41
-30.0
 62
     5
 63
     7
421
 16777215
 74
     2
 91
        2
 64
     7
 65
   257
 75
     2
175
     1
 42
40.0
 92
        0
 66
   257
 43
1.0
 76
     1
 77
     6
 78
     2
 67
     7
 79
     3
170
     0
171
     0
290
     0
174
     0
 93
        1
 44
0.0
173
     0
291
     0
 45
0.0
1001
ACAD
1000
AcDbSavedByObjectVersion
1070
     0
  0
VISUALSTYLE
  5
3D
102
{ACAD_XDICTIONARY
360
1AF
102
}
102
{ACAD_REACTORS
330
26
102
}
330
26
100
AcDbVisualStyle
  2
3dWireframe
 70
     5
 71
     0
 72
     2
 73
     1
 90
        0
 40
-0.6
 41
-30.0
 62
     5
 63
     7
421
 16777215
 74
     1
 91
        4
 64
     7
 65
   257
 75
     1
175
     1
 42
1.0
 92
        0
 66
   257
 43
1.0
 76
     1
 77
     6
 78
     2
 67
     7
 79
     5
170
     0
171
     0
290
     0
174
     0
 93
        1
 44
0.0
173
     0
291
     0
 45
0.0
1001
ACAD
1000
AcDbSavedByObjectVersion
1070
     0
  0
VISUALSTYLE
  5
CA
102
{ACAD_XDICTIONARY
360
1B9
102
}
102
{ACAD_REACTORS
330
26
102
}
330
26
100
AcDbVisualStyle
  2
Basic
 70
     7
 71
     1
 72
     0
 73
     1
 90
        0
 40
-0.6
 41
-30.0
 62
     5
 63
     7
421
 16777215
 74
     0
 91
        4
 64
     7
 65
   257
 75
     1
175
     1
 42
1.0
 92
        8
 66
     7
 43
1.0
 76
     1
 77
     6
 78
     2
 67
     7
 79
     5
170
     0
171
     0
290
     0
174
     0
 93
        1
 44
0.0
173
     0
291
     1
 45
0.0
1001
ACAD
1000
AcDbSavedByObjectVersion
1070
     0
  0
VISUALSTYLE
  5
CE
102
{ACAD_XDICTIONARY
360
1C1
102
}
102
{ACAD_REACTORS
330
26
102
}
330
26
100
AcDbVisualStyle
  2
Brighten
 70
    12
 71
     2
 72
     2
 73
     0
 90
        0
 40
-0.6
 41
-30.0
 62
     5
 63
     7
421
 16777215
 74
     1
 91
        4
 64
     7
 65
   257
 75
     1
175
     1
 42
1.0
 92
        8
 66
     7
 43
1.0
 76
     1
 77
     6
 78
     2
 67
     7
 79
     5
170
     0
171
     0
290
     0
174
     0
 93
        1
 44
50.0
173
     0
291
     1
 45
0.0
1001
ACAD
1000
AcDbSavedByObjectVersion
1070
     0
  0
VISUALSTYLE
  5
D2
102
{ACAD_XDICTIONARY
360
1C9
102
}
102
{ACAD_REACTORS
330
26
102
}
330
26
100
AcDbVisualStyle
  2
ColorChange
 70
    16
 71
     2
 72
     2
 73
     3
 90
        0
 40
-0.6
 41
-30.0
 62
     5
 63
     8
421
  8421504
 74
     1
 91
        4
 64
     7
 65
   257
 75
     1
175
     1
 42
1.0
 92
        8
 66
     8
424
  8421504
 43
1.0
 76
     1
 77
     6
 78
     2
 67
     7
 79
     5
170
     0
171
     0
290
     0
174
     0
 93
        1
 44
0.0
173
     0
291
     1
 45
0.0
1001
ACAD
1000
AcDbSavedByObjectVersion
1070
     0
  0
VISUALSTYLE
  5
CC
102
{ACAD_XDICTIONARY
360
1BD
102
}
102
{ACAD_REACTORS
330
26
102
}
330
26
100
AcDbVisualStyle
  2
Conceptual
 70
     9
 71
     3
 72
     2
 73
     0
 90
        0
 40
-0.6
 41
-30.0
 62
     5
 63
     7
421
 16777215
 74
     2
 91
        2
 64
     7
 65
   257
 75
     1
175
     1
 42
40.0
 92
        8
 66
     7
 43
1.0
 76
     1
 77
     6
 78
     2
 67
     7
 79
     3
170
     0
171
     0
290
     0
174
     0
 93
        1
 44
0.0
173
     0
291
     0
 45
0.0
1001
ACAD
1000
AcDbSavedByObjectVersion
1070
     0
  0
VISUALSTYLE
  5
CD
102
{ACAD_XDICTIONARY
360
1BF
102
}
102
{ACAD_REACTORS
330
26
102
}
330
26
100
AcDbVisualStyle
  2
Dim
 70
    11
 71
     2
 72
     2
 73
     0
 90
        0
 40
-0.6
 41
-30.0
 62
     5
 63
     7
421
 16777215
 74
     1
 91
        4
 64
     7
 65
   257
 75
     1
175
     1
 42
1.0
 92
        8
 66
     7
 43
1.0
 76
     1
 77
     6
 78
     2
 67
     7
 79
     5
170
     0
171
     0
290
     0
174
     0
 93
        1
 44
-50.0
173
     0
291
     1
 45
0.0
1001
ACAD
1000
AcDbSavedByObjectVersion
1070
     0
  0
VISUALSTYLE
  5
D1
102
{ACAD_XDICTIONARY
360
1C7
102
}
102
{ACAD_REACTORS
330
26
102
}
330
26
100
AcDbVisualStyle
  2
Facepattern
 70
    15
 71
     2
 72
     2
 73
     0
 90
        0
 40
-0.6
 41
-30.0
 62
     5
 63
     7
421
 16777215
 74
     1
 91
        4
 64
     7
 65
   257
 75
     1
175
     1
 42
1.0
 92
        8
 66
     7
 43
1.0
 76
     1
 77
     6
 78
     2
 67
     7
 79
     5
170
     0
171
     0
290
     0
174
     0
 93
        1
 44
0.0
173
     0
291
     1
 45
0.0
1001
ACAD
1000
AcDbSavedByObjectVersion
1070
     0
  0
VISUALSTYLE
  5
C6
102
{ACAD_XDICTIONARY
360
1B1
102
}
102
{ACAD_REACTORS
330
26
102
}
330
26
100
AcDbVisualStyle
  2
Flat
 70
     0
 71
     2
 72
     1
 73
     1
 90
        2
 40
-0.6
 41
30.0
 62
     5
 63
     7
421
 16777215
 74
     0
 91
        4
 64
     7
 65
   257
 75
     1
175
     1
 42
1.0
 92
        8
 66
     7
 43
1.0
 76
     1
 77
     6
 78
     2
 67
     7
 79
     5
170
     0
171
     0
290
     0
174
     0
 93
       13
 44
0.0
173
     0
291
     1
 45
0.0
1001
ACAD
1000
AcDbSavedByObjectVersion
1070
     0
  0
VISUALSTYLE
  5
C7
102
{ACAD_XDICTIONARY
360
1B3
102
}
102
{ACAD_REACTORS
330
26
102
}
330
26
100
AcDbVisualStyle
  2
FlatWithEdges
 70
     1
 71
     2
 72
     1
 73
     1
 90
        2
 40
-0.6
 41
30.0
 62
     5
 63
     7
421
 16777215
 74
     1
 91
        4
 64
     7
 65
   257
 75
     1
175
     1
 42
1.0
 92
        0
 66
   257
 43
1.0
 76
     1
 77
     6
 78
     2
 67
     7
 79
     5
170
     0
171
     0
290
     0
174
     0
 93
       13
 44
0.0
173
     0
291
     1
 45
0.0
1001
ACAD
1000
AcDbSavedByObjectVersion
1070
     0
  0
VISUALSTYLE
  5
C8
102
{ACAD_XDICTIONARY
360
1B5
102
}
102
{ACAD_REACTORS
330
26
102
}
330
26
100
AcDbVisualStyle
  2
Gouraud
 70
     2
 71
     2
 72
     2
 73
     1
 90
        2
 40
-0.6
 41
30.0
 62
     5
 63
     7
421
 16777215
 74
     0
 91
        4
 64
     7
 65
   257
 75
     1
175
     1
 42
1.0
 92
        0
 66
     7
 43
1.0
 76
     1
 77
     6
 78
     2
 67
     7
 79
     5
170
     0
171
     0
290
     0
174
     0
 93
       13
 44
0.0
173
     0
291
     1
 45
0.0
1001
ACAD
1000
AcDbSavedByObjectVersion
1070
     0
  0
VISUALSTYLE
  5
C9
102
{ACAD_XDICTIONARY
360
1B7
102
}
102
{ACAD_REACTORS
330
26
102
}
330
26
100
AcDbVisualStyle
  2
GouraudWithEdges
 70
     3
 71
     2
 72
     2
 73
     1
 90
        2
 40
-0.6
 41
30.0
 62
     5
 63
     7
421
 16777215
 74
     1
 91
        4
 64
     7
 65
   257
 75
     1
175
     1
 42
1.0
 92
        0
 66
   257
 43
1.0
 76
     1
 77
     6
 78
     2
 67
     7
 79
     5
170
     0
171
     0
290
     0
174
     0
 93
       13
 44
0.0
173
     0
291
     1
 45
0.0
1001
ACAD
1000
AcDbSavedByObjectVersion
1070
     0
  0
VISUALSTYLE
  5
D0
102
{ACAD_XDICTIONARY
360
1C5
102
}
102
{ACAD_REACTORS
330
26
102
}
330
26
100
AcDbVisualStyle
  2
Linepattern
 70
    14
 71
     2
 72
     2
 73
     0
 90
        0
 40
-0.6
 41
-30.0
 62
     5
 63
     7
421
 16777215
 74
     1
 91
        4
 64
     7
 65
   257
 75
     7
175
     7
 42
1.0
 92
        8
 66
     7
 43
1.0
 76
     1
 77
     6
 78
     2
 67
     7
 79
     5
170
     0
171
     0
290
     0
174
     0
 93
        1
 44
0.0
173
     0
291
     1
 45
0.0
1001
ACAD
1000
AcDbSavedByObjectVersion
1070
     0
  0
VISUALSTYLE
  5
3C
102
{ACAD_XDICTIONARY
360
1AD
102
}
102
{ACAD_REACTORS
330
26
102
}
330
26
100
AcDbVisualStyle
  2
Realistic
 70
     8
 71
     2
 72
     2
 73
     1
 90
        0
 40
-0.6
 41
-30.0
 62
     5
 63
     7
421
 16777215
 74
     1
 91
        0
 64
     7
 65
   257
 75
     1
175
     1
 42
1.0
 92
        8
 66
     8
424
  7895160
 43
1.0
 76
     1
 77
     6
 78
     2
 67
     7
 79
     5
170
     0
171
     0
290
     0
174
     0
 93
       13
 44
0.0
173
     0
291
     0
 45
0.0
1001
ACAD
1000
AcDbSavedByObjectVersion
1070
     0
  0
VISUALSTYLE
  5
CF
102
{ACAD_XDICTIONARY
360
1C3
102
}
102
{ACAD_REACTORS
330
26
102
}
330
26
100
AcDbVisualStyle
  2
Thicken
 70
    13
 71
     2
 72
     2
 73
     0
 90
        0
 40
-0.6
 41
-30.0
 62
     5
 63
     7
421
 16777215
 74
     1
 91
        4
 64
     7
 65
   257
 75
     1
175
     1
 42
1.0
 92
       12
 66
     7
 43
1.0
 76
     1
 77
     6
 78
     2
 67
     7
 79
     5
170
     0
171
     0
290
     0
174
     0
 93
        1
 44
0.0
173
     0
291
     1
 45
0.0
1001
ACAD
1000
AcDbSavedByObjectVersion
1070
     0
  0
DICTIONARYVAR
  5
1A4
102
{ACAD_REACTORS
330
C2
102
}
330
C2
100
DictionaryVariables
280
     0
  1
STANDARD
  0
DICTIONARYVAR
  5
C3
102
{ACAD_REACTORS
330
C2
102
}
330
C2
100
DictionaryVariables
280
     0
  1
STANDARD
  0
DICTIONARYVAR
  5
C4
102
{ACAD_REACTORS
330
C2
102
}
330
C2
100
DictionaryVariables
280
     0
  1
4
  0
DICTIONARY
  5
1A9
330
3B
100
AcDbDictionary
280
     1
281
     1
  3
ACAD_ROUNDTRIP_2008_TABLESTYLE_CELLSTYLEMAP
360
1AB
  3
ACAD_XREC_ROUNDTRIP
360
1AA
  0
DICTIONARY
  5
1A7
330
25
100
AcDbDictionary
280
     1
281
     1
  3
ACAD_XREC_ROUNDTRIP
360
1A8
  0
DICTIONARY
  5
1BB
330
CB
100
AcDbDictionary
280
     1
281
     1
  3
ACAD_XREC_ROUNDTRIP
360
1BC
  0
DICTIONARY
  5
1AF
330
3D
100
AcDbDictionary
280
     1
281
     1
  3
ACAD_XREC_ROUNDTRIP
360
1B0
  0
DICTIONARY
  5
1B9
330
CA
100
AcDbDictionary
280
     1
281
     1
  3
ACAD_XREC_ROUNDTRIP
360
1BA
  0
DICTIONARY
  5
1C1
330
CE
100
AcDbDictionary
280
     1
281
     1
  3
ACAD_XREC_ROUNDTRIP
360
1C2
  0
DICTIONARY
  5
1C9
330
D2
100
AcDbDictionary
280
     1
281
     1
  3
ACAD_XREC_ROUNDTRIP
360
1CA
  0
DICTIONARY
  5
1BD
330
CC
100
AcDbDictionary
280
     1
281
     1
  3
ACAD_XREC_ROUNDTRIP
360
1BE
  0
DICTIONARY
  5
1BF
330
CD
100
AcDbDictionary
280
     1
281
     1
  3
ACAD_XREC_ROUNDTRIP
360
1C0
  0
DICTIONARY
  5
1C7
330
D1
100
AcDbDictionary
280
     1
281
     1
  3
ACAD_XREC_ROUNDTRIP
360
1C8
  0
DICTIONARY
  5
1B1
330
C6
100
AcDbDictionary
280
     1
281
     1
  3
ACAD_XREC_ROUNDTRIP
360
1B2
  0
DICTIONARY
  5
1B3
330
C7
100
AcDbDictionary
280
     1
281
     1
  3
ACAD_XREC_ROUNDTRIP
360
1B4
  0
DICTIONARY
  5
1B5
330
C8
100
AcDbDictionary
280
     1
281
     1
  3
ACAD_XREC_ROUNDTRIP
360
1B6
  0
DICTIONARY
  5
1B7
330
C9
100
AcDbDictionary
280
     1
281
     1
  3
ACAD_XREC_ROUNDTRIP
360
1B8
  0
DICTIONARY
  5
1C5
330
D0
100
AcDbDictionary
280
     1
281
     1
  3
ACAD_XREC_ROUNDTRIP
360
1C6
  0
DICTIONARY
  5
1AD
330
3C
100
AcDbDictionary
280
     1
281
     1
  3
ACAD_XREC_ROUNDTRIP
360
1AE
  0
DICTIONARY
  5
1C3
330
CF
100
AcDbDictionary
280
     1
281
     1
  3
ACAD_XREC_ROUNDTRIP
360
1C4
  0
CELLSTYLEMAP
  5
1AB
102
{ACAD_REACTORS
330
1A9
102
}
330
1A9
100
AcDbCellStyleMap
 90
        3
300
CELLSTYLE
  1
TABLEFORMAT_BEGIN
 90
        5
170
     1
 91
        0
 92
        0
 62
   257
 93
        1
300
CONTENTFORMAT
  1
CONTENTFORMAT_BEGIN
 90
        0
 91
        0
 92
      512
 93
        0
300

 40
0.0
140
1.0
 94
        5
 62
     0
340
1C
144
6.0
309
CONTENTFORMAT_END
171
     1
301
MARGIN
  1
CELLMARGIN_BEGIN
 40
1.5
 40
1.5
 40
1.5
 40
1.5
 40
4.5
 40
4.5
309
CELLMARGIN_END
 94
        6
 95
        1
302
GRIDFORMAT
  1
GRIDFORMAT_BEGIN
 90
        0
 91
        1
 62
     0
 92
       -2
340
0
 93
        0
 40
0.045
309
GRIDFORMAT_END
 95
        2
302
GRIDFORMAT
  1
GRIDFORMAT_BEGIN
 90
        0
 91
        1
 62
     0
 92
       -2
340
0
 93
        0
 40
0.045
309
GRIDFORMAT_END
 95
        4
302
GRIDFORMAT
  1
GRIDFORMAT_BEGIN
 90
        0
 91
        1
 62
     0
 92
       -2
340
0
 93
        0
 40
0.045
309
GRIDFORMAT_END
 95
        8
302
GRIDFORMAT
  1
GRIDFORMAT_BEGIN
 90
        0
 91
        1
 62
     0
 92
       -2
340
0
 93
        0
 40
0.045
309
GRIDFORMAT_END
 95
       16
302
GRIDFORMAT
  1
GRIDFORMAT_BEGIN
 90
        0
 91
        1
 62
     0
 92
       -2
340
0
 93
        0
 40
0.045
309
GRIDFORMAT_END
 95
       32
302
GRIDFORMAT
  1
GRIDFORMAT_BEGIN
 90
        0
 91
        1
 62
     0
 92
       -2
340
0
 93
        0
 40
0.045
309
GRIDFORMAT_END
309
TABLEFORMAT_END
  1
CELLSTYLE_BEGIN
 90
        1
 91
        1
300
_TITLE
309
CELLSTYLE_END
300
CELLSTYLE
  1
TABLEFORMAT_BEGIN
 90
        5
170
     1
 91
        0
 92
        0
 62
   257
 93
        1
300
CONTENTFORMAT
  1
CONTENTFORMAT_BEGIN
 90
        0
 91
        0
 92
      512
 93
        0
300

 40
0.0
140
1.0
 94
        5
 62
     0
340
1C
144
4.5
309
CONTENTFORMAT_END
171
     1
301
MARGIN
  1
CELLMARGIN_BEGIN
 40
1.5
 40
1.5
 40
1.5
 40
1.5
 40
4.5
 40
4.5
309
CELLMARGIN_END
 94
        6
 95
        1
302
GRIDFORMAT
  1
GRIDFORMAT_BEGIN
 90
        0
 91
        1
 62
     0
 92
       -2
340
0
 93
        0
 40
0.045
309
GRIDFORMAT_END
 95
        2
302
GRIDFORMAT
  1
GRIDFORMAT_BEGIN
 90
        0
 91
        1
 62
     0
 92
       -2
340
0
 93
        0
 40
0.045
309
GRIDFORMAT_END
 95
        4
302
GRIDFORMAT
  1
GRIDFORMAT_BEGIN
 90
        0
 91
        1
 62
     0
 92
       -2
340
0
 93
        0
 40
0.045
309
GRIDFORMAT_END
 95
        8
302
GRIDFORMAT
  1
GRIDFORMAT_BEGIN
 90
        0
 91
        1
 62
     0
 92
       -2
340
0
 93
        0
 40
0.045
309
GRIDFORMAT_END
 95
       16
302
GRIDFORMAT
  1
GRIDFORMAT_BEGIN
 90
        0
 91
        1
 62
     0
 92
       -2
340
0
 93
        0
 40
0.045
309
GRIDFORMAT_END
 95
       32
302
GRIDFORMAT
  1
GRIDFORMAT_BEGIN
 90
        0
 91
        1
 62
     0
 92
       -2
340
0
 93
        0
 40
0.045
309
GRIDFORMAT_END
309
TABLEFORMAT_END
  1
CELLSTYLE_BEGIN
 90
        2
 91
        1
300
_HEADER
309
CELLSTYLE_END
300
CELLSTYLE
  1
TABLEFORMAT_BEGIN
 90
        5
170
     1
 91
        0
 92
        0
 62
   257
 93
        1
300
CONTENTFORMAT
  1
CONTENTFORMAT_BEGIN
 90
        0
 91
        0
 92
      512
 93
        0
300

 40
0.0
140
1.0
 94
        2
 62
     0
340
1C
144
4.5
309
CONTENTFORMAT_END
171
     1
301
MARGIN
  1
CELLMARGIN_BEGIN
 40
1.5
 40
1.5
 40
1.5
 40
1.5
 40
4.5
 40
4.5
309
CELLMARGIN_END
 94
        6
 95
        1
302
GRIDFORMAT
  1
GRIDFORMAT_BEGIN
 90
        0
 91
        1
 62
     0
 92
       -2
340
0
 93
        0
 40
0.045
309
GRIDFORMAT_END
 95
        2
302
GRIDFORMAT
  1
GRIDFORMAT_BEGIN
 90
        0
 91
        1
 62
     0
 92
       -2
340
0
 93
        0
 40
0.045
309
GRIDFORMAT_END
 95
        4
302
GRIDFORMAT
  1
GRIDFORMAT_BEGIN
 90
        0
 91
        1
 62
     0
 92
       -2
340
0
 93
        0
 40
0.045
309
GRIDFORMAT_END
 95
        8
302
GRIDFORMAT
  1
GRIDFORMAT_BEGIN
 90
        0
 91
        1
 62
     0
 92
       -2
340
0
 93
        0
 40
0.045
309
GRIDFORMAT_END
 95
       16
302
GRIDFORMAT
  1
GRIDFORMAT_BEGIN
 90
        0
 91
        1
 62
     0
 92
       -2
340
0
 93
        0
 40
0.045
309
GRIDFORMAT_END
 95
       32
302
GRIDFORMAT
  1
GRIDFORMAT_BEGIN
 90
        0
 91
        1
 62
     0
 92
       -2
340
0
 93
        0
 40
0.045
309
GRIDFORMAT_END
309
TABLEFORMAT_END
  1
CELLSTYLE_BEGIN
 90
        3
 91
        2
300
_DATA
309
CELLSTYLE_END
  0
XRECORD
  5
1AA
102
{ACAD_REACTORS
330
1A9
102
}
330
1A9
100
AcDbXrecord
280
     1
102
ACAD_ROUNDTRIP_PRE2007_TABLESTYLE
 90
      512
 91
        0
  1

 92
      512
 93
        0
  2

 94
      512
 95
        0
  3

  0
XRECORD
  5
1A8
102
{ACAD_REACTORS
330
1A7
102
}
330
1A7
100
AcDbXrecord
280
     1
102
RTVSPropertyOp0
 70
     1
102
RTVSPropertyOp1
 70
     1
102
RTVSPropertyOp2
 70
     1
102
RTVSPropertyOp3
 70
     1
102
RTVSPropertyOp4
 70
     1
102
RTVSPropertyOp5
 70
     1
102
RTVSPropertyOp6
 70
     1
102
RTVSPropertyOp7
 70
     1
102
RTVSPropertyOp8
 70
     1
102
RTVSPropertyOp9
 70
     1
102
RTVSPropertyOp10
 70
     1
102
RTVSPropertyOp11
 70
     1
102
RTVSPropertyOp12
 70
     1
102
RTVSPropertyOp13
 70
     1
102
RTVSPropertyOp14
 70
     1
102
RTVSPropertyOp15
 70
     1
102
RTVSPropertyOp16
 70
     1
102
RTVSPropertyOp17
 70
     1
102
RTVSPropertyOp18
 70
     1
102
RTVSPropertyOp19
 70
     1
102
RTVSPropertyOp20
 70
     1
102
RTVSPropertyOp21
 70
     1
102
RTVSPropertyOp22
 70
     1
102
RTVSPropertyOp23
 70
     1
102
RTVSPropertyOp24
 70
     1
102
RTVSPropertyOp25
 70
     1
102
RTVSPropertyOp26
 70
     1
102
RTVSPropertyOp27
 70
     1
  0
XRECORD
  5
1BC
102
{ACAD_REACTORS
330
1BB
102
}
330
1BB
100
AcDbXrecord
280
     1
102
RTVSPropertyOp0
 70
     1
102
RTVSPropertyOp1
 70
     1
102
RTVSPropertyOp2
 70
     1
102
RTVSPropertyOp3
 70
     1
102
RTVSPropertyOp4
 70
     1
102
RTVSPropertyOp5
 70
     1
102
RTVSPropertyOp6
 70
     1
102
RTVSPropertyOp7
 70
     1
102
RTVSPropertyOp8
 70
     1
102
RTVSPropertyOp9
 70
     1
102
RTVSPropertyOp10
 70
     1
102
RTVSPropertyOp11
 70
     1
102
RTVSPropertyOp12
 70
     1
102
RTVSPropertyOp13
 70
     1
102
RTVSPropertyOp14
 70
     1
102
RTVSPropertyOp15
 70
     1
102
RTVSPropertyOp16
 70
     1
102
RTVSPropertyOp17
 70
     1
102
RTVSPropertyOp18
 70
     1
102
RTVSPropertyOp19
 70
     1
102
RTVSPropertyOp20
 70
     1
102
RTVSPropertyOp21
 70
     1
102
RTVSPropertyOp22
 70
     1
102
RTVSPropertyOp23
 70
     1
102
RTVSPropertyOp24
 70
     1
102
RTVSPropertyOp25
 70
     1
102
RTVSPropertyOp26
 70
     1
102
RTVSPropertyOp27
 70
     1
  0
XRECORD
  5
1B0
102
{ACAD_REACTORS
330
1AF
102
}
330
1AF
100
AcDbXrecord
280
     1
102
RTVSPropertyOp0
 70
     1
102
RTVSPropertyOp1
 70
     1
102
RTVSPropertyOp2
 70
     1
102
RTVSPropertyOp3
 70
     1
102
RTVSPropertyOp4
 70
     1
102
RTVSPropertyOp5
 70
     1
102
RTVSPropertyOp6
 70
     1
102
RTVSPropertyOp7
 70
     1
102
RTVSPropertyOp8
 70
     1
102
RTVSPropertyOp9
 70
     1
102
RTVSPropertyOp10
 70
     1
102
RTVSPropertyOp11
 70
     1
102
RTVSPropertyOp12
 70
     1
102
RTVSPropertyOp13
 70
     1
102
RTVSPropertyOp14
 70
     1
102
RTVSPropertyOp15
 70
     1
102
RTVSPropertyOp16
 70
     1
102
RTVSPropertyOp17
 70
     1
102
RTVSPropertyOp18
 70
     1
102
RTVSPropertyOp19
 70
     1
102
RTVSPropertyOp20
 70
     1
102
RTVSPropertyOp21
 70
     1
102
RTVSPropertyOp22
 70
     1
102
RTVSPropertyOp23
 70
     1
102
RTVSPropertyOp24
 70
     1
102
RTVSPropertyOp25
 70
     1
102
RTVSPropertyOp26
 70
     1
102
RTVSPropertyOp27
 70
     1
  0
XRECORD
  5
1BA
102
{ACAD_REACTORS
330
1B9
102
}
330
1B9
100
AcDbXrecord
280
     1
102
RTVSPropertyOp0
 70
     1
102
RTVSPropertyOp1
 70
     1
102
RTVSPropertyOp2
 70
     1
102
RTVSPropertyOp3
 70
     1
102
RTVSPropertyOp4
 70
     1
102
RTVSPropertyOp5
 70
     1
102
RTVSPropertyOp6
 70
     1
102
RTVSPropertyOp7
 70
     1
102
RTVSPropertyOp8
 70
     1
102
RTVSPropertyOp9
 70
     1
102
RTVSPropertyOp10
 70
     1
102
RTVSPropertyOp11
 70
     1
102
RTVSPropertyOp12
 70
     1
102
RTVSPropertyOp13
 70
     1
102
RTVSPropertyOp14
 70
     1
102
RTVSPropertyOp15
 70
     1
102
RTVSPropertyOp16
 70
     1
102
RTVSPropertyOp17
 70
     1
102
RTVSPropertyOp18
 70
     1
102
RTVSPropertyOp19
 70
     1
102
RTVSPropertyOp20
 70
     1
102
RTVSPropertyOp21
 70
     1
102
RTVSPropertyOp22
 70
     1
102
RTVSPropertyOp23
 70
     1
102
RTVSPropertyOp24
 70
     1
102
RTVSPropertyOp25
 70
     1
102
RTVSPropertyOp26
 70
     1
102
RTVSPropertyOp27
 70
     1
  0
XRECORD
  5
1C2
102
{ACAD_REACTORS
330
1C1
102
}
330
1C1
100
AcDbXrecord
280
     1
102
RTVSPropertyOp0
 70
     1
102
RTVSPropertyOp1
 70
     1
102
RTVSPropertyOp2
 70
     1
102
RTVSPropertyOp3
 70
     1
102
RTVSPropertyOp4
 70
     1
102
RTVSPropertyOp5
 70
     1
102
RTVSPropertyOp6
 70
     1
102
RTVSPropertyOp7
 70
     1
102
RTVSPropertyOp8
 70
     1
102
RTVSPropertyOp9
 70
     1
102
RTVSPropertyOp10
 70
     1
102
RTVSPropertyOp11
 70
     1
102
RTVSPropertyOp12
 70
     1
102
RTVSPropertyOp13
 70
     1
102
RTVSPropertyOp14
 70
     1
102
RTVSPropertyOp15
 70
     1
102
RTVSPropertyOp16
 70
     1
102
RTVSPropertyOp17
 70
     1
102
RTVSPropertyOp18
 70
     1
102
RTVSPropertyOp19
 70
     1
102
RTVSPropertyOp20
 70
     1
102
RTVSPropertyOp21
 70
     1
102
RTVSPropertyOp22
 70
     1
102
RTVSPropertyOp23
 70
     1
102
RTVSPropertyOp24
 70
     1
102
RTVSPropertyOp25
 70
     1
102
RTVSPropertyOp26
 70
     1
102
RTVSPropertyOp27
 70
     1
  0
XRECORD
  5
1CA
102
{ACAD_REACTORS
330
1C9
102
}
330
1C9
100
AcDbXrecord
280
     1
102
RTVSPropertyOp0
 70
     1
102
RTVSPropertyOp1
 70
     1
102
RTVSPropertyOp2
 70
     1
102
RTVSPropertyOp3
 70
     1
102
RTVSPropertyOp4
 70
     1
102
RTVSPropertyOp5
 70
     1
102
RTVSPropertyOp6
 70
     1
102
RTVSPropertyOp7
 70
     1
102
RTVSPropertyOp8
 70
     1
102
RTVSPropertyOp9
 70
     1
102
RTVSPropertyOp10
 70
     1
102
RTVSPropertyOp11
 70
     1
102
RTVSPropertyOp12
 70
     1
102
RTVSPropertyOp13
 70
     1
102
RTVSPropertyOp14
 70
     1
102
RTVSPropertyOp15
 70
     1
102
RTVSPropertyOp16
 70
     1
102
RTVSPropertyOp17
 70
     1
102
RTVSPropertyOp18
 70
     1
102
RTVSPropertyOp19
 70
     1
102
RTVSPropertyOp20
 70
     1
102
RTVSPropertyOp21
 70
     1
102
RTVSPropertyOp22
 70
     1
102
RTVSPropertyOp23
 70
     1
102
RTVSPropertyOp24
 70
     1
102
RTVSPropertyOp25
 70
     1
102
RTVSPropertyOp26
 70
     1
102
RTVSPropertyOp27
 70
     1
  0
XRECORD
  5
1BE
102
{ACAD_REACTORS
330
1BD
102
}
330
1BD
100
AcDbXrecord
280
     1
102
RTVSPropertyOp0
 70
     1
102
RTVSPropertyOp1
 70
     1
102
RTVSPropertyOp2
 70
     1
102
RTVSPropertyOp3
 70
     1
102
RTVSPropertyOp4
 70
     1
102
RTVSPropertyOp5
 70
     1
102
RTVSPropertyOp6
 70
     1
102
RTVSPropertyOp7
 70
     1
102
RTVSPropertyOp8
 70
     1
102
RTVSPropertyOp9
 70
     1
102
RTVSPropertyOp10
 70
     1
102
RTVSPropertyOp11
 70
     1
102
RTVSPropertyOp12
 70
     1
102
RTVSPropertyOp13
 70
     1
102
RTVSPropertyOp14
 70
     1
102
RTVSPropertyOp15
 70
     1
102
RTVSPropertyOp16
 70
     1
102
RTVSPropertyOp17
 70
     1
102
RTVSPropertyOp18
 70
     1
102
RTVSPropertyOp19
 70
     1
102
RTVSPropertyOp20
 70
     1
102
RTVSPropertyOp21
 70
     1
102
RTVSPropertyOp22
 70
     1
102
RTVSPropertyOp23
 70
     1
102
RTVSPropertyOp24
 70
     1
102
RTVSPropertyOp25
 70
     1
102
RTVSPropertyOp26
 70
     1
102
RTVSPropertyOp27
 70
     1
  0
XRECORD
  5
1C0
102
{ACAD_REACTORS
330
1BF
102
}
330
1BF
100
AcDbXrecord
280
     1
102
RTVSPropertyOp0
 70
     1
102
RTVSPropertyOp1
 70
     1
102
RTVSPropertyOp2
 70
     1
102
RTVSPropertyOp3
 70
     1
102
RTVSPropertyOp4
 70
     1
102
RTVSPropertyOp5
 70
     1
102
RTVSPropertyOp6
 70
     1
102
RTVSPropertyOp7
 70
     1
102
RTVSPropertyOp8
 70
     1
102
RTVSPropertyOp9
 70
     1
102
RTVSPropertyOp10
 70
     1
102
RTVSPropertyOp11
 70
     1
102
RTVSPropertyOp12
 70
     1
102
RTVSPropertyOp13
 70
     1
102
RTVSPropertyOp14
 70
     1
102
RTVSPropertyOp15
 70
     1
102
RTVSPropertyOp16
 70
     1
102
RTVSPropertyOp17
 70
     1
102
RTVSPropertyOp18
 70
     1
102
RTVSPropertyOp19
 70
     1
102
RTVSPropertyOp20
 70
     1
102
RTVSPropertyOp21
 70
     1
102
RTVSPropertyOp22
 70
     1
102
RTVSPropertyOp23
 70
     1
102
RTVSPropertyOp24
 70
     1
102
RTVSPropertyOp25
 70
     1
102
RTVSPropertyOp26
 70
     1
102
RTVSPropertyOp27
 70
     1
  0
XRECORD
  5
1C8
102
{ACAD_REACTORS
330
1C7
102
}
330
1C7
100
AcDbXrecord
280
     1
102
RTVSPropertyOp0
 70
     1
102
RTVSPropertyOp1
 70
     1
102
RTVSPropertyOp2
 70
     1
102
RTVSPropertyOp3
 70
     1
102
RTVSPropertyOp4
 70
     1
102
RTVSPropertyOp5
 70
     1
102
RTVSPropertyOp6
 70
     1
102
RTVSPropertyOp7
 70
     1
102
RTVSPropertyOp8
 70
     1
102
RTVSPropertyOp9
 70
     1
102
RTVSPropertyOp10
 70
     1
102
RTVSPropertyOp11
 70
     1
102
RTVSPropertyOp12
 70
     1
102
RTVSPropertyOp13
 70
     1
102
RTVSPropertyOp14
 70
     1
102
RTVSPropertyOp15
 70
     1
102
RTVSPropertyOp16
 70
     1
102
RTVSPropertyOp17
 70
     1
102
RTVSPropertyOp18
 70
     1
102
RTVSPropertyOp19
 70
     1
102
RTVSPropertyOp20
 70
     1
102
RTVSPropertyOp21
 70
     1
102
RTVSPropertyOp22
 70
     1
102
RTVSPropertyOp23
 70
     1
102
RTVSPropertyOp24
 70
     1
102
RTVSPropertyOp25
 70
     1
102
RTVSPropertyOp26
 70
     1
102
RTVSPropertyOp27
 70
     1
  0
XRECORD
  5
1B2
102
{ACAD_REACTORS
330
1B1
102
}
330
1B1
100
AcDbXrecord
280
     1
102
RTVSPropertyOp0
 70
     1
102
RTVSPropertyOp1
 70
     1
102
RTVSPropertyOp2
 70
     1
102
RTVSPropertyOp3
 70
     1
102
RTVSPropertyOp4
 70
     1
102
RTVSPropertyOp5
 70
     1
102
RTVSPropertyOp6
 70
     1
102
RTVSPropertyOp7
 70
     1
102
RTVSPropertyOp8
 70
     1
102
RTVSPropertyOp9
 70
     1
102
RTVSPropertyOp10
 70
     1
102
RTVSPropertyOp11
 70
     1
102
RTVSPropertyOp12
 70
     1
102
RTVSPropertyOp13
 70
     1
102
RTVSPropertyOp14
 70
     1
102
RTVSPropertyOp15
 70
     1
102
RTVSPropertyOp16
 70
     1
102
RTVSPropertyOp17
 70
     1
102
RTVSPropertyOp18
 70
     1
102
RTVSPropertyOp19
 70
     1
102
RTVSPropertyOp20
 70
     1
102
RTVSPropertyOp21
 70
     1
102
RTVSPropertyOp22
 70
     1
102
RTVSPropertyOp23
 70
     1
102
RTVSPropertyOp24
 70
     1
102
RTVSPropertyOp25
 70
     1
102
RTVSPropertyOp26
 70
     1
102
RTVSPropertyOp27
 70
     1
  0
XRECORD
  5
1B4
102
{ACAD_REACTORS
330
1B3
102
}
330
1B3
100
AcDbXrecord
280
     1
102
RTVSPropertyOp0
 70
     1
102
RTVSPropertyOp1
 70
     1
102
RTVSPropertyOp2
 70
     1
102
RTVSPropertyOp3
 70
     1
102
RTVSPropertyOp4
 70
     1
102
RTVSPropertyOp5
 70
     1
102
RTVSPropertyOp6
 70
     1
102
RTVSPropertyOp7
 70
     1
102
RTVSPropertyOp8
 70
     1
102
RTVSPropertyOp9
 70
     1
102
RTVSPropertyOp10
 70
     1
102
RTVSPropertyOp11
 70
     1
102
RTVSPropertyOp12
 70
     1
102
RTVSPropertyOp13
 70
     1
102
RTVSPropertyOp14
 70
     1
102
RTVSPropertyOp15
 70
     1
102
RTVSPropertyOp16
 70
     1
102
RTVSPropertyOp17
 70
     1
102
RTVSPropertyOp18
 70
     1
102
RTVSPropertyOp19
 70
     1
102
RTVSPropertyOp20
 70
     1
102
RTVSPropertyOp21
 70
     1
102
RTVSPropertyOp22
 70
     1
102
RTVSPropertyOp23
 70
     1
102
RTVSPropertyOp24
 70
     1
102
RTVSPropertyOp25
 70
     1
102
RTVSPropertyOp26
 70
     1
102
RTVSPropertyOp27
 70
     1
  0
XRECORD
  5
1B6
102
{ACAD_REACTORS
330
1B5
102
}
330
1B5
100
AcDbXrecord
280
     1
102
RTVSPropertyOp0
 70
     1
102
RTVSPropertyOp1
 70
     1
102
RTVSPropertyOp2
 70
     1
102
RTVSPropertyOp3
 70
     1
102
RTVSPropertyOp4
 70
     1
102
RTVSPropertyOp5
 70
     1
102
RTVSPropertyOp6
 70
     1
102
RTVSPropertyOp7
 70
     1
102
RTVSPropertyOp8
 70
     1
102
RTVSPropertyOp9
 70
     1
102
RTVSPropertyOp10
 70
     1
102
RTVSPropertyOp11
 70
     1
102
RTVSPropertyOp12
 70
     1
102
RTVSPropertyOp13
 70
     1
102
RTVSPropertyOp14
 70
     1
102
RTVSPropertyOp15
 70
     1
102
RTVSPropertyOp16
 70
     1
102
RTVSPropertyOp17
 70
     1
102
RTVSPropertyOp18
 70
     1
102
RTVSPropertyOp19
 70
     1
102
RTVSPropertyOp20
 70
     1
102
RTVSPropertyOp21
 70
     1
102
RTVSPropertyOp22
 70
     1
102
RTVSPropertyOp23
 70
     1
102
RTVSPropertyOp24
 70
     1
102
RTVSPropertyOp25
 70
     1
102
RTVSPropertyOp26
 70
     1
102
RTVSPropertyOp27
 70
     1
  0
XRECORD
  5
1B8
102
{ACAD_REACTORS
330
1B7
102
}
330
1B7
100
AcDbXrecord
280
     1
102
RTVSPropertyOp0
 70
     1
102
RTVSPropertyOp1
 70
     1
102
RTVSPropertyOp2
 70
     1
102
RTVSPropertyOp3
 70
     1
102
RTVSPropertyOp4
 70
     1
102
RTVSPropertyOp5
 70
     1
102
RTVSPropertyOp6
 70
     1
102
RTVSPropertyOp7
 70
     1
102
RTVSPropertyOp8
 70
     1
102
RTVSPropertyOp9
 70
     1
102
RTVSPropertyOp10
 70
     1
102
RTVSPropertyOp11
 70
     1
102
RTVSPropertyOp12
 70
     1
102
RTVSPropertyOp13
 70
     1
102
RTVSPropertyOp14
 70
     1
102
RTVSPropertyOp15
 70
     1
102
RTVSPropertyOp16
 70
     1
102
RTVSPropertyOp17
 70
     1
102
RTVSPropertyOp18
 70
     1
102
RTVSPropertyOp19
 70
     1
102
RTVSPropertyOp20
 70
     1
102
RTVSPropertyOp21
 70
     1
102
RTVSPropertyOp22
 70
     1
102
RTVSPropertyOp23
 70
     1
102
RTVSPropertyOp24
 70
     1
102
RTVSPropertyOp25
 70
     1
102
RTVSPropertyOp26
 70
     1
102
RTVSPropertyOp27
 70
     1
  0
XRECORD
  5
1C6
102
{ACAD_REACTORS
330
1C5
102
}
330
1C5
100
AcDbXrecord
280
     1
102
RTVSPropertyOp0
 70
     1
102
RTVSPropertyOp1
 70
     1
102
RTVSPropertyOp2
 70
     1
102
RTVSPropertyOp3
 70
     1
102
RTVSPropertyOp4
 70
     1
102
RTVSPropertyOp5
 70
     1
102
RTVSPropertyOp6
 70
     1
102
RTVSPropertyOp7
 70
     1
102
RTVSPropertyOp8
 70
     1
102
RTVSPropertyOp9
 70
     1
102
RTVSPropertyOp10
 70
     1
102
RTVSPropertyOp11
 70
     1
102
RTVSPropertyOp12
 70
     1
102
RTVSPropertyOp13
 70
     1
102
RTVSPropertyOp14
 70
     1
102
RTVSPropertyOp15
 70
     1
102
RTVSPropertyOp16
 70
     1
102
RTVSPropertyOp17
 70
     1
102
RTVSPropertyOp18
 70
     1
102
RTVSPropertyOp19
 70
     1
102
RTVSPropertyOp20
 70
     1
102
RTVSPropertyOp21
 70
     1
102
RTVSPropertyOp22
 70
     1
102
RTVSPropertyOp23
 70
     1
102
RTVSPropertyOp24
 70
     1
102
RTVSPropertyOp25
 70
     1
102
RTVSPropertyOp26
 70
     1
102
RTVSPropertyOp27
 70
     1
  0
XRECORD
  5
1AE
102
{ACAD_REACTORS
330
1AD
102
}
330
1AD
100
AcDbXrecord
280
     1
102
RTVSPropertyOp0
 70
     1
102
RTVSPropertyOp1
 70
     1
102
RTVSPropertyOp2
 70
     1
102
RTVSPropertyOp3
 70
     1
102
RTVSPropertyOp4
 70
     1
102
RTVSPropertyOp5
 70
     1
102
RTVSPropertyOp6
 70
     1
102
RTVSPropertyOp7
 70
     1
102
RTVSPropertyOp8
 70
     1
102
RTVSPropertyOp9
 70
     1
102
RTVSPropertyOp10
 70
     1
102
RTVSPropertyOp11
 70
     1
102
RTVSPropertyOp12
 70
     1
102
RTVSPropertyOp13
 70
     1
102
RTVSPropertyOp14
 70
     1
102
RTVSPropertyOp15
 70
     1
102
RTVSPropertyOp16
 70
     1
102
RTVSPropertyOp17
 70
     1
102
RTVSPropertyOp18
 70
     1
102
RTVSPropertyOp19
 70
     1
102
RTVSPropertyOp20
 70
     1
102
RTVSPropertyOp21
 70
     1
102
RTVSPropertyOp22
 70
     1
102
RTVSPropertyOp23
 70
     1
102
RTVSPropertyOp24
 70
     1
102
RTVSPropertyOp25
 70
     1
102
RTVSPropertyOp26
 70
     1
102
RTVSPropertyOp27
 70
     1
  0
XRECORD
  5
1C4
102
{ACAD_REACTORS
330
1C3
102
}
330
1C3
100
AcDbXrecord
280
     1
102
RTVSPropertyOp0
 70
     1
102
RTVSPropertyOp1
 70
     1
102
RTVSPropertyOp2
 70
     1
102
RTVSPropertyOp3
 70
     1
102
RTVSPropertyOp4
 70
     1
102
RTVSPropertyOp5
 70
     1
102
RTVSPropertyOp6
 70
     1
102
RTVSPropertyOp7
 70
     1
102
RTVSPropertyOp8
 70
     1
102
RTVSPropertyOp9
 70
     1
102
RTVSPropertyOp10
 70
     1
102
RTVSPropertyOp11
 70
     1
102
RTVSPropertyOp12
 70
     1
102
RTVSPropertyOp13
 70
     1
102
RTVSPropertyOp14
 70
     1
102
RTVSPropertyOp15
 70
     1
102
RTVSPropertyOp16
 70
     1
102
RTVSPropertyOp17
 70
     1
102
RTVSPropertyOp18
 70
     1
102
RTVSPropertyOp19
 70
     1
102
RTVSPropertyOp20
 70
     1
102
RTVSPropertyOp21
 70
     1
102
RTVSPropertyOp22
 70
     1
102
RTVSPropertyOp23
 70
     1
102
RTVSPropertyOp24
 70
     1
102
RTVSPropertyOp25
 70
     1
102
RTVSPropertyOp26
 70
     1
102
RTVSPropertyOp27
 70
     1
  0
ENDSEC
  0
EOF
