  0
SECTION
  2
HEADER
  9
$ACADVER
  1
AC1018
  9
$ACADMAINTVER
 70
   104
  9
$DWGCODEPAGE
  3
ANSI_936
  9
$LASTSAVEDBY
  1
yuqin.cai
  9
$INSBASE
 10
0.0
 20
0.0
 30
0.0
  9
$EXTMIN
 10
30479.62913151469
 20
66.99999999
 30
-0.00000001
  9
$EXTMAX
 10
31644.63045155036
 20
1722.666666666667
 30
0.00000001
  9
$LIMMIN
 10
0.0
 20
0.0
  9
$LIMMAX
 10
297.0
 20
210.0
  9
$ORTHOMODE
 70
     0
  9
$REGENMODE
 70
     1
  9
$FILLMODE
 70
     1
  9
$QTEXTMODE
 70
     0
  9
$MIRRTEXT
 70
     0
  9
$LTSCALE
 40
16.335
  9
$ATTMODE
 70
     1
  9
$TEXTSIZE
 40
0.2
  9
$TRACEWID
 40
0.05
  9
$TEXTSTYLE
  7
STANDARD
  9
$CLAYER
  8
0
  9
$CELTYPE
  6
BYLAYER
  9
$CECOLOR
 62
   256
  9
$CELTSCALE
 40
1.0
  9
$DISPSILH
 70
     0
  9
$DIMSCALE
 40
1.0
  9
$DIMASZ
 40
3.5
  9
$DIMEXO
 40
1.0
  9
$DIMDLI
 40
11.286
  9
$DIMRND
 40
0.0
  9
$DIMDLE
 40
0.0
  9
$DIMEXE
 40
1.5
  9
$DIMTP
 40
0.01
  9
$DIMTM
 40
0.01
  9
$DIMTXT
 40
3.5
  9
$DIMCEN
 40
2.673
  9
$DIMTSZ
 40
0.0
  9
$DIMTOL
 70
     1
  9
$DIMLIM
 70
     0
  9
$DIMTIH
 70
     1
  9
$DIMTOH
 70
     1
  9
$DIMSE1
 70
     0
  9
$DIMSE2
 70
     0
  9
$DIMTAD
 70
     0
  9
$DIMZIN
 70
     0
  9
$DIMBLK
  1

  9
$DIMASO
 70
     1
  9
$DIMSHO
 70
     1
  9
$DIMPOST
  1

  9
$DIMAPOST
  1

  9
$DIMALT
 70
     0
  9
$DIMALTD
 70
     2
  9
$DIMALTF
 40
25.4
  9
$DIMLFAC
 40
1.0
  9
$DIMTOFL
 70
     0
  9
$DIMTVP
 40
0.0
  9
$DIMTIX
 70
     0
  9
$DIMSOXD
 70
     0
  9
$DIMSAH
 70
     0
  9
$DIMBLK1
  1

  9
$DIMBLK2
  1

  9
$DIMSTYLE
  2
STANDARD
  9
$DIMCLRD
 70
     0
  9
$DIMCLRE
 70
     0
  9
$DIMCLRT
 70
     0
  9
$DIMTFAC
 40
1.0
  9
$DIMGAP
 40
0.625
  9
$DIMJUST
 70
     0
  9
$DIMSD1
 70
     0
  9
$DIMSD2
 70
     0
  9
$DIMTOLJ
 70
     1
  9
$DIMTZIN
 70
     0
  9
$DIMALTZ
 70
     0
  9
$DIMALTTZ
 70
     0
  9
$DIMUPT
 70
     0
  9
$DIMDEC
 70
     4
  9
$DIMTDEC
 70
     4
  9
$DIMALTU
 70
     2
  9
$DIMALTTD
 70
     2
  9
$DIMTXSTY
  7
STANDARD
  9
$DIMAUNIT
 70
     0
  9
$DIMADEC
 70
     0
  9
$DIMALTRND
 40
0.0
  9
$DIMAZIN
 70
     0
  9
$DIMDSEP
 70
    44
  9
$DIMATFIT
 70
     3
  9
$DIMFRAC
 70
     0
  9
$DIMLDRBLK
  1

  9
$DIMLUNIT
 70
     2
  9
$DIMLWD
 70
    -2
  9
$DIMLWE
 70
    -2
  9
$DIMTMOVE
 70
     0
  9
$LUNITS
 70
     2
  9
$LUPREC
 70
     4
  9
$SKETCHINC
 40
0.1
  9
$FILLETRAD
 40
0.0
  9
$AUNITS
 70
     0
  9
$AUPREC
 70
     0
  9
$MENU
  1
.
  9
$ELEVATION
 40
0.0
  9
$PELEVATION
 40
0.0
  9
$THICKNESS
 40
0.0
  9
$LIMCHECK
 70
     0
  9
$CHAMFERA
 40
0.0
  9
$CHAMFERB
 40
0.0
  9
$CHAMFERC
 40
0.0
  9
$CHAMFERD
 40
0.0
  9
$SKPOLY
 70
     0
  9
$TDCREATE
 40
2458249.037099549
  9
$TDUCREATE
 40
2458248.703766215
  9
$TDUPDATE
 40
2458508.504416146
  9
$TDUUPDATE
 40
2458508.171082812
  9
$TDINDWG
 40
0.0823360995
  9
$TDUSRTIMER
 40
0.0823360995
  9
$USRTIMER
 70
     1
  9
$ANGBASE
 50
0.0
  9
$ANGDIR
 70
     0
  9
$PDMODE
 70
     3
  9
$PDSIZE
 40
8.0
  9
$PLINEWID
 40
0.0
  9
$SPLFRAME
 70
     0
  9
$SPLINETYPE
 70
     6
  9
$SPLINESEGS
 70
     8
  9
$HANDSEED
  5
533C
  9
$SURFTAB1
 70
     6
  9
$SURFTAB2
 70
     6
  9
$SURFTYPE
 70
     6
  9
$SURFU
 70
     6
  9
$SURFV
 70
     6
  9
$UCSBASE
  2

  9
$UCSNAME
  2

  9
$UCSORG
 10
0.0
 20
0.0
 30
0.0
  9
$UCSXDIR
 10
1.0
 20
0.0
 30
0.0
  9
$UCSYDIR
 10
0.0
 20
1.0
 30
0.0
  9
$UCSORTHOREF
  2

  9
$UCSORTHOVIEW
 70
     0
  9
$UCSORGTOP
 10
0.0
 20
0.0
 30
0.0
  9
$UCSORGBOTTOM
 10
0.0
 20
0.0
 30
0.0
  9
$UCSORGLEFT
 10
0.0
 20
0.0
 30
0.0
  9
$UCSORGRIGHT
 10
0.0
 20
0.0
 30
0.0
  9
$UCSORGFRONT
 10
0.0
 20
0.0
 30
0.0
  9
$UCSORGBACK
 10
0.0
 20
0.0
 30
0.0
  9
$PUCSBASE
  2

  9
$PUCSNAME
  2

  9
$PUCSORG
 10
0.0
 20
0.0
 30
0.0
  9
$PUCSXDIR
 10
1.0
 20
0.0
 30
0.0
  9
$PUCSYDIR
 10
0.0
 20
1.0
 30
0.0
  9
$PUCSORTHOREF
  2

  9
$PUCSORTHOVIEW
 70
     0
  9
$PUCSORGTOP
 10
0.0
 20
0.0
 30
0.0
  9
$PUCSORGBOTTOM
 10
0.0
 20
0.0
 30
0.0
  9
$PUCSORGLEFT
 10
0.0
 20
0.0
 30
0.0
  9
$PUCSORGRIGHT
 10
0.0
 20
0.0
 30
0.0
  9
$PUCSORGFRONT
 10
0.0
 20
0.0
 30
0.0
  9
$PUCSORGBACK
 10
0.0
 20
0.0
 30
0.0
  9
$USERI1
 70
     0
  9
$USERI2
 70
     0
  9
$USERI3
 70
     0
  9
$USERI4
 70
     0
  9
$USERI5
 70
     0
  9
$USERR1
 40
0.0
  9
$USERR2
 40
0.0
  9
$USERR3
 40
0.0
  9
$USERR4
 40
0.0
  9
$USERR5
 40
0.0
  9
$WORLDVIEW
 70
     1
  9
$SHADEDGE
 70
     3
  9
$SHADEDIF
 70
    70
  9
$TILEMODE
 70
     1
  9
$MAXACTVP
 70
    64
  9
$PINSBASE
 10
0.0
 20
0.0
 30
0.0
  9
$PLIMCHECK
 70
     0
  9
$PEXTMIN
 10
1.000000000000000E+20
 20
1.000000000000000E+20
 30
1.000000000000000E+20
  9
$PEXTMAX
 10
-1.000000000000000E+20
 20
-1.000000000000000E+20
 30
-1.000000000000000E+20
  9
$PLIMMIN
 10
0.0
 20
0.0
  9
$PLIMMAX
 10
12.0
 20
9.0
  9
$UNITMODE
 70
     0
  9
$VISRETAIN
 70
     1
  9
$PLINEGEN
 70
     0
  9
$PSLTSCALE
 70
     1
  9
$TREEDEPTH
 70
  3020
  9
$CMLSTYLE
  2
Standard
  9
$CMLJUST
 70
     0
  9
$CMLSCALE
 40
1.0
  9
$PROXYGRAPHICS
 70
     1
  9
$MEASUREMENT
 70
     1
  9
$CELWEIGHT
370
    -1
  9
$ENDCAPS
280
     0
  9
$JOINSTYLE
280
     0
  9
$LWDISPLAY
290
     0
  9
$INSUNITS
 70
     4
  9
$HYPERLINKBASE
  1

  9
$STYLESHEET
  1

  9
$XEDIT
290
     1
  9
$CEPSNTYPE
380
     0
  9
$PSTYLEMODE
290
     1
  9
$FINGERPRINTGUID
  2
{F2F7998C-03D6-45F9-A96A-CF8146DB7140}
  9
$VERSIONGUID
  2
{151661BF-1C39-443D-A09F-5BA57E52AB29}
  9
$EXTNAMES
290
     1
  9
$PSVPSCALE
 40
0.0
  9
$OLESTARTUP
290
     0
  9
$SORTENTS
280
   127
  9
$INDEXCTL
280
     0
  9
$HIDETEXT
280
     1
  9
$XCLIPFRAME
290
     0
  9
$HALOGAP
280
     0
  9
$OBSCOLOR
 70
   257
  9
$OBSLTYPE
280
     0
  9
$INTERSECTIONDISPLAY
280
     0
  9
$INTERSECTIONCOLOR
 70
   257
  9
$DIMASSOC
280
     2
  9
$PROJECTNAME
  1

  0
ENDSEC
  0
SECTION
  2
CLASSES
  0
CLASS
  1
ACDBDICTIONARYWDFLT
  2
AcDbDictionaryWithDefault
  3
ObjectDBX Classes
 90
        0
 91
        1
280
     0
281
     0
  0
CLASS
  1
MATERIAL
  2
AcDbMaterial
  3
ObjectDBX Classes
 90
        0
 91
        3
280
     0
281
     0
  0
CLASS
  1
VISUALSTYLE
  2
AcDbVisualStyle
  3
ObjectDBX Classes
 90
     4095
 91
       26
280
     0
281
     0
  0
CLASS
  1
TABLESTYLE
  2
AcDbTableStyle
  3
ObjectDBX Classes
 90
     4095
 91
        1
280
     0
281
     0
  0
CLASS
  1
SCALE
  2
AcDbScale
  3
ObjectDBX Classes
 90
     1153
 91
       33
280
     0
281
     0
  0
CLASS
  1
MLEADERSTYLE
  2
AcDbMLeaderStyle
  3
ACDB_MLEADERSTYLE_CLASS
 90
     4095
 91
        1
280
     0
281
     0
  0
CLASS
  1
CELLSTYLEMAP
  2
AcDbCellStyleMap
  3
ObjectDBX Classes
 90
     1152
 91
        2
280
     0
281
     0
  0
CLASS
  1
DICTIONARYVAR
  2
AcDbDictionaryVar
  3
ObjectDBX Classes
 90
        0
 91
        4
280
     0
281
     0
  0
CLASS
  1
DIMASSOC
  2
AcDbDimAssoc
  3
"ZcDbDimAssoc|Product Desc:     ZwDim ZRX App For Dimension|Company:          ZwSoft.|WEB Address:      www.zwsoft.com"
 90
        0
 91
        0
280
     0
281
     0
  0
CLASS
  1
SORTENTSTABLE
  2
AcDbSortentsTable
  3
ObjectDBX Classes
 90
        0
 91
        1
280
     0
281
     0
  0
CLASS
  1
SUN
  2
AcDbSun
  3
SCENEOE
 90
     1024
 91
        1
280
     0
281
     0
  0
ENDSEC
  0
SECTION
  2
TABLES
  0
TABLE
  2
VPORT
  5
8
330
0
100
AcDbSymbolTable
 70
     3
  0
VPORT
  5
5338
330
8
100
AcDbSymbolTableRecord
100
AcDbViewportTableRecord
  2
*Active
 70
     0
 10
0.0
 20
0.0
 11
1.0
 21
1.0
 12
35534.78464170297
 22
1027.084401888427
 13
0.0
 23
0.0
 14
1.0
 24
1.0
 15
0.0
 25
0.0
 16
0.0
 26
0.0
 36
1.0
 17
0.0
 27
0.0
 37
0.0
 40
4720.216518004614
 41
3.584
 42
50.0
 43
0.0
 44
0.0
 50
0.0
 51
0.0
 71
     0
 72
   100
 73
     1
 74
     1
 75
     1
 76
     0
 77
     0
 78
     0
281
     0
 65
     1
110
0.0
120
0.0
130
0.0
111
1.0
121
0.0
131
0.0
112
0.0
122
1.0
132
0.0
 79
     0
146
0.0
  0
ENDTAB
  0
TABLE
  2
LTYPE
  5
5
330
0
100
AcDbSymbolTable
 70
     2
  0
LTYPE
  5
14
330
5
100
AcDbSymbolTableRecord
100
AcDbLinetypeTableRecord
  2
BYBLOCK
 70
     0
  3

 72
    65
 73
     0
 40
0.0
  0
LTYPE
  5
15
330
5
100
AcDbSymbolTableRecord
100
AcDbLinetypeTableRecord
  2
BYLAYER
 70
     0
  3

 72
    65
 73
     0
 40
0.0
  0
LTYPE
  5
16
330
5
100
AcDbSymbolTableRecord
100
AcDbLinetypeTableRecord
  2
CONTINUOUS
 70
     0
  3
Solid line
 72
    65
 73
     0
 40
0.0
  0
LTYPE
  5
517B
330
5
100
AcDbSymbolTableRecord
100
AcDbLinetypeTableRecord
  2
CENTER2
 70
     0
  3
Center (.5x) ___ _ ___ _ ___ _ ___ _ ___ _ ___
 72
    65
 73
     4
 40
28.575
 49
19.05
 74
     0
 49
-3.174999999999999
 74
     0
 49
3.174999999999999
 74
     0
 49
-3.174999999999999
 74
     0
  0
ENDTAB
  0
TABLE
  2
LAYER
  5
2
102
{ACAD_XDICTIONARY
360
38E
102
}
330
0
100
AcDbSymbolTable
 70
     8
  0
LAYER
  5
10
330
2
100
AcDbSymbolTableRecord
100
AcDbLayerTableRecord
  2
0
 70
     0
 62
     7
  6
CONTINUOUS
370
    -3
390
F
  0
LAYER
  5
351
330
2
100
AcDbSymbolTableRecord
100
AcDbLayerTableRecord
  2
Defpoints
 70
     0
 62
     7
  6
CONTINUOUS
290
     0
370
    -3
390
F
  0
LAYER
  5
4D2A
330
2
100
AcDbSymbolTableRecord
100
AcDbLayerTableRecord
  2
06___PRT_ALL_SURFS
 70
     0
 62
     7
  6
CONTINUOUS
370
    -3
390
F
  0
LAYER
  5
4D2B
330
2
100
AcDbSymbolTableRecord
100
AcDbLayerTableRecord
  2
02___PRT_ALL_AXES
 70
     0
 62
     7
  6
CONTINUOUS
370
    -3
390
F
  0
LAYER
  5
4D2C
330
2
100
AcDbSymbolTableRecord
100
AcDbLayerTableRecord
  2
_BLACK_HOLE
 70
     0
 62
     7
  6
CONTINUOUS
370
    -3
390
F
  0
LAYER
  5
517C
330
2
100
AcDbSymbolTableRecord
100
AcDbLayerTableRecord
  2
尺寸标注
 70
     0
 62
    80
  6
CONTINUOUS
370
    18
390
F
1001
AcAecLayerStandard
1000

1000

  0
LAYER
  5
517D
330
2
100
AcDbSymbolTableRecord
100
AcDbLayerTableRecord
  2
细实线
 70
     0
 62
   210
  6
CONTINUOUS
370
    18
390
F
1001
AcAecLayerStandard
1000

1000

  0
LAYER
  5
517E
330
2
100
AcDbSymbolTableRecord
100
AcDbLayerTableRecord
  2
中心线
 70
     0
 62
    10
  6
CENTER2
370
    18
390
F
1001
AcAecLayerStandard
1000

1000

  0
ENDTAB
  0
TABLE
  2
STYLE
  5
3
330
0
100
AcDbSymbolTable
 70
     3
  0
STYLE
  5
11
330
3
100
AcDbSymbolTableRecord
100
AcDbTextStyleTableRecord
  2
STANDARD
 70
     0
 40
0.0
 41
0.85
 50
0.0
 71
     0
 42
0.2
  3
txt
  4

  0
STYLE
  5
517F
330
3
100
AcDbSymbolTableRecord
100
AcDbTextStyleTableRecord
  2
Arial
 70
     0
 40
0.0
 41
1.0
 50
0.0
 71
     0
 42
2.5
  3
arial.ttf
  4

1001
ACAD
1000
Arial
1071
       34
  0
STYLE
  5
5180
330
3
100
AcDbSymbolTableRecord
100
AcDbTextStyleTableRecord
  2
TXT
 70
     0
 40
0.0
 41
1.0
 50
0.0
 71
     0
 42
2.5
  3
txt.shx
  4

  0
ENDTAB
  0
TABLE
  2
VIEW
  5
6
330
0
100
AcDbSymbolTable
 70
     0
  0
ENDTAB
  0
TABLE
  2
UCS
  5
7
330
0
100
AcDbSymbolTable
 70
     0
  0
ENDTAB
  0
TABLE
  2
APPID
  5
9
330
0
100
AcDbSymbolTable
 70
     8
  0
APPID
  5
1FF
330
9
100
AcDbSymbolTableRecord
100
AcDbRegAppTableRecord
  2
ACAD
 70
     0
  0
APPID
  5
343
330
9
100
AcDbSymbolTableRecord
100
AcDbRegAppTableRecord
  2
ACAD_MLEADERVER
 70
     0
  0
APPID
  5
389
330
9
100
AcDbSymbolTableRecord
100
AcDbRegAppTableRecord
  2
ACAD_DSTYLE_DIMJAG
 70
     0
  0
APPID
  5
38A
330
9
100
AcDbSymbolTableRecord
100
AcDbRegAppTableRecord
  2
ACAD_DSTYLE_DIMTALN
 70
     0
  0
APPID
  5
38B
330
9
100
AcDbSymbolTableRecord
100
AcDbRegAppTableRecord
  2
ACAD_PSEXT
 70
     0
  0
APPID
  5
38C
330
9
100
AcDbSymbolTableRecord
100
AcDbRegAppTableRecord
  2
AcAecLayerStandard
 70
     0
  0
APPID
  5
38D
330
9
100
AcDbSymbolTableRecord
100
AcDbRegAppTableRecord
  2
ACAD_DSTYLE_DIMBREAK
 70
     0
  0
APPID
  5
12E1
330
9
100
AcDbSymbolTableRecord
100
AcDbRegAppTableRecord
  2
ACAD_EXEMPT_FROM_CAD_STANDARDS
 70
     0
  0
ENDTAB
  0
TABLE
  2
DIMSTYLE
  5
A
330
0
100
AcDbSymbolTable
 70
     4
100
AcDbDimStyleTable
 71
     1
340
202
  0
DIMSTYLE
105
202
330
A
100
AcDbSymbolTableRecord
100
AcDbDimStyleTableRecord
  2
STANDARD
 70
     0
 41
3.5
 42
1.0
 44
1.5
 47
0.01
 48
0.01
 71
     1
 73
     0
 74
     0
 77
     1
 78
     8
140
3.5
147
0.625
271
     2
272
     2
278
    44
284
     8
340
11
  0
DIMSTYLE
105
5181
330
A
100
AcDbSymbolTableRecord
100
AcDbDimStyleTableRecord
  2
宋体
 70
     0
 40
0.5
 41
20.0
 42
0.0
 43
3.75
 44
10.0
 73
     0
 78
     8
140
30.0
141
0.0
143
0.03937007874016
147
20.0
171
     3
172
     1
271
     0
272
     0
274
     3
279
     1
284
     8
340
11
  0
DIMSTYLE
105
5182
330
A
100
AcDbSymbolTableRecord
100
AcDbDimStyleTableRecord
  2
Arial
 70
     0
 40
0.7
 41
20.0
 42
0.0
 43
3.75
 44
10.0
 73
     0
 78
     8
140
30.0
141
0.0
143
0.03937007874016
147
20.0
171
     3
172
     1
271
     0
272
     0
274
     3
279
     1
284
     8
340
517F
  0
DIMSTYLE
105
5183
330
A
100
AcDbSymbolTableRecord
100
AcDbDimStyleTableRecord
  2
TXT
 70
     0
 40
0.7
 41
20.0
 42
0.0
 43
3.75
 44
10.0
 73
     0
 78
     8
140
30.0
141
0.0
143
0.03937007874016
147
20.0
171
     3
172
     1
271
     0
272
     0
274
     3
279
     1
284
     8
340
5180
  0
ENDTAB
  0
TABLE
  2
BLOCK_RECORD
  5
1
330
0
100
AcDbSymbolTable
 70
    12
  0
BLOCK_RECORD
  5
200
102
{ACAD_XDICTIONARY
360
467B
102
}
330
1
100
AcDbSymbolTableRecord
100
AcDbBlockTableRecord
  2
*Model_Space
340
2EE
  0
BLOCK_RECORD
  5
201
330
1
100
AcDbSymbolTableRecord
100
AcDbBlockTableRecord
  2
*Paper_Space
340
2EF
  0
ENDTAB
  0
ENDSEC
  0
SECTION
  2
BLOCKS
  0
BLOCK
  5
20
330
200
100
AcDbEntity
  8
0
100
AcDbBlockBegin
  2
*Model_Space
 70
     0
 10
0.0
 20
0.0
 30
0.0
  3
*Model_Space
  1

  0
ENDBLK
  5
21
330
200
100
AcDbEntity
  8
0
100
AcDbBlockEnd
  0
BLOCK
  5
1C
330
201
100
AcDbEntity
 67
     1
  8
0
100
AcDbBlockBegin
  2
*Paper_Space
 70
     0
 10
0.0
 20
0.0
 30
0.0
  3
*Paper_Space
  1

  0
ENDBLK
  5
1D
330
201
100
AcDbEntity
 67
     1
  8
0
100
AcDbBlockEnd
  0
ENDSEC
  0
SECTION
  2
ENTITIES
  0
MTEXT
  5
399
330
200
100
AcDbEntity
  8
0
100
AcDbMText
 10
30795.07764527027
 20
1706.0
 30
0.0
 40
75.0
 41
29.92235472972973
 71
     1
 72
     5
  1
{\fSimSun|b0|i0|c134|p2;SCALE  1:1}
 73
     1
 44
1.0
  0
LINE
  5
521F
330
200
100
AcDbEntity
  8
0
  6
Continuous
 62
     7
100
AcDbLine
 10
30775.62963372421
 20
936.2372854460787
 30
0.0
 11
30538.62963372421
 21
936.2372854460787
 31
0.0
  0
LWPOLYLINE
  5
5220
330
200
100
AcDbEntity
  8
06___PRT_ALL_SURFS
  6
Continuous
 62
     7
100
AcDbPolyline
 90
        5
 70
     0
 43
0.0
 10
30489.69236953751
 20
1225.321027453879
 10
30493.38454632441
 20
1155.570632802978
 10
30502.79607399551
 20
1083.296648654678
 10
30517.93673733901
 20
1009.961863580078
 10
30538.62963372421
 20
936.2372854460787
  0
LINE
  5
5221
330
200
100
AcDbEntity
  8
0
  6
Continuous
 62
     7
100
AcDbLine
 10
30479.62963372421
 20
1237.986033236079
 30
0.0
 11
30479.62963372421
 21
1280.237285446079
 31
0.0
  0
LINE
  5
5222
330
200
100
AcDbEntity
  8
0
  6
Continuous
 62
     7
100
AcDbLine
 10
30828.62963372421
 20
1286.237285446079
 30
0.0
 11
30485.62963372421
 21
1286.237285446079
 31
0.0
  0
LINE
  5
5223
330
200
100
AcDbEntity
  8
0
  6
Continuous
 62
     7
100
AcDbLine
 10
30824.56452329541
 20
1225.323481542679
 30
0.0
 11
30824.56689801841
 21
1225.321035149078
 31
0.0
  0
LINE
  5
5224
330
200
100
AcDbEntity
  8
0
  6
Continuous
 62
     7
100
AcDbLine
 10
30834.62963372421
 20
1237.986033483178
 30
0.0
 11
30834.62963372421
 21
1280.237285446079
 31
0.0
  0
LINE
  5
5225
330
200
100
AcDbEntity
  8
0
  6
Continuous
 62
     7
100
AcDbLine
 10
30824.56689790071
 20
1225.321027452978
 30
0.0
 11
30824.59923190961
 21
1225.864929890278
 31
0.0
  0
LWPOLYLINE
  5
5226
330
200
100
AcDbEntity
  8
0
  6
Continuous
 62
     7
100
AcDbPolyline
 90
        4
 70
     0
 43
0.0
 10
30824.59923190961
 20
1225.864929890278
 10
30825.22386250641
 20
1227.968259193579
 10
30826.55925500471
 20
1229.703098069378
 10
30828.42411386251
 20
1230.841835455178
  0
LINE
  5
5227
330
200
100
AcDbEntity
  8
0
  6
Continuous
 62
     7
100
AcDbLine
 10
30828.42411386251
 20
1230.841835455178
 30
0.0
 11
30829.21092181711
 21
1231.082190360678
 31
0.0
  0
LWPOLYLINE
  5
5228
330
200
100
AcDbEntity
  8
06___PRT_ALL_SURFS
  6
Continuous
 62
     7
100
AcDbPolyline
 90
        5
 70
     0
 43
0.0
 10
30775.62963372421
 20
936.2372854460787
 10
30796.32253009391
 20
1009.961863516078
 10
30811.46319343861
 20
1083.296648569378
 10
30820.87472111811
 20
1155.570632738379
 10
30824.56689791061
 20
1225.321027426278
  0
ARC
  5
5229
330
200
100
AcDbEntity
  8
0
  6
Continuous
 62
     7
100
AcDbCircle
 10
30486.63014094746
 20
1237.902177306935
 30
0.0
 40
7.001009422774713
100
AcDbArc
 50
179.3137533664002
 51
256.942050695053
  0
ARC
  5
522A
330
200
100
AcDbEntity
  8
0
  6
Continuous
 62
     7
100
AcDbCircle
 10
30483.69295409971
 20
1225.237285446079
 30
0.0
 40
6.0
100
AcDbArc
 50
0.7997029480025081
 51
76.94430294663371
  0
ARC
  5
522B
330
200
100
AcDbEntity
  8
0
  6
Continuous
 62
     7
100
AcDbCircle
 10
30485.62963372421
 20
1280.237285446079
 30
0.0
 40
6.0
100
AcDbArc
 50
90.0
 51
180.0
  0
ARC
  5
522C
330
200
100
AcDbEntity
  8
0
  6
Continuous
 62
     7
100
AcDbCircle
 10
30827.62963372421
 20
1237.901236965478
 30
0.0
 40
6.999999999999524
100
AcDbArc
 50
283.0557249388211
 51
0.0
  0
ARC
  5
522D
330
200
100
AcDbEntity
  8
0
  6
Continuous
 62
     7
100
AcDbCircle
 10
30828.62963372421
 20
1280.237285446079
 30
0.0
 40
6.0
100
AcDbArc
 50
0.0
 51
90.0
  0
LINE
  5
522E
330
200
100
AcDbEntity
  8
0
  6
Continuous
 62
     7
100
AcDbLine
 10
30489.69236979051
 20
1225.321027595078
 30
0.0
 11
30489.92408202871
 21
1225.561303246578
 31
0.0
  0
LINE
  5
522F
330
200
100
AcDbEntity
  8
0
  6
Continuous
 62
     7
100
AcDbLine
 10
30834.62963372421
 20
1237.986033483178
 30
0.0
 11
30479.62963368301
 21
1237.986028234878
 31
0.0
  0
LINE
  5
5230
330
200
100
AcDbEntity
  8
0
  6
Continuous
 62
     7
100
AcDbLine
 10
30489.92978055311
 20
1225.567540804678
 30
0.0
 11
30490.06361143121
 21
1225.720337269778
 31
0.0
  0
SPLINE
  5
5231
330
200
100
AcDbEntity
  8
0
  6
Continuous
 62
     7
100
AcDbSpline
210
0.0
220
0.0
230
1.0
 70
     8
 71
     3
 72
    51
 73
    47
 74
     0
 42
0.0000000001
 43
0.0000000001
 40
0.0
 40
0.0
 40
0.0
 40
0.0
 40
0.0002060388
 40
0.000699234
 40
0.0014883683
 40
0.0025742447
 40
0.0039565012
 40
0.0056344652
 40
0.0098746187
 40
0.0152885279
 40
0.0218652883
 40
0.0295872955
 40
0.0384348252
 40
0.0483862315
 40
0.059419109
 40
0.0846316511
 40
0.1138382483
 40
0.1467552271
 40
0.1830654925
 40
0.2224290983
 40
0.2644666602
 40
0.3087765854
 40
0.4025001933
 40
0.5000001937
 40
0.5975008011999999
 40
0.6912249942000001
 40
0.7355349628
 40
0.7775725046
 40
0.816935909
 40
0.8532461546
 40
0.8861628676999998
 40
0.9153690534999999
 40
0.9405811823
 40
0.9516139020999998
 40
0.9615652046999999
 40
0.9704127094
 40
0.9781347181999999
 40
0.9847114821999999
 40
0.9901253937999999
 40
0.9943655409999999
 40
0.9960435015999999
 40
0.9974257565
 40
0.9985116327
 40
0.9993007673000001
 40
0.9997939623999998
 40
1.0
 40
1.0
 40
1.0
 40
1.0
 10
30490.06361143121
 20
1225.720337269778
 30
0.0
 10
30490.07156480481
 20
1225.741865878878
 30
0.0
 10
30490.16648632071
 20
1225.757393144078
 30
0.0
 10
30490.31346152431
 20
1225.790082044279
 30
0.0
 10
30490.58477379971
 20
1225.815150780779
 30
0.0
 10
30490.94261647671
 20
1225.845308630978
 30
0.0
 10
30491.40504353221
 20
1225.873589838778
 30
0.0
 10
30492.21649333471
 20
1225.915309374378
 30
0.0
 10
30493.47832921261
 20
1225.963704510978
 30
0.0
 10
30495.28530314671
 20
1226.017468668178
 30
0.0
 10
30497.48057585491
 20
1226.069321843578
 30
0.0
 10
30500.05835325271
 20
1226.119078507078
 30
0.0
 10
30503.01216574871
 20
1226.166403175678
 30
0.0
 10
30506.33484021041
 20
1226.211387168778
 30
0.0
 10
30511.48038693591
 20
1226.270701345578
 30
0.0
 10
30518.77083518851
 20
1226.335905168478
 30
0.0
 10
30528.49903888561
 20
1226.399954285378
 30
0.0
 10
30539.46350346951
 20
1226.453032678179
 30
0.0
 10
30551.55940973211
 20
1226.496627615278
 30
0.0
 10
30564.67129412701
 20
1226.531232181079
 30
0.0
 10
30578.67428464761
 20
1226.557442752878
 30
0.0
 10
30598.73246726791
 20
1226.583407214978
 30
0.0
 10
30624.96864840181
 20
1226.600090663479
 30
0.0
 10
30657.12976612031
 20
1226.604734425879
 30
0.0
 10
30689.29094902241
 20
1226.600095372679
 30
0.0
 10
30715.52726779941
 20
1226.583406423579
 30
0.0
 10
30735.58551818981
 20
1226.557440872878
 30
0.0
 10
30749.58848887881
 20
1226.531232937279
 30
0.0
 10
30762.70034636471
 20
1226.496620136178
 30
0.0
 10
30774.79619844511
 20
1226.453037595778
 30
0.0
 10
30785.76058535441
 20
1226.399949197378
 30
0.0
 10
30795.48866761911
 20
1226.335905695978
 30
0.0
 10
30802.77900640421
 20
1226.270698704578
 30
0.0
 10
30807.92447799251
 20
1226.211386968078
 30
0.0
 10
30811.24712056441
 20
1226.166403145778
 30
0.0
 10
30814.20091889871
 20
1226.119078547478
 30
0.0
 10
30816.77869408991
 20
1226.069321698278
 30
0.0
 10
30818.97396764261
 20
1226.017468247678
 30
0.0
 10
30820.78094153201
 20
1225.963704190479
 30
0.0
 10
30822.04277662451
 20
1225.915309308778
 30
0.0
 10
30822.85422514421
 20
1225.873589959578
 30
0.0
 10
30823.31665169831
 20
1225.845308821178
 30
0.0
 10
30823.67449403621
 20
1225.815150999178
 30
0.0
 10
30823.94580670991
 20
1225.790082215678
 30
0.0
 10
30824.09278105731
 20
1225.757393337679
 30
0.0
 10
30824.18770321791
 20
1225.741865947379
 30
0.0
 10
30824.19565601721
 20
1225.720337269778
 30
0.0
  0
LINE
  5
5232
330
200
100
AcDbEntity
  8
0
  6
Continuous
 62
     7
100
AcDbLine
 10
30824.19565601721
 20
1225.720337269778
 30
0.0
 11
30824.32948689541
 21
1225.567540804678
 31
0.0
  0
LINE
  5
5233
330
200
100
AcDbEntity
  8
0
  6
Continuous
 62
     7
100
AcDbLine
 10
30824.32948689541
 20
1225.567540804678
 30
0.0
 11
30824.56688721541
 21
1225.321032886678
 31
0.0
  0
LINE
  5
5237
330
200
100
AcDbEntity
  8
06___PRT_ALL_SURFS
  6
Continuous
 62
     7
100
AcDbLine
 10
31644.63045154036
 20
1238.115817071579
 30
0.0
 11
31644.63045154036
 21
1280.237285446079
 31
0.0
  0
LWPOLYLINE
  5
5238
330
200
100
AcDbEntity
  8
0
  6
Continuous
 62
     7
100
AcDbPolyline
 90
        9
 70
     0
 43
0.0
 10
31644.63040116186
 20
1238.115867408778
 10
31644.42842932546
 20
1236.446492112478
 10
31643.91046352016
 20
1235.023809986278
 10
31643.13775352776
 20
1233.795095055179
 10
31642.17789489466
 20
1232.794184849078
 10
31641.09808328886
 20
1232.035145033978
 10
31639.95385680036
 20
1231.512719996578
 10
31638.79811106186
 20
1231.213950866578
 10
31638.58482881487
 20
1231.181239419679
  0
LINE
  5
5239
330
200
100
AcDbEntity
  8
0
  6
Continuous
 62
     7
100
AcDbLine
 10
31094.63045154036
 20
936.2372854460787
 30
0.0
 11
31502.64053609016
 21
936.2372854460787
 31
0.0
  0
LWPOLYLINE
  5
523A
330
200
100
AcDbEntity
  8
06___PRT_ALL_SURFS
  6
Continuous
 62
     7
100
AcDbPolyline
 90
        6
 70
     0
 43
0.0
 10
31633.56044572017
 20
1226.603166780378
 10
31616.85043598196
 20
1165.783820480178
 10
31594.92364023506
 20
1104.877472059978
 10
31568.32175205366
 20
1045.870042567578
 10
31537.20712296086
 20
989.1205689760786
 10
31502.63045154036
 20
936.2372854460787
  0
LINE
  5
523B
330
200
100
AcDbEntity
  8
0
  6
Continuous
 62
     7
100
AcDbLine
 10
31094.63045154036
 20
1280.237285446079
 30
0.0
 11
31644.63045154036
 21
1280.237285446079
 31
0.0
  0
LINE
  5
523C
330
200
100
AcDbEntity
  8
0
  6
Continuous
 62
     7
100
AcDbLine
 10
31094.63045154036
 20
1286.237285446079
 30
0.0
 11
31638.63045154036
 21
1286.237285446079
 31
0.0
  0
LINE
  5
523D
330
200
100
AcDbEntity
  8
0
  6
Continuous
 62
     7
100
AcDbLine
 10
31094.63045154036
 20
936.2372854460787
 30
0.0
 11
31094.63045154036
 21
1286.237285446079
 31
0.0
  0
ARC
  5
523E
330
200
100
AcDbEntity
  8
0
  6
Continuous
 62
     7
100
AcDbCircle
 10
31639.40290690396
 20
1225.237285446079
 30
0.0
 40
6.000000052299999
100
AcDbArc
 50
97.83649382301327
 51
166.8414233705206
  0
ARC
  5
523F
330
200
100
AcDbEntity
  8
0
  6
Continuous
 62
     7
100
AcDbCircle
 10
31638.63045154036
 20
1280.237285446079
 30
0.0
 40
6.0
100
AcDbArc
 50
0.0
 51
90.0
  0
SPLINE
  5
5240
330
200
100
AcDbEntity
  8
0
  6
Continuous
 62
     7
100
AcDbSpline
210
0.0
220
0.0
230
1.0
 70
     8
 71
     3
 72
     8
 73
     4
 74
     0
 42
0.0000000001
 43
0.0000000001
 40
0.0
 40
0.0
 40
0.0
 40
0.0
 40
1.0
 40
1.0
 40
1.0
 40
1.0
 10
31094.63045154036
 20
1237.931286487878
 30
0.0
 10
31198.59122069226
 20
1237.876473485779
 30
0.0
 10
31302.55202270176
 20
1237.923790377079
 30
0.0
 10
31406.51280138496
 20
1237.955769933078
 30
0.0
  0
SPLINE
  5
5241
330
200
100
AcDbEntity
  8
0
  6
Continuous
 62
     7
100
AcDbSpline
210
0.0
220
0.0
230
1.0
 70
     8
 71
     3
 72
     8
 73
     4
 74
     0
 42
0.0000000001
 43
0.0000000001
 40
0.0
 40
0.0
 40
0.0
 40
0.0
 40
1.0
 40
1.0
 40
1.0
 40
1.0
 10
31406.51280138496
 20
1237.955769933078
 30
0.0
 10
31426.52256583306
 20
1237.961990200679
 30
0.0
 10
31446.53232943066
 20
1237.971946185679
 30
0.0
 10
31466.54209030156
 20
1237.985431367379
 30
0.0
  0
LINE
  5
5242
330
200
100
AcDbEntity
  8
0
  6
Continuous
 62
     7
100
AcDbLine
 10
31467.13045154036
 20
1237.986033483278
 30
0.0
 11
31644.63039385156
 21
1238.115866803678
 31
0.0
  0
LINE
  5
5243
330
200
100
AcDbEntity
  8
0
  6
Continuous
 62
     7
100
AcDbLine
 10
31466.54209030156
 20
1237.985431367379
 30
0.0
 11
31467.13045154036
 21
1237.986033483278
 31
0.0
  0
LINE
  5
5244
330
200
100
AcDbEntity
  8
0
  6
Continuous
 62
     7
100
AcDbLine
 10
31466.54672667716
 20
1231.121044890379
 30
0.0
 11
31467.13983770456
 21
1231.121322561879
 31
0.0
  0
LINE
  5
5245
330
200
100
AcDbEntity
  8
0
  6
Continuous
 62
     7
100
AcDbLine
 10
31467.13983770456
 20
1231.121322561879
 30
0.0
 11
31638.58489271396
 21
1231.181245704278
 31
0.0
  0
SPLINE
  5
5246
330
200
100
AcDbEntity
  8
0
  6
Continuous
 62
     7
100
AcDbSpline
210
0.0
220
0.0
230
1.0
 70
     8
 71
     3
 72
     8
 73
     4
 74
     0
 42
0.0000000001
 43
0.0000000001
 40
0.0
 40
0.0
 40
0.0
 40
0.0
 40
1.0
 40
1.0
 40
1.0
 40
1.0
 10
31406.51492977076
 20
1231.107355274278
 30
0.0
 10
31426.52552905966
 20
1231.110226396678
 30
0.0
 10
31446.53612816756
 20
1231.114821034879
 30
0.0
 10
31466.54672669466
 20
1231.121044751579
 30
0.0
  0
SPLINE
  5
5247
330
200
100
AcDbEntity
  8
0
  6
Continuous
 62
     7
100
AcDbSpline
210
0.0
220
0.0
230
1.0
 70
     8
 71
     3
 72
     8
 73
     4
 74
     0
 42
0.0000000001
 43
0.0000000001
 40
0.0
 40
0.0
 40
0.0
 40
0.0
 40
1.0
 40
1.0
 40
1.0
 40
1.0
 10
31094.63045154056
 20
1231.096054279779
 30
0.0
 10
31198.59194127486
 20
1231.070758145478
 30
0.0
 10
31302.55343800567
 20
1231.092607044178
 30
0.0
 10
31406.51492977146
 20
1231.107355146779
 30
0.0
  0
LINE
  5
5248
330
200
100
AcDbEntity
  8
0
  6
Continuous
 62
     7
100
AcDbLine
 10
30834.62963372421
 20
617.0
 30
0.0
 11
30479.62963372421
 21
617.0
 31
0.0
  0
LINE
  5
5249
330
200
100
AcDbEntity
  8
0
  6
Continuous
 62
     7
100
AcDbLine
 10
30479.62963372421
 20
244.5
 30
0.0
 11
30479.62963372421
 21
617.0
 31
0.0
  0
LINE
  5
524A
330
200
100
AcDbEntity
  8
0
  6
Continuous
 62
     7
100
AcDbLine
 10
30485.6296337242
 20
244.5
 30
0.0
 11
30485.6296337242
 21
617.0
 31
0.0
  0
LINE
  5
524B
330
200
100
AcDbEntity
  8
0
  6
Continuous
 62
     7
100
AcDbLine
 10
30511.5068553925
 20
275.8086890523991
 30
0.0
 11
30511.5068553925
 21
356.0336732857977
 31
0.0
  0
LINE
  5
524C
330
200
100
AcDbEntity
  8
0
  6
Continuous
 62
     7
100
AcDbLine
 10
30527.54860584231
 20
372.7918953674016
 30
0.0
 11
30532.41244509731
 21
384.3450200283005
 31
0.0
  0
LINE
  5
524D
330
200
100
AcDbEntity
  8
0
  6
Continuous
 62
     7
100
AcDbLine
 10
30532.41256928251
 20
384.3452661297997
 30
0.0
 11
30532.41302964241
 21
384.346178447202
 31
0.0
  0
LINE
  5
524E
330
200
100
AcDbEntity
  8
0
  6
Continuous
 62
     7
100
AcDbLine
 10
30521.49946713881
 20
275.8086890523991
 30
0.0
 11
30521.49946713881
 21
356.0336733020013
 31
0.0
  0
LINE
  5
524F
330
200
100
AcDbEntity
  8
0
  6
Continuous
 62
     7
100
AcDbLine
 10
30523.90773367551
 20
281.4776558227022
 30
0.0
 11
30523.90773367551
 21
358.2324602775007
 31
0.0
  0
LINE
  5
5250
330
200
100
AcDbEntity
  8
0
  6
Continuous
 62
     7
100
AcDbLine
 10
30522.53100921531
 20
343.4439297220997
 30
0.0
 11
30522.55867638381
 21
344.8154144512009
 31
0.0
  0
LWPOLYLINE
  5
5251
330
200
100
AcDbEntity
  8
0
  6
Continuous
 62
     7
100
AcDbPolyline
 90
        3
 70
     0
 43
0.0
 10
30522.5586674428
 20
344.8150053505015
 10
30523.71975214641
 20
357.4807434511022
 10
30527.54860584231
 20
372.7918953674016
  0
LINE
  5
5252
330
200
100
AcDbEntity
  8
0
  6
Continuous
 62
     7
100
AcDbLine
 10
30544.8108996588
 20
399.4906142956024
 30
0.0
 11
30544.81608670981
 21
399.5083915891009
 31
0.0
  0
LINE
  5
5253
330
200
100
AcDbEntity
  8
0
  6
Continuous
 62
     7
100
AcDbLine
 10
30544.8160722357
 20
399.5083419721995
 30
0.0
 11
30545.08162289821
 21
400.4028866103981
 31
0.0
  0
LINE
  5
5254
330
200
100
AcDbEntity
  8
0
  6
Continuous
 62
     7
100
AcDbLine
 10
30545.08162289821
 20
400.4028866103981
 30
0.0
 11
30547.07363013541
 21
406.2838613224012
 31
0.0
  0
LINE
  5
5255
330
200
100
AcDbEntity
  8
0
  6
Continuous
 62
     7
100
AcDbLine
 10
30523.90773367551
 20
281.4776558227022
 30
0.0
 11
30521.49946713881
 21
275.8086890523991
 31
0.0
  0
LINE
  5
5256
330
200
100
AcDbEntity
  8
0
  6
Continuous
 62
     7
100
AcDbLine
 10
30539.31249492791
 20
386.2610064699002
 30
0.0
 11
30539.55547233051
 21
386.4098519574982
 31
0.0
  0
LINE
  5
5257
330
200
100
AcDbEntity
  8
0
  6
Continuous
 62
     7
100
AcDbLine
 10
30539.30369884451
 20
386.2559478182011
 30
0.0
 11
30539.31249492791
 21
386.2610064699002
 31
0.0
  0
LINE
  5
5258
330
200
100
AcDbEntity
  8
0
  6
Continuous
 62
     7
100
AcDbLine
 10
30538.27189612891
 20
385.7365483477006
 30
0.0
 11
30539.31230862851
 21
386.2608984913022
 31
0.0
  0
LINE
  5
5259
330
200
100
AcDbEntity
  8
0
  6
Continuous
 62
     7
100
AcDbLine
 10
30536.17247629811
 20
384.9749513346978
 30
0.0
 11
30538.27189612891
 21
385.7365483477006
 31
0.0
  0
LINE
  5
525A
330
200
100
AcDbEntity
  8
0
  6
Continuous
 62
     7
100
AcDbLine
 10
30533.59872067181
 20
384.3212899731006
 30
0.0
 11
30536.17247629811
 21
384.9749513346978
 31
0.0
  0
LINE
  5
525B
330
200
100
AcDbEntity
  8
0
  6
Continuous
 62
     7
100
AcDbLine
 10
30532.28181050701
 20
384.0347224159996
 30
0.0
 11
30533.60066550191
 21
384.3217086488003
 31
0.0
  0
LINE
  5
525C
330
200
100
AcDbEntity
  8
0
  6
Continuous
 62
     7
100
AcDbLine
 10
30609.43226530591
 20
371.9999998697022
 30
0.0
 11
30609.4322653035
 21
418.1310174852987
 31
0.0
  0
LINE
  5
525D
330
200
100
AcDbEntity
  8
0
  6
Continuous
 62
     7
100
AcDbLine
 10
30781.7640498194
 20
384.7027438383993
 30
0.0
 11
30781.53776284521
 21
384.4917966091998
 31
0.0
  0
LINE
  5
525E
330
200
100
AcDbEntity
  8
0
  6
Continuous
 62
     7
100
AcDbLine
 10
30704.82700214531
 20
369.9127512132
 30
0.0
 11
30704.82700214531
 21
418.1309695231975
 31
0.0
  0
LINE
  5
525F
330
200
100
AcDbEntity
  8
0
  6
Continuous
 62
     7
100
AcDbLine
 10
30479.62963372421
 20
244.5
 30
0.0
 11
30485.6296337242
 21
244.5
 31
0.0
  0
LINE
  5
5260
330
200
100
AcDbEntity
  8
0
  6
Continuous
 62
     7
100
AcDbLine
 10
30834.62963372421
 20
244.5
 30
0.0
 11
30828.6296337242
 21
244.5
 31
0.0
  0
LINE
  5
5261
330
200
100
AcDbEntity
  8
0
  6
Continuous
 62
     7
100
AcDbLine
 10
30790.35153377291
 20
357.4633555679975
 30
0.0
 11
30790.35153377291
 21
280.9512579107977
 31
0.0
  0
LINE
  5
5262
330
200
100
AcDbEntity
  8
0
  6
Continuous
 62
     7
100
AcDbLine
 10
30792.75980030961
 20
355.783708919902
 30
0.0
 11
30792.75980030961
 21
269.5693294556004
 31
0.0
  0
LINE
  5
5263
330
200
100
AcDbEntity
  8
0
  6
Continuous
 62
     7
100
AcDbLine
 10
30802.75241205591
 20
355.7837089099994
 30
0.0
 11
30802.75241205591
 21
269.5693294556004
 31
0.0
  0
LINE
  5
5264
330
200
100
AcDbEntity
  8
0
  6
Continuous
 62
     7
100
AcDbLine
 10
30828.6296337242
 20
617.0
 30
0.0
 11
30828.6296337242
 21
244.5
 31
0.0
  0
LINE
  5
5265
330
200
100
AcDbEntity
  8
0
  6
Continuous
 62
     7
100
AcDbLine
 10
30834.62963372421
 20
617.0
 30
0.0
 11
30834.62963372421
 21
244.5
 31
0.0
  0
ARC
  5
5266
330
200
100
AcDbEntity
  8
0
  6
Continuous
 62
     7
100
AcDbCircle
 10
29087.21203116101
 20
269.3994947772007
 30
0.0
 40
1705.5477776045
100
AcDbArc
 50
359.4742438171123
 51
0.0057053870068432
  0
ARC
  5
5267
330
200
100
AcDbEntity
  8
0
  6
Continuous
 62
     7
100
AcDbCircle
 10
29175.82247584061
 20
269.4270386352
 30
0.0
 40
1626.9299424377
100
AcDbArc
 50
359.4444250317532
 51
0.0050110720528143
  0
ARC
  5
5268
330
200
100
AcDbEntity
  8
0
  6
Continuous
 62
     7
100
AcDbCircle
 10
30016.71529534011
 20
553.0168780153981
 30
0.0
 40
549.9593558161
100
AcDbArc
 50
342.6666217441232
 51
343.7899592690917
  0
ARC
  5
5269
330
200
100
AcDbEntity
  8
0
  6
Continuous
 62
     7
100
AcDbCircle
 10
30027.4677962466
 20
309.7944371451013
 30
0.0
 40
496.2055930572
100
AcDbArc
 50
3.888589024509979
 51
4.048174820985328
  0
ARC
  5
526A
330
200
100
AcDbEntity
  8
0
  6
Continuous
 62
     7
100
AcDbCircle
 10
30040.89452984131
 20
310.7432237622997
 30
0.0
 40
482.7453787601
100
AcDbArc
 50
4.048346162895046
 51
4.182353274071081
  0
ARC
  5
526B
330
200
100
AcDbEntity
  8
0
  6
Continuous
 62
     7
100
AcDbCircle
 10
30114.71037038941
 20
316.4674145016979
 30
0.0
 40
408.7087692594999
100
AcDbArc
 50
4.136724817430848
 51
5.555387520597721
  0
ARC
  5
526C
330
200
100
AcDbEntity
  8
0
  6
Continuous
 62
     7
100
AcDbCircle
 10
30578.33383178101
 20
280.9565653407008
 30
0.0
 40
212.0177020584
100
AcDbArc
 50
355.7644898727612
 51
359.9985657171785
  0
ARC
  5
526D
330
200
100
AcDbEntity
  8
0
  6
Continuous
 62
     7
100
AcDbCircle
 10
30657.1296337242
 20
244.5
 30
0.0
 40
177.5
100
AcDbArc
 50
180.0
 51
0.0
  0
ARC
  5
526E
330
200
100
AcDbEntity
  8
0
  6
Continuous
 62
     7
100
AcDbCircle
 10
30657.1296337242
 20
244.5
 30
0.0
 40
171.5
100
AcDbArc
 50
180.0
 51
0.0
  0
ARC
  5
526F
330
200
100
AcDbEntity
  8
0
  6
Continuous
 62
     7
100
AcDbCircle
 10
30616.86774288391
 20
342.5482801386024
 30
0.0
 40
94.5045507777
100
AcDbArc
 50
152.518444018774
 51
153.6715885106611
  0
ARC
  5
5270
330
200
100
AcDbEntity
  8
0
  6
Continuous
 62
     7
100
AcDbCircle
 10
30616.10678585201
 20
342.9912590879976
 30
0.0
 40
93.57690451489999
100
AcDbArc
 50
178.3546434829943
 51
178.8847463100433
  0
ARC
  5
5271
330
200
100
AcDbEntity
  8
0
  6
Continuous
 62
     7
100
AcDbCircle
 10
30615.84434883501
 20
342.9961110341028
 30
0.0
 40
93.31442277639999
100
AcDbArc
 50
178.8845885423446
 51
179.7239619421861
  0
ARC
  5
5272
330
200
100
AcDbEntity
  8
0
  6
Continuous
 62
     7
100
AcDbCircle
 10
30622.43226489981
 20
418.1310666854987
 30
0.0
 40
13.0000003435
100
AcDbArc
 50
103.3468952768777
 51
180.0000054571894
  0
CIRCLE
  5
5273
330
200
100
AcDbEntity
  8
02___PRT_ALL_AXES
  6
Continuous
 62
     7
100
AcDbCircle
 10
30567.12963372421
 20
547.0
 30
0.0
 40
7.5
  0
ARC
  5
5274
330
200
100
AcDbEntity
  8
0
  6
Continuous
 62
     7
100
AcDbCircle
 10
32264.67768655901
 20
275.5978177846009
 30
0.0
 40
1743.1782321747
100
AcDbArc
 50
179.9930689623446
 51
180.7480022060753
  0
ARC
  5
5275
330
200
100
AcDbEntity
  8
0
  6
Continuous
 62
     7
100
AcDbCircle
 10
32160.29079368141
 20
275.5180990240988
 30
0.0
 40
1648.7839638965
100
AcDbArc
 50
179.9899019018918
 51
180.7929215121499
  0
ARC
  5
5276
330
200
100
AcDbEntity
  8
0
  6
Continuous
 62
     7
100
AcDbCircle
 10
31521.40393086201
 20
85.14537560740064
 30
0.0
 40
1020.7519756712
100
AcDbArc
 50
162.0216934551852
 51
162.7625495669514
  0
ARC
  5
5277
330
200
100
AcDbEntity
  8
0
  6
Continuous
 62
     7
100
AcDbCircle
 10
30742.06096976051
 20
281.2712625839995
 30
0.0
 40
218.1533337187
100
AcDbArc
 50
179.9457928830033
 51
186.0048267757517
  0
ARC
  5
5278
330
200
100
AcDbEntity
  8
0
  6
Continuous
 62
     7
100
AcDbCircle
 10
30715.51771827941
 20
337.7723120646006
 30
0.0
 40
178.1079304513
100
AcDbArc
 50
165.8265498253673
 51
168.4445495619928
  0
ARC
  5
5279
330
200
100
AcDbEntity
  8
0
  6
Continuous
 62
     7
100
AcDbCircle
 10
30691.82700298521
 20
418.1309708498011
 30
0.0
 40
13.0000003826
100
AcDbArc
 50
359.9999941532347
 51
76.65345254555169
  0
CIRCLE
  5
527A
330
200
100
AcDbEntity
  8
02___PRT_ALL_AXES
  6
Continuous
 62
     7
100
AcDbCircle
 10
30747.12963372421
 20
547.0
 30
0.0
 40
7.5
  0
SPLINE
  5
527B
330
200
100
AcDbEntity
  8
0
  6
Continuous
 62
     7
100
AcDbSpline
210
0.0
220
0.0
230
1.0
 70
     8
 71
     3
 72
    24
 73
    20
 74
     0
 42
0.0000000001
 43
0.0000000001
 40
0.0
 40
0.0
 40
0.0
 40
0.0
 40
0.0625655785
 40
0.125116601
 40
0.1876384049
 40
0.2189331553
 40
0.2502341155
 40
0.3127384867
 40
0.3752397029
 40
0.4997087833
 40
0.5622054739
 40
0.6247088778000001
 40
0.6872137776999999
 40
0.7497230971
 40
0.8122403976999999
 40
0.8435435690999998
 40
0.8748584054999998
 40
0.9374222435
 40
1.0
 40
1.0
 40
1.0
 40
1.0
 10
30789.77249122241
 20
265.2977250342992
 30
0.0
 10
30789.14880120721
 20
256.9002794353
 30
0.0
 10
30786.78808665951
 20
240.1642455046022
 30
0.0
 10
30779.6627460759
 20
215.8387963378009
 30
0.0
 10
30770.24143125871
 20
196.8471150518999
 30
0.0
 10
30760.36207938131
 20
183.1683623534009
 30
0.0
 10
30749.02604837811
 20
170.680896896898
 30
0.0
 10
30732.4975572048
 20
157.4055174591995
 30
0.0
 10
30702.69397128571
 20
141.6564821490028
 30
0.0
 10
30668.98371063071
 20
134.295597833101
 30
0.0
 10
30635.33540208991
 20
136.7773847581993
 30
0.0
 10
30610.79304624031
 20
143.2408568621977
 30
0.0
 10
30587.79704593471
 20
153.9638392861998
 30
0.0
 10
30567.13922912011
 20
168.7200283163984
 30
0.0
 10
30552.67942717901
 20
184.2483464796023
 30
0.0
 10
30543.43458557751
 20
198.3634738418986
 30
0.0
 10
30535.74486734201
 20
213.3853118835978
 30
0.0
 10
30528.90032012301
 20
233.4205952744996
 30
0.0
 10
30525.99498273671
 20
250.0747333051004
 30
0.0
 10
30525.10462461531
 20
258.4497526911
 30
0.0
  0
SPLINE
  5
527C
330
200
100
AcDbEntity
  8
0
  6
Continuous
 62
     7
100
AcDbSpline
210
0.0
220
0.0
230
1.0
 70
     8
 71
     3
 72
    26
 73
    22
 74
     0
 42
0.0000000001
 43
0.0000000001
 40
0.0
 40
0.0
 40
0.0
 40
0.0
 40
0.0312727053
 40
0.0625488265
 40
0.093825907
 40
0.1251031823
 40
0.187578413
 40
0.2500597132
 40
0.3125641498
 40
0.3750594365
 40
0.4375494074000001
 40
0.5000302534000002
 40
0.5625109376
 40
0.6250009762
 40
0.6874967611000001
 40
0.7500014924
 40
0.8124836920999999
 40
0.8749571478
 40
0.9062344184
 40
0.9375118994000001
 40
1.0
 40
1.0
 40
1.0
 40
1.0
 10
30792.68800381961
 20
253.7493070476994
 30
0.0
 10
30792.64945905071
 20
249.2747463443011
 30
0.0
 10
30792.12573158001
 20
240.3246340529004
 30
0.0
 10
30790.17009055601
 20
227.0273665798995
 30
0.0
 10
30787.07853044481
 20
213.9437489517004
 30
0.0
 10
30781.50041483301
 20
196.9299232190024
 30
0.0
 10
30771.55001145321
 20
176.7130268359978
 30
0.0
 10
30754.56353587831
 20
155.6923646157993
 30
0.0
 10
30733.81568045101
 20
138.432311549499
 30
0.0
 10
30710.15941924451
 20
125.4337666913998
 30
0.0
 10
30684.45641114831
 20
117.1919408196008
 30
0.0
 10
30657.60242511131
 20
114.2119396818016
 30
0.0
 10
30630.72761719281
 20
117.0066087398008
 30
0.0
 10
30604.97249198431
 20
125.0857398894004
 30
0.0
 10
30581.23297829371
 20
137.9315674011013
 30
0.0
 10
30560.37156595571
 20
155.052031877698
 30
0.0
 10
30543.21973978741
 20
175.9363173554011
 30
0.0
 10
30533.11595844021
 20
196.0785338643982
 30
0.0
 10
30527.43926971311
 20
213.0628470950978
 30
0.0
 10
30523.23705509061
 20
230.4686767757994
 30
0.0
 10
30521.76251979141
 20
243.9005761016997
 30
0.0
 10
30521.64800214961
 20
252.8410958008026
 30
0.0
  0
LINE
  5
527D
330
200
100
AcDbEntity
  8
0
  6
Continuous
 62
     7
100
AcDbLine
 10
30609.43258021651
 20
369.9121836975028
 30
0.0
 11
30609.43243163351
 21
371.9999998948988
 31
0.0
  0
SPLINE
  5
527E
330
200
100
AcDbEntity
  8
0
  6
Continuous
 62
     7
100
AcDbSpline
210
0.0
220
0.0
230
1.0
 70
     8
 71
     3
 72
    15
 73
    11
 74
     0
 42
0.0000000001
 43
0.0000000001
 40
0.0
 40
0.0
 40
0.0
 40
0.0
 40
0.1350402923
 40
0.2649434129
 40
0.3905626764
 40
0.5132826229000001
 40
0.6343303781000001
 40
0.7549721254000001
 40
0.8764750167
 40
1.0
 40
1.0
 40
1.0
 40
1.0
 10
30609.43242069661
 20
369.9121836698978
 30
0.0
 10
30609.43242175061
 20
366.5205670223004
 30
0.0
 10
30610.12700455021
 20
359.8455012092018
 30
0.0
 10
30613.11356407701
 20
350.436747899701
 30
0.0
 10
30617.73900334541
 20
342.0685491980985
 30
0.0
 10
30623.74973260101
 20
334.9266968423981
 30
0.0
 10
30630.90955478741
 20
329.136718653499
 30
0.0
 10
30639.01661809521
 20
324.8327525556997
 30
0.0
 10
30647.85571334611
 20
322.1441875929013
 30
0.0
 10
30654.02723085841
 20
321.5318763574978
 30
0.0
 10
30657.1296337242
 20
321.5318771226011
 30
0.0
  0
SPLINE
  5
527F
330
200
100
AcDbEntity
  8
0
  6
Continuous
 62
     7
100
AcDbSpline
210
0.0
220
0.0
230
1.0
 70
     8
 71
     3
 72
    15
 73
    11
 74
     0
 42
0.0000000001
 43
0.0000000001
 40
0.0
 40
0.0
 40
0.0
 40
0.0
 40
0.1235065806
 40
0.245003825
 40
0.3656491989
 40
0.4867059477000001
 40
0.6094366166
 40
0.7350638313
 40
0.8649679847999999
 40
1.0
 40
1.0
 40
1.0
 40
1.0
 10
30657.1296337242
 20
321.5318754436994
 30
0.0
 10
30660.23159854621
 20
321.5318762086026
 30
0.0
 10
30666.40254899091
 20
322.1440810718996
 30
0.0
 10
30675.24130011371
 20
324.8322392791997
 30
0.0
 10
30683.34870148271
 20
329.1361020113982
 30
0.0
 10
30690.50918914111
 20
334.9263213197992
 30
0.0
 10
30696.52045860521
 20
342.0687390091989
 30
0.0
 10
30701.14615959151
 20
350.4374601677991
 30
0.0
 10
30704.13250695691
 20
359.8463879494011
 30
0.0
 10
30704.82699634951
 20
366.5213160436979
 30
0.0
 10
30704.82699732481
 20
369.9127512132
 30
0.0
  0
SPLINE
  5
5280
330
200
100
AcDbEntity
  8
0
  6
Continuous
 62
     7
100
AcDbSpline
210
0.0
220
0.0
230
1.0
 70
     8
 71
     3
 72
     9
 73
     5
 74
     0
 42
0.0000000001
 43
0.0000000001
 40
0.0
 40
0.0
 40
0.0
 40
0.0
 40
0.2505493517000001
 40
1.0
 40
1.0
 40
1.0
 40
1.0
 10
30694.82792231051
 20
430.7798443315005
 30
0.0
 10
30691.73916912451
 20
431.5126461233012
 30
0.0
 10
30679.3329619782
 20
434.0940598363013
 30
0.0
 10
30666.62526606411
 20
435.2517947997985
 30
0.0
 10
30657.12963372431
 20
435.2518743378023
 30
0.0
  0
SPLINE
  5
5281
330
200
100
AcDbEntity
  8
0
  6
Continuous
 62
     7
100
AcDbSpline
210
0.0
220
0.0
230
1.0
 70
     8
 71
     3
 72
     9
 73
     5
 74
     0
 42
0.0000000001
 43
0.0000000001
 40
0.0
 40
0.0
 40
0.0
 40
0.0
 40
0.2501658112
 40
1.0
 40
1.0
 40
1.0
 40
1.0
 10
30657.12963372431
 20
435.2518745218003
 30
0.0
 10
30653.95988839591
 20
435.251901072399
 30
0.0
 10
30641.29130324021
 20
434.8698614801978
 30
0.0
 10
30628.67548496371
 20
432.9731573536009
 30
0.0
 10
30619.43126867391
 20
430.7799224287009
 30
0.0
  0
SPLINE
  5
5282
330
200
100
AcDbEntity
  8
0
  6
Continuous
 62
     7
100
AcDbSpline
210
0.0
220
0.0
230
1.0
 70
     8
 71
     3
 72
     9
 73
     5
 74
     0
 42
0.0000000001
 43
0.0000000001
 40
0.0
 40
0.0
 40
0.0
 40
0.0
 40
0.4986927501
 40
1.0
 40
1.0
 40
1.0
 40
1.0
 10
30539.55547233051
 20
386.4098519574982
 30
0.0
 10
30540.04925642781
 20
386.730786181899
 30
0.0
 10
30540.93967943201
 20
387.5421609190998
 30
0.0
 10
30541.5149791901
 20
388.6044305461983
 30
0.0
 10
30541.69958661761
 20
389.1669140646009
 30
0.0
  0
SPLINE
  5
5283
330
200
100
AcDbEntity
  8
0
  6
Continuous
 62
     7
100
AcDbSpline
210
0.0
220
0.0
230
1.0
 70
     8
 71
     3
 72
     9
 73
     5
 74
     0
 42
0.0000000001
 43
0.0000000001
 40
0.0
 40
0.0
 40
0.0
 40
0.0
 40
0.2448661403
 40
1.0
 40
1.0
 40
1.0
 40
1.0
 10
30542.82781131451
 20
414.3255558938981
 30
0.0
 10
30541.79617477511
 20
412.1628477544
 30
0.0
 10
30537.85507353571
 20
403.201987394801
 30
0.0
 10
30534.93714736511
 20
393.8031676012979
 30
0.0
 10
30533.25661551571
 20
386.6073710892015
 30
0.0
  0
SPLINE
  5
5284
330
200
100
AcDbEntity
  8
0
  6
Continuous
 62
     7
100
AcDbSpline
210
0.0
220
0.0
230
1.0
 70
     8
 71
     3
 72
    24
 73
    20
 74
     0
 42
0.0000000001
 43
0.0000000001
 40
0.0
 40
0.0
 40
0.0
 40
0.0
 40
0.0624740368
 40
0.1249638173
 40
0.1874663777
 40
0.249970628
 40
0.312472684
 40
0.374970765
 40
0.4374793531
 40
0.4999979626
 40
0.5625163797
 40
0.6250254696000001
 40
0.6562862784000001
 40
0.6875470083
 40
0.7500466253
 40
0.8125499264
 40
0.8750515079999999
 40
0.9375343838999999
 40
1.0
 40
1.0
 40
1.0
 40
1.0
 10
30542.82781131451
 20
414.3255558938981
 30
0.0
 10
30546.34722840801
 20
418.2681752050994
 30
0.0
 10
30554.0286105705
 20
425.6032922817976
 30
0.0
 10
30566.98458556221
 20
434.8187787876995
 30
0.0
 10
30580.88712394351
 20
442.5112666346977
 30
0.0
 10
30595.47550626781
 20
448.804668812998
 30
0.0
 10
30610.65861878481
 20
453.5151247911999
 30
0.0
 10
30626.29147843381
 20
456.3979427123995
 30
0.0
 10
30642.12078751501
 20
457.6948062363007
 30
0.0
 10
30657.99008293281
 20
457.9194432989025
 30
0.0
 10
30673.85595150531
 20
457.5487982349004
 30
0.0
 10
30687.03997521201
 20
456.3520546563995
 30
0.0
 10
30697.48101994151
 20
454.6301941558994
 30
0.0
 10
30707.80153341131
 20
452.2948470554983
 30
0.0
 10
30720.41789561801
 20
448.2403838944009
 30
0.0
 10
30734.91079642301
 20
441.7325583944984
 30
0.0
 10
30748.73703609741
 20
433.9090461349005
 30
0.0
 10
30761.5789299214
 20
424.5285715378996
 30
0.0
 10
30769.10622302571
 20
417.0320836347018
 30
0.0
 10
30772.5388006126
 20
413.0145687354997
 30
0.0
  0
SPLINE
  5
5285
330
200
100
AcDbEntity
  8
0
  6
Continuous
 62
     7
100
AcDbSpline
210
0.0
220
0.0
230
1.0
 70
     8
 71
     3
 72
     9
 73
     5
 74
     0
 42
0.0000000001
 43
0.0000000001
 40
0.0
 40
0.0
 40
0.0
 40
0.0
 40
0.5000052556
 40
1.0
 40
1.0
 40
1.0
 40
1.0
 10
30539.97943494861
 20
367.7775940112006
 30
0.0
 10
30540.15062519771
 20
368.7234458398016
 30
0.0
 10
30540.52428200321
 20
370.6092824705993
 30
0.0
 10
30540.82626458291
 20
372.5087044909014
 30
0.0
 10
30541.0198042328
 20
373.4502167534992
 30
0.0
  0
SPLINE
  5
5286
330
200
100
AcDbEntity
  8
0
  6
Continuous
 62
     7
100
AcDbSpline
210
0.0
220
0.0
230
1.0
 70
     8
 71
     3
 72
    19
 73
    15
 74
     0
 42
0.0000000001
 43
0.0000000001
 40
0.0
 40
0.0
 40
0.0
 40
0.0
 40
0.1247119217
 40
0.1872550045
 40
0.2497976971
 40
0.3123395038
 40
0.3748678087
 40
0.4374121792000001
 40
0.4999661506000001
 40
0.6249295781000001
 40
0.7499447303000001
 40
0.8124766984999999
 40
0.8750040451
 40
1.0
 40
1.0
 40
1.0
 40
1.0
 10
30657.12901828181
 20
155.0358659515987
 30
0.0
 10
30645.55384025691
 20
155.0374063471026
 30
0.0
 10
30628.05212399011
 20
157.796990901701
 30
0.0
 10
30606.39325597301
 20
166.2137598592999
 30
0.0
 10
30591.22506058841
 20
174.9190538535986
 30
0.0
 10
30577.6183904005
 20
185.9161988144988
 30
0.0
 10
30566.14809888531
 20
199.1377586751005
 30
0.0
 10
30557.01610830201
 20
214.0438833884
 30
0.0
 10
30547.67190098141
 20
235.3516248310007
 30
0.0
 10
30540.55449374521
 20
263.6586403468027
 30
0.0
 10
30537.41574565591
 20
292.5362925564987
 30
0.0
 10
30536.35927481131
 20
315.7304777589015
 30
0.0
 10
30536.37183222141
 20
338.9396831751001
 30
0.0
 10
30537.91279998291
 20
356.3616066311006
 30
0.0
 10
30539.97943494861
 20
367.7775940112006
 30
0.0
  0
SPLINE
  5
5287
330
200
100
AcDbEntity
  8
0
  6
Continuous
 62
     7
100
AcDbSpline
210
0.0
220
0.0
230
1.0
 70
     8
 71
     3
 72
    19
 73
    15
 74
     0
 42
0.0000000001
 43
0.0000000001
 40
0.0
 40
0.0
 40
0.0
 40
0.0
 40
0.1250029794
 40
0.1875320739
 40
0.2500654425
 40
0.3750831702
 40
0.5000503776
 40
0.5626006345000001
 40
0.6251428292
 40
0.6876734587000001
 40
0.7502108537000001
 40
0.8127517526000001
 40
0.8752922504999999
 40
1.0
 40
1.0
 40
1.0
 40
1.0
 10
30774.42003134591
 20
367.696912409101
 30
0.0
 10
30776.48042774071
 20
356.2800532147994
 30
0.0
 10
30778.00751042701
 20
338.8575117880027
 30
0.0
 10
30778.00983539991
 20
315.6491136963996
 30
0.0
 10
30776.92977039811
 20
292.457290525701
 30
0.0
 10
30773.77738497241
 20
263.5826475376998
 30
0.0
 10
30766.63094776791
 20
235.2845171139998
 30
0.0
 10
30757.26783884101
 20
213.987303792801
 30
0.0
 10
30748.12307886191
 20
199.0913811844002
 30
0.0
 10
30736.64766533051
 20
185.8765160695002
 30
0.0
 10
30723.03263532201
 20
174.8924379191012
 30
0.0
 10
30707.86335800101
 20
166.1941067247026
 30
0.0
 10
30686.20329045691
 20
157.7872798975004
 30
0.0
 10
30668.70290741211
 20
155.0338828495005
 30
0.0
 10
30657.12901828181
 20
155.0358659515987
 30
0.0
  0
SPLINE
  5
5288
330
200
100
AcDbEntity
  8
0
  6
Continuous
 62
     7
100
AcDbSpline
210
0.0
220
0.0
230
1.0
 70
     8
 71
     3
 72
    27
 73
    23
 74
     0
 42
0.0000000001
 43
0.0000000001
 40
0.0
 40
0.0
 40
0.0
 40
0.0
 40
0.0312741128
 40
0.0625491974
 40
0.0938242388
 40
0.1250993444
 40
0.1875709945
 40
0.2500489584
 40
0.3125472698
 40
0.3750354372999999
 40
0.4375171378
 40
0.499989831
 40
0.5624622721
 40
0.6249438668999999
 40
0.6874324127
 40
0.7499313202
 40
0.8124106272
 40
0.8436882209
 40
0.8749640979
 40
0.9062391037000001
 40
0.9375141909999998
 40
1.0
 40
1.0
 40
1.0
 40
1.0
 10
30802.67593340891
 20
253.6515767304008
 30
0.0
 10
30802.62921697341
 20
248.8595381261985
 30
0.0
 10
30802.05719832701
 20
239.2752100537
 30
0.0
 10
30799.93760832451
 20
225.0386863015992
 30
0.0
 10
30796.59320510061
 20
211.0357900626986
 30
0.0
 10
30790.55868245311
 20
192.8358853700992
 30
0.0
 10
30779.80887639221
 20
171.2343175257992
 30
0.0
 10
30761.56203350321
 20
148.7743496656985
 30
0.0
 10
30739.29646712691
 20
130.3486454387021
 30
0.0
 10
30713.92622751551
 20
116.5018110853998
 30
0.0
 10
30686.38236538491
 20
107.747213713701
 30
0.0
 10
30657.62725685651
 20
104.5991496959977
 30
0.0
 10
30628.85154129101
 20
107.5604063689024
 30
0.0
 10
30601.25491572671
 20
116.1473678043003
 30
0.0
 10
30575.79791985191
 20
129.8352470247992
 30
0.0
 10
30553.41218620231
 20
148.1063447181004
 30
0.0
 10
30538.05139318051
 20
166.721953878201
 30
0.0
 10
30528.43882212731
 20
183.3337385015984
 30
0.0
 10
30522.549406179
 20
196.4761399505005
 30
0.0
 10
30517.93836365821
 20
210.1166202298009
 30
0.0
 10
30513.39626580181
 20
228.7437986822006
 30
0.0
 10
30511.79864349061
 20
243.1271243361007
 30
0.0
 10
30511.6647151821
 20
252.7011558880986
 30
0.0
  0
SPLINE
  5
5289
330
200
100
AcDbEntity
  8
0
  6
Continuous
 62
     7
100
AcDbSpline
210
0.0
220
0.0
230
1.0
 70
     8
 71
     3
 72
    11
 73
     7
 74
     0
 42
0.0000000001
 43
0.0000000001
 40
0.0
 40
0.0
 40
0.0
 40
0.0
 40
0.249963859
 40
0.4999530785000001
 40
0.7499637025000001
 40
1.0
 40
1.0
 40
1.0
 40
1.0
 10
30779.91574937371
 20
419.3176728797989
 30
0.0
 10
30783.64239661571
 20
414.9561272908977
 30
0.0
 10
30790.28512126461
 20
405.5039191266005
 30
0.0
 10
30797.4848706777
 20
389.7717106271011
 30
0.0
 10
30801.80753707141
 20
373.0225485252013
 30
0.0
 10
30802.75237590401
 20
361.5221805949004
 30
0.0
 10
30802.75241205591
 20
355.7837089099994
 30
0.0
  0
SPLINE
  5
528A
330
200
100
AcDbEntity
  8
0
  6
Continuous
 62
     7
100
AcDbSpline
210
0.0
220
0.0
230
1.0
 70
     8
 71
     3
 72
    24
 73
    20
 74
     0
 42
0.0000000001
 43
0.0000000001
 40
0.0
 40
0.0
 40
0.0
 40
0.0
 40
0.0624767312
 40
0.1249668496
 40
0.1874686175
 40
0.2499725547
 40
0.3124746972
 40
0.3749724408
 40
0.4374798928
 40
0.4999976447
 40
0.5625151545
 40
0.6250229876
 40
0.6562836156000001
 40
0.6875444265999999
 40
0.7500441642000001
 40
0.8125472803
 40
0.8750476756000001
 40
0.9375310283000001
 40
1.0
 40
1.0
 40
1.0
 40
1.0
 10
30535.58928360861
 20
420.7871209918994
 30
0.0
 10
30539.33861522711
 20
424.9866569186997
 30
0.0
 10
30547.49979003371
 20
432.8183481068008
 30
0.0
 10
30561.25332696791
 20
442.7006137706994
 30
0.0
 10
30576.02986544691
 20
450.953606356601
 30
0.0
 10
30591.54447681851
 20
457.7144145856
 30
0.0
 10
30607.69711368031
 20
462.7944727547001
 30
0.0
 10
30624.33364657881
 20
465.9476036092018
 30
0.0
 10
30641.19154441791
 20
467.3826336380007
 30
0.0
 10
30658.09545419261
 20
467.6333990518978
 30
0.0
 10
30674.99548014201
 20
467.2209342814021
 30
0.0
 10
30689.03512170591
 20
465.8939525954992
 30
0.0
 10
30700.14662396921
 20
463.9989849976009
 30
0.0
 10
30711.12558914191
 20
461.4491239888994
 30
0.0
 10
30724.54338616331
 20
457.0674591058995
 30
0.0
 10
30739.9523680168
 20
450.0723931273023
 30
0.0
 10
30754.64282062511
 20
441.6719129444027
 30
0.0
 10
30768.26357533451
 20
431.6007956274006
 30
0.0
 10
30776.25928370591
 20
423.5973897365002
 30
0.0
 10
30779.91574937371
 20
419.3176728797989
 30
0.0
  0
SPLINE
  5
528B
330
200
100
AcDbEntity
  8
0
  6
Continuous
 62
     7
100
AcDbSpline
210
0.0
220
0.0
230
1.0
 70
     8
 71
     3
 72
    11
 73
     7
 74
     0
 42
0.0000000001
 43
0.0000000001
 40
0.0
 40
0.0
 40
0.0
 40
0.0
 40
0.2500362049
 40
0.5000455613
 40
0.7500335396
 40
1.0
 40
1.0
 40
1.0
 40
1.0
 10
30511.5068553925
 20
356.0336732857977
 30
0.0
 10
30511.50690419631
 20
361.9130297169977
 30
0.0
 10
30512.50940546851
 20
373.697299701802
 30
0.0
 10
30517.08377675891
 20
390.8249970180004
 30
0.0
 10
30524.68333781141
 20
406.8456099808027
 30
0.0
 10
30531.67511037631
 20
416.4022836340008
 30
0.0
 10
30535.58928360861
 20
420.7871209918994
 30
0.0
  0
SPLINE
  5
528C
330
200
100
AcDbEntity
  8
0
  6
Continuous
 62
     7
100
AcDbSpline
210
0.0
220
0.0
230
1.0
 70
     8
 71
     3
 72
     9
 73
     5
 74
     0
 42
0.0000000001
 43
0.0000000001
 40
0.0
 40
0.0
 40
0.0
 40
0.0
 40
0.4998916085000001
 40
1.0
 40
1.0
 40
1.0
 40
1.0
 10
30757.97415834771
 20
415.5436164385028
 30
0.0
 10
30762.13954311661
 20
408.1792531384999
 30
0.0
 10
30768.91916116021
 20
392.5345247816003
 30
0.0
 10
30772.91627678401
 20
376.0266842686978
 30
0.0
 10
30774.42003134591
 20
367.696912409101
 30
0.0
  0
SPLINE
  5
528D
330
200
100
AcDbEntity
  8
0
  6
Continuous
 62
     7
100
AcDbSpline
210
0.0
220
0.0
230
1.0
 70
     8
 71
     3
 72
     9
 73
     5
 74
     0
 42
0.0000000001
 43
0.0000000001
 40
0.0
 40
0.0
 40
0.0
 40
0.0
 40
0.2438938557
 40
1.0
 40
1.0
 40
1.0
 40
1.0
 10
30532.41289996041
 20
384.346007429398
 30
0.0
 10
30532.48128239811
 20
384.4816005906978
 30
0.0
 10
30532.73954382821
 20
385.0485109162983
 30
0.0
 10
30532.91461106851
 20
385.6526777381004
 30
0.0
 10
30532.99920857161
 20
386.1158045861994
 30
0.0
  0
SPLINE
  5
528E
330
200
100
AcDbEntity
  8
0
  6
Continuous
 62
     7
100
AcDbSpline
210
0.0
220
0.0
230
1.0
 70
     8
 71
     3
 72
     9
 73
     5
 74
     0
 42
0.0000000001
 43
0.0000000001
 40
0.0
 40
0.0
 40
0.0
 40
0.0
 40
0.4997110937000001
 40
1.0
 40
1.0
 40
1.0
 40
1.0
 10
30542.83160604541
 20
381.3835619913007
 30
0.0
 10
30543.7039388018
 20
382.2293875385003
 30
0.0
 10
30545.16939961791
 20
384.2155685793004
 30
0.0
 10
30546.13720803691
 20
386.4658713929021
 30
0.0
 10
30546.4991593812
 20
387.6272467679009
 30
0.0
  0
SPLINE
  5
528F
330
200
100
AcDbEntity
  8
0
  6
Continuous
 62
     7
100
AcDbSpline
210
0.0
220
0.0
230
1.0
 70
     8
 71
     3
 72
     8
 73
     4
 74
     0
 42
0.0000000001
 43
0.0000000001
 40
0.0
 40
0.0
 40
0.0
 40
0.0
 40
1.0
 40
1.0
 40
1.0
 40
1.0
 10
30550.49175376991
 20
400.2074968009983
 30
0.0
 10
30552.26972269621
 20
405.6640109299987
 30
0.0
 10
30554.51956253051
 20
410.9931263811013
 30
0.0
 10
30557.23776983961
 20
416.0474382995016
 30
0.0
  0
SPLINE
  5
5290
330
200
100
AcDbEntity
  8
0
  6
Continuous
 62
     7
100
AcDbSpline
210
0.0
220
0.0
230
1.0
 70
     8
 71
     3
 72
    24
 73
    20
 74
     0
 42
0.0000000001
 43
0.0000000001
 40
0.0
 40
0.0
 40
0.0
 40
0.0
 40
0.0624760706
 40
0.1249699896
 40
0.1874593143
 40
0.2499882707
 40
0.3124793674
 40
0.3749917748
 40
0.4374801950000001
 40
0.4999758991
 40
0.5312443427
 40
0.5625002787
 40
0.6249759507000001
 40
0.6875010998000001
 40
0.7499814237000001
 40
0.8124793620999998
 40
0.8750013312
 40
0.9374887184
 40
1.0
 40
1.0
 40
1.0
 40
1.0
 10
30545.87274334191
 20
405.5312065671023
 30
0.0
 10
30548.90083359021
 20
409.1930553011989
 30
0.0
 10
30555.51488235311
 20
416.0771160137009
 30
0.0
 10
30566.80636854261
 20
424.8487120514982
 30
0.0
 10
30579.05877268071
 20
432.1987742670025
 30
0.0
 10
30591.94512331401
 20
438.3535645497977
 30
0.0
 10
30605.37316380691
 20
443.2390756540008
 30
0.0
 10
30619.2555308631
 20
446.6207531440013
 30
0.0
 10
30633.40615844151
 20
448.5561517960014
 30
0.0
 10
30645.2843388778
 20
449.1515892585011
 30
0.0
 10
30654.79175545771
 20
449.2957057917992
 30
0.0
 10
30664.29919955191
 20
449.2757322327015
 30
0.0
 10
30676.18144699941
 20
448.8308458868996
 30
0.0
 10
30690.37821496211
 20
447.3608704131001
 30
0.0
 10
30704.39411952351
 20
444.5707119126018
 30
0.0
 10
30717.97422839551
 20
440.1212588035996
 30
0.0
 10
30731.04683293191
 20
434.3698609540005
 30
0.0
 10
30743.51321127281
 20
427.4008796593989
 30
0.0
 10
30751.30123569941
 20
421.8985691998023
 30
0.0
 10
30754.9799213061
 20
418.8867265521002
 30
0.0
  0
SPLINE
  5
5291
330
200
100
AcDbEntity
  8
0
  6
Continuous
 62
     7
100
AcDbSpline
210
0.0
220
0.0
230
1.0
 70
     8
 71
     3
 72
    10
 73
     6
 74
     0
 42
0.0000000001
 43
0.0000000001
 40
0.0
 40
0.0
 40
0.0
 40
0.0
 40
0.2500388096
 40
0.5002657165
 40
1.0
 40
1.0
 40
1.0
 40
1.0
 10
30754.9799213061
 20
418.8867265521002
 30
0.0
 10
30757.79824412521
 20
416.5792869475008
 30
0.0
 10
30763.17687301031
 20
411.6316269228009
 30
0.0
 10
30772.68861267131
 20
400.5652817146983
 30
0.0
 10
30778.45054036451
 20
391.1847721123995
 30
0.0
 10
30781.76406620861
 20
384.7027519655021
 30
0.0
  0
SPLINE
  5
5292
330
200
100
AcDbEntity
  8
0
  6
Continuous
 62
     7
100
AcDbSpline
210
0.0
220
0.0
230
1.0
 70
     8
 71
     3
 72
    11
 73
     7
 74
     0
 42
0.0000000001
 43
0.0000000001
 40
0.0
 40
0.0
 40
0.0
 40
0.0
 40
0.2500170348
 40
0.5000277381
 40
0.7500227803000001
 40
1.0
 40
1.0
 40
1.0
 40
1.0
 10
30772.53880057261
 20
413.0145688156008
 30
0.0
 10
30775.86733098231
 20
409.0746990340994
 30
0.0
 10
30781.78484143481
 20
400.5382567441992
 30
0.0
 10
30788.15982375991
 20
386.3524722755028
 30
0.0
 10
30791.95596068441
 20
371.2770456346989
 30
0.0
 10
30792.76831679901
 20
360.9405630012989
 30
0.0
 10
30792.75980030961
 20
355.7837089099994
 30
0.0
  0
LINE
  5
5293
330
200
100
AcDbEntity
  8
0
  6
Continuous
 62
     7
100
AcDbLine
 10
30781.76404966391
 20
384.7027442402978
 30
0.0
 11
30781.80877473211
 21
384.6132549609028
 31
0.0
  0
SPLINE
  5
5294
330
200
100
AcDbEntity
  8
0
  6
Continuous
 62
     7
100
AcDbSpline
210
0.0
220
0.0
230
1.0
 70
     8
 71
     3
 72
     9
 73
     5
 74
     0
 42
0.0000000001
 43
0.0000000001
 40
0.0
 40
0.0
 40
0.0
 40
0.0
 40
0.2505567255
 40
1.0
 40
1.0
 40
1.0
 40
1.0
 10
30781.80877473211
 20
384.6132549609028
 30
0.0
 10
30782.89948447821
 20
382.4278901864018
 30
0.0
 10
30786.90322357431
 20
373.534869998999
 30
0.0
 10
30789.50035442411
 20
364.0159061751001
 30
0.0
 10
30790.35153377291
 20
357.4633555679975
 30
0.0
  0
SPLINE
  5
5295
330
200
100
AcDbEntity
  8
0
  6
Continuous
 62
     7
100
AcDbSpline
210
0.0
220
0.0
230
1.0
 70
     8
 71
     3
 72
     9
 73
     5
 74
     0
 42
0.0000000001
 43
0.0000000001
 40
0.0
 40
0.0
 40
0.0
 40
0.0
 40
0.5007357527
 40
1.0
 40
1.0
 40
1.0
 40
1.0
 10
30532.16646927611
 20
384.4625303037028
 30
0.0
 10
30529.19182392911
 20
378.4508272286985
 30
0.0
 10
30524.57879914731
 20
365.7476045399016
 30
0.0
 10
30522.76047584411
 20
352.3630499509018
 30
0.0
 10
30522.56846323611
 20
345.6781273021006
 30
0.0
  0
SPLINE
  5
5296
330
200
100
AcDbEntity
  8
0
  6
Continuous
 62
     7
100
AcDbSpline
210
0.0
220
0.0
230
1.0
 70
     8
 71
     3
 72
     8
 73
     4
 74
     0
 42
0.0000000001
 43
0.0000000001
 40
0.0
 40
0.0
 40
0.0
 40
0.0
 40
1.0
 40
1.0
 40
1.0
 40
1.0
 10
30533.027139655
 20
386.1586386318013
 30
0.0
 10
30533.10653528931
 20
386.3066951920009
 30
0.0
 10
30533.18235260551
 20
386.4566743335999
 30
0.0
 10
30533.2566128688
 20
386.6073721274006
 30
0.0
  0
SPLINE
  5
5297
330
200
100
AcDbEntity
  8
0
  6
Continuous
 62
     7
100
AcDbSpline
210
0.0
220
0.0
230
1.0
 70
     8
 71
     3
 72
    11
 73
     7
 74
     0
 42
0.0000000001
 43
0.0000000001
 40
0.0
 40
0.0
 40
0.0
 40
0.0
 40
0.2499805713
 40
0.4999748730000001
 40
0.7499829398000001
 40
1.0
 40
1.0
 40
1.0
 40
1.0
 10
30521.49946713881
 20
356.0336732857977
 30
0.0
 10
30521.49097781081
 20
361.3136918550008
 30
0.0
 10
30522.35469615301
 20
371.8983905030982
 30
0.0
 10
30526.37450149641
 20
387.3045574618009
 30
0.0
 10
30533.10470035831
 20
401.7413727694002
 30
0.0
 10
30539.33252883951
 20
410.3670458569977
 30
0.0
 10
30542.82781133461
 20
414.3255566571024
 30
0.0
  0
LINE
  5
5298
330
200
100
AcDbEntity
  8
0
  6
Continuous
 62
     7
100
AcDbLine
 10
30522.53102722521
 20
343.4454091111001
 30
0.0
 11
30522.56151812171
 21
344.8103863686993
 31
0.0
  0
ENDSEC
  0
SECTION
  2
OBJECTS
  0
DICTIONARY
  5
C
330
0
100
AcDbDictionary
281
     1
  3
ACAD_COLOR
350
31C
  3
ACAD_DETAILVIEWSTYLE
350
3E0
  3
ACAD_GROUP
350
D
  3
ACAD_LAYOUT
350
1A
  3
ACAD_MATERIAL
350
2F2
  3
ACAD_MLEADERSTYLE
350
341
  3
ACAD_MLINESTYLE
350
17
  3
ACAD_PLOTSETTINGS
350
19
  3
ACAD_PLOTSTYLENAME
350
E
  3
ACAD_SCALELIST
350
31F
  3
ACAD_SECTIONVIEWSTYLE
350
3E1
  3
ACAD_TABLESTYLE
350
31D
  3
ACAD_VISUALSTYLE
350
30B
  3
ACDB_RECOMPOSE_DATA
350
3DE
  3
ACDBHEADERROUNDTRIPXREC
350
5339
  3
AcDbVariableDictionary
350
347
  0
DICTIONARY
  5
38E
330
2
100
AcDbDictionary
280
     1
281
     1
  3
ACAD_LAYERSTATES
360
38F
  0
DICTIONARY
  5
467B
330
200
100
AcDbDictionary
280
     1
281
     1
  3
ACAD_SORTENTS
360
467C
  0
DICTIONARY
  5
31C
102
{ACAD_REACTORS
330
C
102
}
330
C
100
AcDbDictionary
281
     1
  0
DICTIONARY
  5
3E0
102
{ACAD_REACTORS
330
C
102
}
330
C
100
AcDbDictionary
281
     1
  0
DICTIONARY
  5
D
102
{ACAD_REACTORS
330
C
102
}
330
C
100
AcDbDictionary
281
     1
  0
DICTIONARY
  5
1A
102
{ACAD_REACTORS
330
C
102
}
330
C
100
AcDbDictionary
281
     1
  3
Layout1
350
2EF
  3
Model
350
2EE
  0
DICTIONARY
  5
2F2
102
{ACAD_REACTORS
330
C
102
}
330
C
100
AcDbDictionary
281
     1
  3
ByBlock
350
2FB
  3
ByLayer
350
2F3
  3
Global
350
303
  0
DICTIONARY
  5
341
102
{ACAD_REACTORS
330
C
102
}
330
C
100
AcDbDictionary
281
     1
  3
Standard
350
342
  0
DICTIONARY
  5
17
102
{ACAD_REACTORS
330
C
102
}
330
C
100
AcDbDictionary
281
     1
  3
Standard
350
18
  0
DICTIONARY
  5
19
102
{ACAD_REACTORS
330
C
102
}
330
C
100
AcDbDictionary
281
     1
  0
ACDBDICTIONARYWDFLT
  5
E
102
{ACAD_REACTORS
330
C
102
}
330
C
100
AcDbDictionary
281
     1
  3
Normal
350
F
100
AcDbDictionaryWithDefault
340
F
  0
DICTIONARY
  5
31F
102
{ACAD_REACTORS
330
C
102
}
330
C
100
AcDbDictionary
281
     1
  3
A0
350
320
  3
A1
350
321
  3
A2
350
322
  3
A3
350
323
  3
A4
350
324
  3
A5
350
325
  3
A6
350
326
  3
A7
350
327
  3
A8
350
328
  3
A9
350
329
  3
B0
350
32A
  3
B1
350
32B
  3
B2
350
32C
  3
B3
350
32D
  3
B4
350
32E
  3
B5
350
32F
  3
B6
350
330
  3
B7
350
331
  3
B8
350
332
  3
B9
350
333
  3
C0
350
334
  3
C1
350
335
  3
C2
350
336
  3
C3
350
337
  3
C4
350
338
  3
C5
350
339
  3
C6
350
33A
  3
C7
350
33B
  3
C8
350
33C
  3
C9
350
33D
  3
D0
350
33E
  3
D1
350
33F
  3
D2
350
340
  0
DICTIONARY
  5
3E1
102
{ACAD_REACTORS
330
C
102
}
330
C
100
AcDbDictionary
281
     1
  0
DICTIONARY
  5
31D
102
{ACAD_REACTORS
330
C
102
}
330
C
100
AcDbDictionary
281
     1
  3
Standard
350
31E
  0
DICTIONARY
  5
30B
102
{ACAD_REACTORS
330
C
102
}
330
C
100
AcDbDictionary
281
     1
  3
2dWireframe
350
311
  3
3D Hidden
350
313
  3
3dWireframe
350
312
  3
Basic
350
310
  3
Brighten
350
317
  3
ColorChange
350
31B
  3
Conceptual
350
314
  3
Dim
350
316
  3
EdgeColorOff
350
39F
  3
Facepattern
350
31A
  3
Flat
350
30C
  3
FlatWithEdges
350
30D
  3
Gouraud
350
30E
  3
GouraudWithEdges
350
30F
  3
Hidden
350
39C
  3
JitterOff
350
39D
  3
Linepattern
350
319
  3
OverhangOff
350
39E
  3
Realistic
350
315
  3
Shaded
350
3A4
  3
Shaded with edges
350
3A3
  3
Shades of Gray
350
3A0
  3
Sketchy
350
3A1
  3
Thicken
350
318
  3
Wireframe
350
39B
  3
X-Ray
350
3A2
  0
XRECORD
  5
3DE
102
{ACAD_REACTORS
330
C
102
}
330
C
100
AcDbXrecord
280
     1
 90
        1
330
31E
  0
DICTIONARY
  5
5339
102
{ACAD_REACTORS
330
C
102
}
330
C
100
AcDbDictionary
281
     1
  0
DICTIONARY
  5
347
102
{ACAD_REACTORS
330
C
102
}
330
C
100
AcDbDictionary
281
     1
  3
CANNOSCALE
350
34A
  3
CMLEADERSTYLE
350
349
  3
CTABLESTYLE
350
348
  3
XCLIPFRAME
350
3DF
  0
DICTIONARY
  5
38F
102
{ACAD_REACTORS
330
38E
102
}
330
38E
100
AcDbDictionary
281
     1
  0
SORTENTSTABLE
  5
467C
102
{ACAD_REACTORS
330
467B
102
}
330
467B
100
AcDbSortentsTable
330
200
331
399
  5
399
  0
LAYOUT
  5
2EF
102
{ACAD_REACTORS
330
1A
102
}
330
1A
100
AcDbPlotSettings
  1

  2
none_device
  4
ISO_A4_(297.00_x_210.00_MM)
  6

 40
0.0
 41
0.0
 42
0.0
 43
0.0
 44
297.0
 45
210.0
 46
0.0
 47
0.0
 48
0.0
 49
0.0
140
0.0
141
0.0
142
1.0
143
1.0
 70
     0
 72
     1
 73
     0
 74
     0
  7

 75
     0
147
1.0
 76
     0
 77
     2
 78
   300
148
0.0
149
0.0
100
AcDbLayout
  1
Layout1
 70
     1
 71
     1
 10
0.0
 20
0.0
 11
12.0
 21
9.0
 12
0.0
 22
0.0
 32
0.0
 14
1.000000000000000E+20
 24
1.000000000000000E+20
 34
1.000000000000000E+20
 15
-1.000000000000000E+20
 25
-1.000000000000000E+20
 35
-1.000000000000000E+20
146
0.0
 13
0.0
 23
0.0
 33
0.0
 16
1.0
 26
0.0
 36
0.0
 17
0.0
 27
1.0
 37
0.0
 76
     0
330
201
  0
LAYOUT
  5
2EE
102
{ACAD_REACTORS
330
1A
102
}
330
1A
100
AcDbPlotSettings
  1

  2
none_device
  4
ISO_A4_(297.00_x_210.00_MM)
  6

 40
0.0
 41
0.0
 42
0.0
 43
0.0
 44
297.0
 45
210.0
 46
0.0
 47
0.0
 48
0.0
 49
0.0
140
0.0
141
0.0
142
1.0
143
1.0
 70
  1024
 72
     1
 73
     0
 74
     0
  7

 75
     0
147
1.0
 76
     0
 77
     2
 78
   300
148
0.0
149
0.0
100
AcDbLayout
  1
Model
 70
     0
 71
     0
 10
0.0
 20
0.0
 11
297.0
 21
210.0
 12
0.0
 22
0.0
 32
0.0
 14
0.0
 24
0.0
 34
0.0
 15
0.0
 25
0.0
 35
0.0
146
0.0
 13
0.0
 23
0.0
 33
0.0
 16
1.0
 26
0.0
 36
0.0
 17
0.0
 27
1.0
 37
0.0
 76
     0
330
200
331
39A
  0
MATERIAL
  5
2FB
102
{ACAD_REACTORS
330
2F2
102
}
330
2F2
100
AcDbMaterial
  1
ByBlock
  2

 72
     0
 73
     2
 43
0.0008202099737533
 43
0.0
 43
0.0
 43
0.0
 43
0.0
 43
0.0008202099737533
 43
0.0
 43
0.0
 43
0.0
 43
0.0
 43
1.0
 43
0.0
 43
0.0
 43
0.0
 43
0.0
 43
1.0
 77
     0
 78
     2
 47
0.0008202099737533
 47
0.0
 47
0.0
 47
0.0
 47
0.0
 47
0.0008202099737533
 47
0.0
 47
0.0
 47
0.0
 47
0.0
 47
1.0
 47
0.0
 47
0.0
 47
0.0
 47
0.0
 47
1.0
171
     0
172
     2
 49
0.0008202099737533
 49
0.0
 49
0.0
 49
0.0
 49
0.0
 49
0.0008202099737533
 49
0.0
 49
0.0
 49
0.0
 49
0.0
 49
1.0
 49
0.0
 49
0.0
 49
0.0
 49
0.0
 49
1.0
175
     0
176
     2
142
0.0008202099737533
142
0.0
142
0.0
142
0.0
142
0.0
142
0.0008202099737533
142
0.0
142
0.0
142
0.0
142
0.0
142
1.0
142
0.0
142
0.0
142
0.0
142
0.0
142
1.0
179
     0
270
     2
144
0.0008202099737533
144
0.0
144
0.0
144
0.0
144
0.0
144
0.0008202099737533
144
0.0
144
0.0
144
0.0
144
0.0
144
1.0
144
0.0
144
0.0
144
0.0
144
0.0
144
1.0
274
     2
147
0.0008202099737533
147
0.0
147
0.0
147
0.0
147
0.0
147
0.0008202099737533
147
0.0
147
0.0
147
0.0
147
0.0
147
1.0
147
0.0
147
0.0
147
0.0
147
0.0
147
1.0
  0
MATERIAL
  5
2F3
102
{ACAD_REACTORS
330
2F2
102
}
330
2F2
100
AcDbMaterial
  1
ByLayer
  2

 72
     0
 73
     2
 43
0.0008202099737533
 43
0.0
 43
0.0
 43
0.0
 43
0.0
 43
0.0008202099737533
 43
0.0
 43
0.0
 43
0.0
 43
0.0
 43
1.0
 43
0.0
 43
0.0
 43
0.0
 43
0.0
 43
1.0
 77
     0
 78
     2
 47
0.0008202099737533
 47
0.0
 47
0.0
 47
0.0
 47
0.0
 47
0.0008202099737533
 47
0.0
 47
0.0
 47
0.0
 47
0.0
 47
1.0
 47
0.0
 47
0.0
 47
0.0
 47
0.0
 47
1.0
171
     0
172
     2
 49
0.0008202099737533
 49
0.0
 49
0.0
 49
0.0
 49
0.0
 49
0.0008202099737533
 49
0.0
 49
0.0
 49
0.0
 49
0.0
 49
1.0
 49
0.0
 49
0.0
 49
0.0
 49
0.0
 49
1.0
175
     0
176
     2
142
0.0008202099737533
142
0.0
142
0.0
142
0.0
142
0.0
142
0.0008202099737533
142
0.0
142
0.0
142
0.0
142
0.0
142
1.0
142
0.0
142
0.0
142
0.0
142
0.0
142
1.0
179
     0
270
     2
144
0.0008202099737533
144
0.0
144
0.0
144
0.0
144
0.0
144
0.0008202099737533
144
0.0
144
0.0
144
0.0
144
0.0
144
1.0
144
0.0
144
0.0
144
0.0
144
0.0
144
1.0
274
     2
147
0.0008202099737533
147
0.0
147
0.0
147
0.0
147
0.0
147
0.0008202099737533
147
0.0
147
0.0
147
0.0
147
0.0
147
1.0
147
0.0
147
0.0
147
0.0
147
0.0
147
1.0
  0
MATERIAL
  5
303
102
{ACAD_REACTORS
330
2F2
102
}
330
2F2
100
AcDbMaterial
  1
Global
  2

 72
     0
 73
     2
 43
0.0008202099737533
 43
0.0
 43
0.0
 43
0.0
 43
0.0
 43
0.0008202099737533
 43
0.0
 43
0.0
 43
0.0
 43
0.0
 43
1.0
 43
0.0
 43
0.0
 43
0.0
 43
0.0
 43
1.0
 77
     0
 78
     2
 47
0.0008202099737533
 47
0.0
 47
0.0
 47
0.0
 47
0.0
 47
0.0008202099737533
 47
0.0
 47
0.0
 47
0.0
 47
0.0
 47
1.0
 47
0.0
 47
0.0
 47
0.0
 47
0.0
 47
1.0
171
     0
172
     2
 49
0.0008202099737533
 49
0.0
 49
0.0
 49
0.0
 49
0.0
 49
0.0008202099737533
 49
0.0
 49
0.0
 49
0.0
 49
0.0
 49
1.0
 49
0.0
 49
0.0
 49
0.0
 49
0.0
 49
1.0
175
     0
176
     2
142
0.0008202099737533
142
0.0
142
0.0
142
0.0
142
0.0
142
0.0008202099737533
142
0.0
142
0.0
142
0.0
142
0.0
142
1.0
142
0.0
142
0.0
142
0.0
142
0.0
142
1.0
179
     0
270
     2
144
0.0008202099737533
144
0.0
144
0.0
144
0.0
144
0.0
144
0.0008202099737533
144
0.0
144
0.0
144
0.0
144
0.0
144
1.0
144
0.0
144
0.0
144
0.0
144
0.0
144
1.0
274
     2
147
0.0008202099737533
147
0.0
147
0.0
147
0.0
147
0.0
147
0.0008202099737533
147
0.0
147
0.0
147
0.0
147
0.0
147
1.0
147
0.0
147
0.0
147
0.0
147
0.0
147
1.0
  0
MLEADERSTYLE
  5
342
102
{ACAD_REACTORS
330
341
102
}
330
341
100
AcDbMLeaderStyle
170
     2
171
     1
172
     0
 90
        2
 40
0.0
 41
0.0
173
     1
 91
-1056964608
340
14
 92
       -2
290
     1
 42
2.0
291
     1
 43
0.36
  3
Standard
341
0
 44
4.0
300

342
11
174
     1
178
     6
175
     1
176
     0
 93
-1056964608
 45
4.0
292
     0
297
     0
 46
4.0
343
0
 94
-1056964608
 47
1.0
 49
1.0
140
1.0
293
     1
141
0.0
294
     1
177
     0
142
1.0
295
     0
296
     0
143
0.125
1001
ACAD_MLEADERVER
1070
     2
  0
MLINESTYLE
  5
18
102
{ACAD_REACTORS
330
17
102
}
330
17
100
AcDbMlineStyle
  2
STANDARD
 70
     0
  3

 62
   256
 51
90.0
 52
90.0
 71
     2
 49
0.5
 62
   256
  6
BYLAYER
 49
-0.5
 62
   256
  6
BYLAYER
  0
ACDBPLACEHOLDER
  5
F
102
{ACAD_REACTORS
330
E
102
}
330
E
  0
SCALE
  5
320
102
{ACAD_REACTORS
330
31F
102
}
330
31F
100
AcDbScale
 70
     0
300
1:1
140
1.0
141
1.0
290
     1
  0
SCALE
  5
321
102
{ACAD_REACTORS
330
31F
102
}
330
31F
100
AcDbScale
 70
     0
300
1:2
140
1.0
141
2.0
290
     0
  0
SCALE
  5
322
102
{ACAD_REACTORS
330
31F
102
}
330
31F
100
AcDbScale
 70
     0
300
1:4
140
1.0
141
4.0
290
     0
  0
SCALE
  5
323
102
{ACAD_REACTORS
330
31F
102
}
330
31F
100
AcDbScale
 70
     0
300
1:5
140
1.0
141
5.0
290
     0
  0
SCALE
  5
324
102
{ACAD_REACTORS
330
31F
102
}
330
31F
100
AcDbScale
 70
     0
300
1:8
140
1.0
141
8.0
290
     0
  0
SCALE
  5
325
102
{ACAD_REACTORS
330
31F
102
}
330
31F
100
AcDbScale
 70
     0
300
1:10
140
1.0
141
10.0
290
     0
  0
SCALE
  5
326
102
{ACAD_REACTORS
330
31F
102
}
330
31F
100
AcDbScale
 70
     0
300
1:16
140
1.0
141
16.0
290
     0
  0
SCALE
  5
327
102
{ACAD_REACTORS
330
31F
102
}
330
31F
100
AcDbScale
 70
     0
300
1:20
140
1.0
141
20.0
290
     0
  0
SCALE
  5
328
102
{ACAD_REACTORS
330
31F
102
}
330
31F
100
AcDbScale
 70
     0
300
1:30
140
1.0
141
30.0
290
     0
  0
SCALE
  5
329
102
{ACAD_REACTORS
330
31F
102
}
330
31F
100
AcDbScale
 70
     0
300
1:40
140
1.0
141
40.0
290
     0
  0
SCALE
  5
32A
102
{ACAD_REACTORS
330
31F
102
}
330
31F
100
AcDbScale
 70
     0
300
1:50
140
1.0
141
50.0
290
     0
  0
SCALE
  5
32B
102
{ACAD_REACTORS
330
31F
102
}
330
31F
100
AcDbScale
 70
     0
300
1:100
140
1.0
141
100.0
290
     0
  0
SCALE
  5
32C
102
{ACAD_REACTORS
330
31F
102
}
330
31F
100
AcDbScale
 70
     0
300
2:1
140
2.0
141
1.0
290
     0
  0
SCALE
  5
32D
102
{ACAD_REACTORS
330
31F
102
}
330
31F
100
AcDbScale
 70
     0
300
4:1
140
4.0
141
1.0
290
     0
  0
SCALE
  5
32E
102
{ACAD_REACTORS
330
31F
102
}
330
31F
100
AcDbScale
 70
     0
300
8:1
140
8.0
141
1.0
290
     0
  0
SCALE
  5
32F
102
{ACAD_REACTORS
330
31F
102
}
330
31F
100
AcDbScale
 70
     0
300
10:1
140
10.0
141
1.0
290
     0
  0
SCALE
  5
330
102
{ACAD_REACTORS
330
31F
102
}
330
31F
100
AcDbScale
 70
     0
300
100:1
140
100.0
141
1.0
290
     0
  0
SCALE
  5
331
102
{ACAD_REACTORS
330
31F
102
}
330
31F
100
AcDbScale
 70
     0
300
1/128" = 1'-0"
140
0.0078125
141
12.0
290
     0
  0
SCALE
  5
332
102
{ACAD_REACTORS
330
31F
102
}
330
31F
100
AcDbScale
 70
     0
300
1/64" = 1'-0"
140
0.015625
141
12.0
290
     0
  0
SCALE
  5
333
102
{ACAD_REACTORS
330
31F
102
}
330
31F
100
AcDbScale
 70
     0
300
1/32" = 1'-0"
140
0.03125
141
12.0
290
     0
  0
SCALE
  5
334
102
{ACAD_REACTORS
330
31F
102
}
330
31F
100
AcDbScale
 70
     0
300
1/16" = 1'-0"
140
0.0625
141
12.0
290
     0
  0
SCALE
  5
335
102
{ACAD_REACTORS
330
31F
102
}
330
31F
100
AcDbScale
 70
     0
300
3/32" = 1'-0"
140
0.09375
141
12.0
290
     0
  0
SCALE
  5
336
102
{ACAD_REACTORS
330
31F
102
}
330
31F
100
AcDbScale
 70
     0
300
1/8" = 1'-0"
140
0.125
141
12.0
290
     0
  0
SCALE
  5
337
102
{ACAD_REACTORS
330
31F
102
}
330
31F
100
AcDbScale
 70
     0
300
3/16" = 1'-0"
140
0.1875
141
12.0
290
     0
  0
SCALE
  5
338
102
{ACAD_REACTORS
330
31F
102
}
330
31F
100
AcDbScale
 70
     0
300
1/4" = 1'-0"
140
0.25
141
12.0
290
     0
  0
SCALE
  5
339
102
{ACAD_REACTORS
330
31F
102
}
330
31F
100
AcDbScale
 70
     0
300
3/8" = 1'-0"
140
0.375
141
12.0
290
     0
  0
SCALE
  5
33A
102
{ACAD_REACTORS
330
31F
102
}
330
31F
100
AcDbScale
 70
     0
300
1/2" = 1'-0"
140
0.5
141
12.0
290
     0
  0
SCALE
  5
33B
102
{ACAD_REACTORS
330
31F
102
}
330
31F
100
AcDbScale
 70
     0
300
3/4" = 1'-0"
140
0.75
141
12.0
290
     0
  0
SCALE
  5
33C
102
{ACAD_REACTORS
330
31F
102
}
330
31F
100
AcDbScale
 70
     0
300
1" = 1'-0"
140
1.0
141
12.0
290
     0
  0
SCALE
  5
33D
102
{ACAD_REACTORS
330
31F
102
}
330
31F
100
AcDbScale
 70
     0
300
1-1/2" = 1'-0"
140
1.5
141
12.0
290
     0
  0
SCALE
  5
33E
102
{ACAD_REACTORS
330
31F
102
}
330
31F
100
AcDbScale
 70
     0
300
3" = 1'-0"
140
3.0
141
12.0
290
     0
  0
SCALE
  5
33F
102
{ACAD_REACTORS
330
31F
102
}
330
31F
100
AcDbScale
 70
     0
300
6" = 1'-0"
140
6.0
141
12.0
290
     0
  0
SCALE
  5
340
102
{ACAD_REACTORS
330
31F
102
}
330
31F
100
AcDbScale
 70
     0
300
1'-0" = 1'-0"
140
12.0
141
12.0
290
     0
  0
TABLESTYLE
  5
31E
102
{ACAD_XDICTIONARY
360
3A8
102
}
102
{ACAD_REACTORS
330
31D
102
}
330
31D
100
AcDbTableStyle
  3
Standard
 70
     0
 71
     0
 40
1.5
 41
1.5
280
     0
281
     0
  7
STANDARD
140
4.5
170
     2
 62
     0
 63
   257
283
     1
274
    -2
284
     1
 64
     0
275
    -2
285
     1
 65
     0
276
    -2
286
     1
 66
     0
277
    -2
287
     1
 67
     0
278
    -2
288
     1
 68
     0
279
    -2
289
     1
 69
     0
  7
STANDARD
140
6.0
170
     5
 62
     0
 63
   257
283
     1
274
    -2
284
     1
 64
     0
275
    -2
285
     1
 65
     0
276
    -2
286
     1
 66
     0
277
    -2
287
     1
 67
     0
278
    -2
288
     1
 68
     0
279
    -2
289
     1
 69
     0
  7
STANDARD
140
4.5
170
     5
 62
     0
 63
   257
283
     1
274
    -2
284
     1
 64
     0
275
    -2
285
     1
 65
     0
276
    -2
286
     1
 66
     0
277
    -2
287
     1
 67
     0
278
    -2
288
     1
 68
     0
279
    -2
289
     1
 69
     0
  0
VISUALSTYLE
  5
311
102
{ACAD_XDICTIONARY
360
3AA
102
}
102
{ACAD_REACTORS
330
30B
102
}
330
30B
100
AcDbVisualStyle
  2
2dWireframe
 70
     4
 71
     0
 72
     2
 73
     0
 90
        0
 40
-0.6
 41
-30.0
 62
     5
 63
     7
421
 16777215
 74
     1
 91
        4
 64
     7
 65
   257
 75
     1
175
     1
 42
1.0
 92
        0
 66
   257
 43
1.0
 76
     1
 77
     6
 78
     2
 67
     7
 79
     5
170
     0
171
     0
290
     0
174
     0
 93
        1
 44
0.0
173
     0
291
     0
 45
0.0
1001
ACAD
1000
AcDbSavedByObjectVersion
1070
     0
  0
VISUALSTYLE
  5
313
102
{ACAD_XDICTIONARY
360
3AC
102
}
102
{ACAD_REACTORS
330
30B
102
}
330
30B
100
AcDbVisualStyle
  2
3D Hidden
 70
     6
 71
     1
 72
     2
 73
     2
 90
        0
 40
-0.6
 41
-30.0
 62
     5
 63
     7
421
 16777215
 74
     2
 91
        2
 64
     7
 65
   257
 75
     2
175
     1
 42
40.0
 92
        0
 66
   257
 43
1.0
 76
     1
 77
     6
 78
     2
 67
     7
 79
     3
170
     0
171
     0
290
     0
174
     0
 93
        1
 44
0.0
173
     0
291
     0
 45
0.0
1001
ACAD
1000
AcDbSavedByObjectVersion
1070
     0
  0
VISUALSTYLE
  5
312
102
{ACAD_XDICTIONARY
360
3AE
102
}
102
{ACAD_REACTORS
330
30B
102
}
330
30B
100
AcDbVisualStyle
  2
3dWireframe
 70
     5
 71
     0
 72
     2
 73
     0
 90
        0
 40
-0.6
 41
-30.0
 62
     5
 63
     7
421
 16777215
 74
     1
 91
        4
 64
     7
 65
   257
 75
     1
175
     1
 42
1.0
 92
        0
 66
   257
 43
1.0
 76
     1
 77
     6
 78
     2
 67
     7
 79
     5
170
     0
171
     0
290
     0
174
     0
 93
        1
 44
0.0
173
     0
291
     0
 45
0.0
1001
ACAD
1000
AcDbSavedByObjectVersion
1070
     0
  0
VISUALSTYLE
  5
310
102
{ACAD_XDICTIONARY
360
3B0
102
}
102
{ACAD_REACTORS
330
30B
102
}
330
30B
100
AcDbVisualStyle
  2
Basic
 70
     7
 71
     1
 72
     0
 73
     1
 90
        0
 40
-0.6
 41
-30.0
 62
     5
 63
     7
421
 16777215
 74
     0
 91
        4
 64
     7
 65
   257
 75
     1
175
     1
 42
1.0
 92
        8
 66
     7
 43
1.0
 76
     1
 77
     6
 78
     2
 67
     7
 79
     5
170
     0
171
     0
290
     0
174
     0
 93
        1
 44
0.0
173
     0
291
     1
 45
0.0
1001
ACAD
1000
AcDbSavedByObjectVersion
1070
     0
  0
VISUALSTYLE
  5
317
102
{ACAD_XDICTIONARY
360
3B2
102
}
102
{ACAD_REACTORS
330
30B
102
}
330
30B
100
AcDbVisualStyle
  2
Brighten
 70
    12
 71
     2
 72
     2
 73
     0
 90
        0
 40
-0.6
 41
-30.0
 62
     5
 63
     7
421
 16777215
 74
     1
 91
        4
 64
     7
 65
   257
 75
     1
175
     1
 42
1.0
 92
        8
 66
     7
 43
1.0
 76
     1
 77
     6
 78
     2
 67
     7
 79
     5
170
     0
171
     0
290
     0
174
     0
 93
        1
 44
50.0
173
     0
291
     1
 45
0.0
1001
ACAD
1000
AcDbSavedByObjectVersion
1070
     0
  0
VISUALSTYLE
  5
31B
102
{ACAD_XDICTIONARY
360
3B4
102
}
102
{ACAD_REACTORS
330
30B
102
}
330
30B
100
AcDbVisualStyle
  2
ColorChange
 70
    16
 71
     2
 72
     2
 73
     3
 90
        0
 40
-0.6
 41
-30.0
 62
     5
 63
     8
421
  8421504
 74
     1
 91
        4
 64
     7
 65
   257
 75
     1
175
     1
 42
1.0
 92
        8
 66
     8
424
  8421504
 43
1.0
 76
     1
 77
     6
 78
     2
 67
     7
 79
     5
170
     0
171
     0
290
     0
174
     0
 93
        1
 44
0.0
173
     0
291
     1
 45
0.0
1001
ACAD
1000
AcDbSavedByObjectVersion
1070
     0
  0
VISUALSTYLE
  5
314
102
{ACAD_XDICTIONARY
360
3B6
102
}
102
{ACAD_REACTORS
330
30B
102
}
330
30B
100
AcDbVisualStyle
  2
Conceptual
 70
     9
 71
     3
 72
     2
 73
     0
 90
        0
 40
-0.6
 41
-30.0
 62
     5
 63
     7
421
 16777215
 74
     2
 91
        2
 64
     7
 65
   257
 75
     1
175
     1
 42
40.0
 92
        8
 66
     7
 43
1.0
 76
     1
 77
     6
 78
     2
 67
     7
 79
     3
170
     0
171
     0
290
     0
174
     0
 93
        1
 44
0.0
173
     0
291
     0
 45
0.0
1001
ACAD
1000
AcDbSavedByObjectVersion
1070
     0
  0
VISUALSTYLE
  5
316
102
{ACAD_XDICTIONARY
360
3B8
102
}
102
{ACAD_REACTORS
330
30B
102
}
330
30B
100
AcDbVisualStyle
  2
Dim
 70
    11
 71
     2
 72
     2
 73
     0
 90
        0
 40
-0.6
 41
-30.0
 62
     5
 63
     7
421
 16777215
 74
     1
 91
        4
 64
     7
 65
   257
 75
     1
175
     1
 42
1.0
 92
        8
 66
     7
 43
1.0
 76
     1
 77
     6
 78
     2
 67
     7
 79
     5
170
     0
171
     0
290
     0
174
     0
 93
        1
 44
-50.0
173
     0
291
     1
 45
0.0
1001
ACAD
1000
AcDbSavedByObjectVersion
1070
     0
  0
VISUALSTYLE
  5
39F
102
{ACAD_XDICTIONARY
360
3D2
102
}
102
{ACAD_REACTORS
330
30B
102
}
330
30B
100
AcDbVisualStyle
  2
EdgeColorOff
 70
    22
 71
     2
 72
     2
 73
     0
 90
        0
 40
-0.6
 41
-30.0
 62
     5
 63
     7
421
 16777215
 74
     1
 91
        4
 64
     7
 65
   257
 75
     1
175
     1
 42
1.0
 92
        8
 66
     7
 43
1.0
 76
     1
 77
     6
 78
     2
 67
     7
 79
     5
170
     0
171
     0
290
     0
174
     0
 93
        1
 44
0.0
173
     0
291
     1
 45
0.0
1001
ACAD
1000
AcDbSavedByObjectVersion
1070
     0
  0
VISUALSTYLE
  5
31A
102
{ACAD_XDICTIONARY
360
3BA
102
}
102
{ACAD_REACTORS
330
30B
102
}
330
30B
100
AcDbVisualStyle
  2
Facepattern
 70
    15
 71
     2
 72
     2
 73
     0
 90
        0
 40
-0.6
 41
-30.0
 62
     5
 63
     7
421
 16777215
 74
     1
 91
        4
 64
     7
 65
   257
 75
     1
175
     1
 42
1.0
 92
        8
 66
     7
 43
1.0
 76
     1
 77
     6
 78
     2
 67
     7
 79
     5
170
     0
171
     0
290
     0
174
     0
 93
        1
 44
0.0
173
     0
291
     1
 45
0.0
1001
ACAD
1000
AcDbSavedByObjectVersion
1070
     0
  0
VISUALSTYLE
  5
30C
102
{ACAD_XDICTIONARY
360
3BC
102
}
102
{ACAD_REACTORS
330
30B
102
}
330
30B
100
AcDbVisualStyle
  2
Flat
 70
     0
 71
     2
 72
     1
 73
     1
 90
        2
 40
-0.6
 41
30.0
 62
     5
 63
     7
421
 16777215
 74
     0
 91
        4
 64
     7
 65
   257
 75
     1
175
     1
 42
1.0
 92
        8
 66
     7
 43
1.0
 76
     1
 77
     6
 78
     2
 67
     7
 79
     5
170
     0
171
     0
290
     0
174
     0
 93
       13
 44
0.0
173
     0
291
     1
 45
0.0
1001
ACAD
1000
AcDbSavedByObjectVersion
1070
     0
  0
VISUALSTYLE
  5
30D
102
{ACAD_XDICTIONARY
360
3BE
102
}
102
{ACAD_REACTORS
330
30B
102
}
330
30B
100
AcDbVisualStyle
  2
FlatWithEdges
 70
     1
 71
     2
 72
     1
 73
     1
 90
        2
 40
-0.6
 41
30.0
 62
     5
 63
     7
421
 16777215
 74
     1
 91
        4
 64
     7
 65
   257
 75
     1
175
     1
 42
1.0
 92
        0
 66
   257
 43
1.0
 76
     1
 77
     6
 78
     2
 67
     7
 79
     5
170
     0
171
     0
290
     0
174
     0
 93
       13
 44
0.0
173
     0
291
     1
 45
0.0
1001
ACAD
1000
AcDbSavedByObjectVersion
1070
     0
  0
VISUALSTYLE
  5
30E
102
{ACAD_XDICTIONARY
360
3C0
102
}
102
{ACAD_REACTORS
330
30B
102
}
330
30B
100
AcDbVisualStyle
  2
Gouraud
 70
     2
 71
     2
 72
     2
 73
     1
 90
        2
 40
-0.6
 41
30.0
 62
     5
 63
     7
421
 16777215
 74
     0
 91
        4
 64
     7
 65
   257
 75
     1
175
     1
 42
1.0
 92
        0
 66
     7
 43
1.0
 76
     1
 77
     6
 78
     2
 67
     7
 79
     5
170
     0
171
     0
290
     0
174
     0
 93
       13
 44
0.0
173
     0
291
     1
 45
0.0
1001
ACAD
1000
AcDbSavedByObjectVersion
1070
     0
  0
VISUALSTYLE
  5
30F
102
{ACAD_XDICTIONARY
360
3C2
102
}
102
{ACAD_REACTORS
330
30B
102
}
330
30B
100
AcDbVisualStyle
  2
GouraudWithEdges
 70
     3
 71
     2
 72
     2
 73
     1
 90
        2
 40
-0.6
 41
30.0
 62
     5
 63
     7
421
 16777215
 74
     1
 91
        4
 64
     7
 65
   257
 75
     1
175
     1
 42
1.0
 92
        0
 66
   257
 43
1.0
 76
     1
 77
     6
 78
     2
 67
     7
 79
     5
170
     0
171
     0
290
     0
174
     0
 93
       13
 44
0.0
173
     0
291
     1
 45
0.0
1001
ACAD
1000
AcDbSavedByObjectVersion
1070
     0
  0
VISUALSTYLE
  5
39C
102
{ACAD_XDICTIONARY
360
3CC
102
}
102
{ACAD_REACTORS
330
30B
102
}
330
30B
100
AcDbVisualStyle
  2
Hidden
 70
     6
 71
     1
 72
     2
 73
     2
 90
        0
 40
-0.6
 41
-30.0
 62
     5
 63
     7
421
 16777215
 74
     2
 91
        2
 64
     7
 65
   257
 75
     2
175
     1
 42
40.0
 92
        0
 66
   257
 43
1.0
 76
     1
 77
     6
 78
     2
 67
     7
 79
     3
170
     0
171
     0
290
     0
174
     0
 93
        1
 44
0.0
173
     0
291
     0
 45
0.0
1001
ACAD
1000
AcDbSavedByObjectVersion
1070
     0
  0
VISUALSTYLE
  5
39D
102
{ACAD_XDICTIONARY
360
3CE
102
}
102
{ACAD_REACTORS
330
30B
102
}
330
30B
100
AcDbVisualStyle
  2
JitterOff
 70
    20
 71
     2
 72
     2
 73
     0
 90
        0
 40
-0.6
 41
-30.0
 62
     5
 63
     7
421
 16777215
 74
     1
 91
        4
 64
     7
 65
   257
 75
     1
175
     1
 42
1.0
 92
       10
 66
     7
 43
1.0
 76
     1
 77
     6
 78
     2
 67
     7
 79
     5
170
     0
171
     0
290
     0
174
     0
 93
        1
 44
0.0
173
     0
291
     1
 45
0.0
1001
ACAD
1000
AcDbSavedByObjectVersion
1070
     0
  0
VISUALSTYLE
  5
319
102
{ACAD_XDICTIONARY
360
3C4
102
}
102
{ACAD_REACTORS
330
30B
102
}
330
30B
100
AcDbVisualStyle
  2
Linepattern
 70
    14
 71
     2
 72
     2
 73
     0
 90
        0
 40
-0.6
 41
-30.0
 62
     5
 63
     7
421
 16777215
 74
     1
 91
        4
 64
     7
 65
   257
 75
     7
175
     7
 42
1.0
 92
        8
 66
     7
 43
1.0
 76
     1
 77
     6
 78
     2
 67
     7
 79
     5
170
     0
171
     0
290
     0
174
     0
 93
        1
 44
0.0
173
     0
291
     1
 45
0.0
1001
ACAD
1000
AcDbSavedByObjectVersion
1070
     0
  0
VISUALSTYLE
  5
39E
102
{ACAD_XDICTIONARY
360
3D0
102
}
102
{ACAD_REACTORS
330
30B
102
}
330
30B
100
AcDbVisualStyle
  2
OverhangOff
 70
    21
 71
     2
 72
     2
 73
     0
 90
        0
 40
-0.6
 41
-30.0
 62
     5
 63
     7
421
 16777215
 74
     1
 91
        4
 64
     7
 65
   257
 75
     1
175
     1
 42
1.0
 92
        9
 66
     7
 43
1.0
 76
     1
 77
     6
 78
     2
 67
     7
 79
     5
170
     0
171
     0
290
     0
174
     0
 93
        1
 44
0.0
173
     0
291
     1
 45
0.0
1001
ACAD
1000
AcDbSavedByObjectVersion
1070
     0
  0
VISUALSTYLE
  5
315
102
{ACAD_XDICTIONARY
360
3C6
102
}
102
{ACAD_REACTORS
330
30B
102
}
330
30B
100
AcDbVisualStyle
  2
Realistic
 70
     8
 71
     2
 72
     2
 73
     0
 90
        0
 40
-0.6
 41
-30.0
 62
     5
 63
     7
421
 16777215
 74
     1
 91
        0
 64
     7
 65
   257
 75
     1
175
     1
 42
1.0
 92
        8
 66
     8
424
  7895160
 43
1.0
 76
     1
 77
     6
 78
     2
 67
     7
 79
     5
170
     0
171
     0
290
     0
174
     0
 93
       13
 44
0.0
173
     0
291
     0
 45
0.0
1001
ACAD
1000
AcDbSavedByObjectVersion
1070
     0
  0
VISUALSTYLE
  5
3A4
102
{ACAD_XDICTIONARY
360
3DC
102
}
102
{ACAD_REACTORS
330
30B
102
}
330
30B
100
AcDbVisualStyle
  2
Shaded
 70
    27
 71
     2
 72
     2
 73
     1
 90
        2
 40
-0.6
 41
30.0
 62
     5
 63
     7
421
 16777215
 74
     0
 91
        4
 64
     7
 65
   257
 75
     1
175
     1
 42
1.0
 92
        8
 66
   257
 43
1.0
 76
     1
 77
     6
 78
     2
 67
     8
425
  7895160
 79
     3
170
     0
171
     0
290
     0
174
     0
 93
        5
 44
0.0
173
     0
291
     0
 45
0.0
1001
ACAD
1000
AcDbSavedByObjectVersion
1070
     0
  0
VISUALSTYLE
  5
3A3
102
{ACAD_XDICTIONARY
360
3DA
102
}
102
{ACAD_REACTORS
330
30B
102
}
330
30B
100
AcDbVisualStyle
  2
Shaded with edges
 70
    26
 71
     2
 72
     2
 73
     1
 90
        2
 40
-0.6
 41
30.0
 62
     5
 63
     7
421
 16777215
 74
     1
 91
       10
 64
     7
 65
   257
 75
     2
175
     1
 42
1.0
 92
        8
 66
   257
 43
1.0
 76
     1
 77
     6
 78
     2
 67
     7
 79
     3
170
     0
171
     0
290
     0
174
     0
 93
        5
 44
0.0
173
     0
291
     0
 45
0.0
1001
ACAD
1000
AcDbSavedByObjectVersion
1070
     0
  0
VISUALSTYLE
  5
3A0
102
{ACAD_XDICTIONARY
360
3D4
102
}
102
{ACAD_REACTORS
330
30B
102
}
330
30B
100
AcDbVisualStyle
  2
Shades of Gray
 70
    23
 71
     2
 72
     2
 73
     3
 90
        0
 40
-0.6
 41
-30.0
 62
     5
 63
     7
421
 16777215
 74
     2
 91
        2
 64
     7
 65
     7
 75
     1
175
     1
 42
40.0
 92
        8
 66
     7
 43
1.0
 76
     1
 77
     6
 78
     2
 67
     7
 79
     3
170
     0
171
     0
290
     0
174
     0
 93
        1
 44
0.0
173
     0
291
     0
 45
0.0
1001
ACAD
1000
AcDbSavedByObjectVersion
1070
     0
  0
VISUALSTYLE
  5
3A1
102
{ACAD_XDICTIONARY
360
3D6
102
}
102
{ACAD_REACTORS
330
30B
102
}
330
30B
100
AcDbVisualStyle
  2
Sketchy
 70
    24
 71
     1
 72
     2
 73
     2
 90
        0
 40
-0.6
 41
-30.0
 62
     5
 63
     7
421
 16777215
 74
     2
 91
        2
 64
     7
 65
     7
 75
     1
175
     1
 42
40.0
 92
       11
 66
     7
 43
1.0
 76
     1
 77
     6
 78
     2
 67
     7
 79
     6
170
     0
171
     0
290
     0
174
     0
 93
        1
 44
0.0
173
     0
291
     0
 45
0.0
1001
ACAD
1000
AcDbSavedByObjectVersion
1070
     0
  0
VISUALSTYLE
  5
318
102
{ACAD_XDICTIONARY
360
3C8
102
}
102
{ACAD_REACTORS
330
30B
102
}
330
30B
100
AcDbVisualStyle
  2
Thicken
 70
    13
 71
     2
 72
     2
 73
     0
 90
        0
 40
-0.6
 41
-30.0
 62
     5
 63
     7
421
 16777215
 74
     1
 91
        4
 64
     7
 65
   257
 75
     1
175
     1
 42
1.0
 92
       12
 66
     7
 43
1.0
 76
     1
 77
     6
 78
     2
 67
     7
 79
     5
170
     0
171
     0
290
     0
174
     0
 93
        1
 44
0.0
173
     0
291
     1
 45
0.0
1001
ACAD
1000
AcDbSavedByObjectVersion
1070
     0
  0
VISUALSTYLE
  5
39B
102
{ACAD_XDICTIONARY
360
3CA
102
}
102
{ACAD_REACTORS
330
30B
102
}
330
30B
100
AcDbVisualStyle
  2
Wireframe
 70
     5
 71
     0
 72
     2
 73
     0
 90
        0
 40
-0.6
 41
-30.0
 62
     5
 63
     7
421
 16777215
 74
     1
 91
        4
 64
     7
 65
   257
 75
     1
175
     1
 42
1.0
 92
        0
 66
   257
 43
1.0
 76
     1
 77
     6
 78
     2
 67
     7
 79
     3
170
     0
171
     0
290
     0
174
     0
 93
        1
 44
0.0
173
     0
291
     0
 45
0.0
1001
ACAD
1000
AcDbSavedByObjectVersion
1070
     0
  0
VISUALSTYLE
  5
3A2
102
{ACAD_XDICTIONARY
360
3D8
102
}
102
{ACAD_REACTORS
330
30B
102
}
330
30B
100
AcDbVisualStyle
  2
X-Ray
 70
    25
 71
     2
 72
     2
 73
     1
 90
        1
 40
0.5
 41
-30.0
 62
     5
 63
     7
421
 16777215
 74
     1
 91
        0
 64
     7
 65
   257
 75
     1
175
     1
 42
1.0
 92
        8
 66
     7
 43
1.0
 76
     1
 77
     6
 78
     2
 67
     7
 79
     3
170
     0
171
     0
290
     0
174
     0
 93
       13
 44
0.0
173
     0
291
     0
 45
0.0
1001
ACAD
1000
AcDbSavedByObjectVersion
1070
     0
  0
DICTIONARYVAR
  5
34A
102
{ACAD_REACTORS
330
347
102
}
330
347
100
DictionaryVariables
280
     0
  1
1:1
  0
DICTIONARYVAR
  5
349
102
{ACAD_REACTORS
330
347
102
}
330
347
100
DictionaryVariables
280
     0
  1
STANDARD
  0
DICTIONARYVAR
  5
348
102
{ACAD_REACTORS
330
347
102
}
330
347
100
DictionaryVariables
280
     0
  1
STANDARD
  0
DICTIONARYVAR
  5
3DF
102
{ACAD_REACTORS
330
347
102
}
330
347
100
DictionaryVariables
280
     0
  1
0
  0
DICTIONARY
  5
3A8
330
31E
100
AcDbDictionary
280
     1
281
     1
  3
ACAD_ROUNDTRIP_2008_TABLESTYLE_CELLSTYLEMAP
360
533B
  3
ACAD_XREC_ROUNDTRIP
360
533A
  0
DICTIONARY
  5
3AA
330
311
100
AcDbDictionary
280
     1
281
     1
  3
ACAD_XREC_ROUNDTRIP
360
3AB
  0
DICTIONARY
  5
3AC
330
313
100
AcDbDictionary
280
     1
281
     1
  3
ACAD_XREC_ROUNDTRIP
360
3AD
  0
DICTIONARY
  5
3AE
330
312
100
AcDbDictionary
280
     1
281
     1
  3
ACAD_XREC_ROUNDTRIP
360
3AF
  0
DICTIONARY
  5
3B0
330
310
100
AcDbDictionary
280
     1
281
     1
  3
ACAD_XREC_ROUNDTRIP
360
3B1
  0
DICTIONARY
  5
3B2
330
317
100
AcDbDictionary
280
     1
281
     1
  3
ACAD_XREC_ROUNDTRIP
360
3B3
  0
DICTIONARY
  5
3B4
330
31B
100
AcDbDictionary
280
     1
281
     1
  3
ACAD_XREC_ROUNDTRIP
360
3B5
  0
DICTIONARY
  5
3B6
330
314
100
AcDbDictionary
280
     1
281
     1
  3
ACAD_XREC_ROUNDTRIP
360
3B7
  0
DICTIONARY
  5
3B8
330
316
100
AcDbDictionary
280
     1
281
     1
  3
ACAD_XREC_ROUNDTRIP
360
3B9
  0
DICTIONARY
  5
3D2
330
39F
100
AcDbDictionary
280
     1
281
     1
  3
ACAD_XREC_ROUNDTRIP
360
3D3
  0
DICTIONARY
  5
3BA
330
31A
100
AcDbDictionary
280
     1
281
     1
  3
ACAD_XREC_ROUNDTRIP
360
3BB
  0
DICTIONARY
  5
3BC
330
30C
100
AcDbDictionary
280
     1
281
     1
  3
ACAD_XREC_ROUNDTRIP
360
3BD
  0
DICTIONARY
  5
3BE
330
30D
100
AcDbDictionary
280
     1
281
     1
  3
ACAD_XREC_ROUNDTRIP
360
3BF
  0
DICTIONARY
  5
3C0
330
30E
100
AcDbDictionary
280
     1
281
     1
  3
ACAD_XREC_ROUNDTRIP
360
3C1
  0
DICTIONARY
  5
3C2
330
30F
100
AcDbDictionary
280
     1
281
     1
  3
ACAD_XREC_ROUNDTRIP
360
3C3
  0
DICTIONARY
  5
3CC
330
39C
100
AcDbDictionary
280
     1
281
     1
  3
ACAD_XREC_ROUNDTRIP
360
3CD
  0
DICTIONARY
  5
3CE
330
39D
100
AcDbDictionary
280
     1
281
     1
  3
ACAD_XREC_ROUNDTRIP
360
3CF
  0
DICTIONARY
  5
3C4
330
319
100
AcDbDictionary
280
     1
281
     1
  3
ACAD_XREC_ROUNDTRIP
360
3C5
  0
DICTIONARY
  5
3D0
330
39E
100
AcDbDictionary
280
     1
281
     1
  3
ACAD_XREC_ROUNDTRIP
360
3D1
  0
DICTIONARY
  5
3C6
330
315
100
AcDbDictionary
280
     1
281
     1
  3
ACAD_XREC_ROUNDTRIP
360
3C7
  0
DICTIONARY
  5
3DC
330
3A4
100
AcDbDictionary
280
     1
281
     1
  3
ACAD_XREC_ROUNDTRIP
360
3DD
  0
DICTIONARY
  5
3DA
330
3A3
100
AcDbDictionary
280
     1
281
     1
  3
ACAD_XREC_ROUNDTRIP
360
3DB
  0
DICTIONARY
  5
3D4
330
3A0
100
AcDbDictionary
280
     1
281
     1
  3
ACAD_XREC_ROUNDTRIP
360
3D5
  0
DICTIONARY
  5
3D6
330
3A1
100
AcDbDictionary
280
     1
281
     1
  3
ACAD_XREC_ROUNDTRIP
360
3D7
  0
DICTIONARY
  5
3C8
330
318
100
AcDbDictionary
280
     1
281
     1
  3
ACAD_XREC_ROUNDTRIP
360
3C9
  0
DICTIONARY
  5
3CA
330
39B
100
AcDbDictionary
280
     1
281
     1
  3
ACAD_XREC_ROUNDTRIP
360
3CB
  0
DICTIONARY
  5
3D8
330
3A2
100
AcDbDictionary
280
     1
281
     1
  3
ACAD_XREC_ROUNDTRIP
360
3D9
  0
CELLSTYLEMAP
  5
533B
102
{ACAD_REACTORS
330
3A8
102
}
330
3A8
100
AcDbCellStyleMap
 90
        3
300
CELLSTYLE
  1
TABLEFORMAT_BEGIN
 90
        5
170
     1
 91
        0
 92
        0
 62
   257
 93
        1
300
CONTENTFORMAT
  1
CONTENTFORMAT_BEGIN
 90
        0
 91
        0
 92
      512
 93
        0
300

 40
0.0
140
1.0
 94
        5
 62
     0
340
11
144
6.0
309
CONTENTFORMAT_END
171
     1
301
MARGIN
  1
CELLMARGIN_BEGIN
 40
1.5
 40
1.5
 40
1.5
 40
1.5
 40
4.5
 40
4.5
309
CELLMARGIN_END
 94
        6
 95
        1
302
GRIDFORMAT
  1
GRIDFORMAT_BEGIN
 90
        0
 91
        1
 62
     0
 92
       -2
340
0
 93
        0
 40
1.125
309
GRIDFORMAT_END
 95
        2
302
GRIDFORMAT
  1
GRIDFORMAT_BEGIN
 90
        0
 91
        1
 62
     0
 92
       -2
340
0
 93
        0
 40
1.125
309
GRIDFORMAT_END
 95
        4
302
GRIDFORMAT
  1
GRIDFORMAT_BEGIN
 90
        0
 91
        1
 62
     0
 92
       -2
340
0
 93
        0
 40
1.125
309
GRIDFORMAT_END
 95
        8
302
GRIDFORMAT
  1
GRIDFORMAT_BEGIN
 90
        0
 91
        1
 62
     0
 92
       -2
340
0
 93
        0
 40
1.125
309
GRIDFORMAT_END
 95
       16
302
GRIDFORMAT
  1
GRIDFORMAT_BEGIN
 90
        0
 91
        1
 62
     0
 92
       -2
340
0
 93
        0
 40
1.125
309
GRIDFORMAT_END
 95
       32
302
GRIDFORMAT
  1
GRIDFORMAT_BEGIN
 90
        0
 91
        1
 62
     0
 92
       -2
340
0
 93
        0
 40
1.125
309
GRIDFORMAT_END
309
TABLEFORMAT_END
  1
CELLSTYLE_BEGIN
 90
        1
 91
        1
300
_TITLE
309
CELLSTYLE_END
300
CELLSTYLE
  1
TABLEFORMAT_BEGIN
 90
        5
170
     1
 91
        0
 92
        0
 62
   257
 93
        1
300
CONTENTFORMAT
  1
CONTENTFORMAT_BEGIN
 90
        0
 91
        0
 92
      512
 93
        0
300

 40
0.0
140
1.0
 94
        5
 62
     0
340
11
144
4.5
309
CONTENTFORMAT_END
171
     1
301
MARGIN
  1
CELLMARGIN_BEGIN
 40
1.5
 40
1.5
 40
1.5
 40
1.5
 40
4.5
 40
4.5
309
CELLMARGIN_END
 94
        6
 95
        1
302
GRIDFORMAT
  1
GRIDFORMAT_BEGIN
 90
        0
 91
        1
 62
     0
 92
       -2
340
0
 93
        0
 40
1.125
309
GRIDFORMAT_END
 95
        2
302
GRIDFORMAT
  1
GRIDFORMAT_BEGIN
 90
        0
 91
        1
 62
     0
 92
       -2
340
0
 93
        0
 40
1.125
309
GRIDFORMAT_END
 95
        4
302
GRIDFORMAT
  1
GRIDFORMAT_BEGIN
 90
        0
 91
        1
 62
     0
 92
       -2
340
0
 93
        0
 40
1.125
309
GRIDFORMAT_END
 95
        8
302
GRIDFORMAT
  1
GRIDFORMAT_BEGIN
 90
        0
 91
        1
 62
     0
 92
       -2
340
0
 93
        0
 40
1.125
309
GRIDFORMAT_END
 95
       16
302
GRIDFORMAT
  1
GRIDFORMAT_BEGIN
 90
        0
 91
        1
 62
     0
 92
       -2
340
0
 93
        0
 40
1.125
309
GRIDFORMAT_END
 95
       32
302
GRIDFORMAT
  1
GRIDFORMAT_BEGIN
 90
        0
 91
        1
 62
     0
 92
       -2
340
0
 93
        0
 40
1.125
309
GRIDFORMAT_END
309
TABLEFORMAT_END
  1
CELLSTYLE_BEGIN
 90
        2
 91
        1
300
_HEADER
309
CELLSTYLE_END
300
CELLSTYLE
  1
TABLEFORMAT_BEGIN
 90
        5
170
     1
 91
        0
 92
        0
 62
   257
 93
        1
300
CONTENTFORMAT
  1
CONTENTFORMAT_BEGIN
 90
        0
 91
        0
 92
      512
 93
        0
300

 40
0.0
140
1.0
 94
        2
 62
     0
340
11
144
4.5
309
CONTENTFORMAT_END
171
     1
301
MARGIN
  1
CELLMARGIN_BEGIN
 40
1.5
 40
1.5
 40
1.5
 40
1.5
 40
4.5
 40
4.5
309
CELLMARGIN_END
 94
        6
 95
        1
302
GRIDFORMAT
  1
GRIDFORMAT_BEGIN
 90
        0
 91
        1
 62
     0
 92
       -2
340
0
 93
        0
 40
1.125
309
GRIDFORMAT_END
 95
        2
302
GRIDFORMAT
  1
GRIDFORMAT_BEGIN
 90
        0
 91
        1
 62
     0
 92
       -2
340
0
 93
        0
 40
1.125
309
GRIDFORMAT_END
 95
        4
302
GRIDFORMAT
  1
GRIDFORMAT_BEGIN
 90
        0
 91
        1
 62
     0
 92
       -2
340
0
 93
        0
 40
1.125
309
GRIDFORMAT_END
 95
        8
302
GRIDFORMAT
  1
GRIDFORMAT_BEGIN
 90
        0
 91
        1
 62
     0
 92
       -2
340
0
 93
        0
 40
1.125
309
GRIDFORMAT_END
 95
       16
302
GRIDFORMAT
  1
GRIDFORMAT_BEGIN
 90
        0
 91
        1
 62
     0
 92
       -2
340
0
 93
        0
 40
1.125
309
GRIDFORMAT_END
 95
       32
302
GRIDFORMAT
  1
GRIDFORMAT_BEGIN
 90
        0
 91
        1
 62
     0
 92
       -2
340
0
 93
        0
 40
1.125
309
GRIDFORMAT_END
309
TABLEFORMAT_END
  1
CELLSTYLE_BEGIN
 90
        3
 91
        2
300
_DATA
309
CELLSTYLE_END
  0
XRECORD
  5
533A
102
{ACAD_REACTORS
330
3A8
102
}
330
3A8
100
AcDbXrecord
280
     1
102
ACAD_ROUNDTRIP_PRE2007_TABLESTYLE
 90
      512
 91
        0
  1

 92
      512
 93
        0
  2

 94
      512
 95
        0
  3

  0
XRECORD
  5
3AB
102
{ACAD_REACTORS
330
3AA
102
}
330
3AA
100
AcDbXrecord
280
     1
102
RTVSPropertyOp0
 70
     1
102
RTVSPropertyOp1
 70
     1
102
RTVSPropertyOp2
 70
     1
102
RTVSPropertyOp3
 70
     1
102
RTVSPropertyOp4
 70
     1
102
RTVSPropertyOp5
 70
     1
102
RTVSPropertyOp6
 70
     1
102
RTVSPropertyOp7
 70
     1
102
RTVSPropertyOp8
 70
     1
102
RTVSPropertyOp9
 70
     1
102
RTVSPropertyOp10
 70
     1
102
RTVSPropertyOp11
 70
     1
102
RTVSPropertyOp12
 70
     1
102
RTVSPropertyOp13
 70
     1
102
RTVSPropertyOp14
 70
     1
102
RTVSPropertyOp15
 70
     1
102
RTVSPropertyOp16
 70
     1
102
RTVSPropertyOp17
 70
     1
102
RTVSPropertyOp18
 70
     1
102
RTVSPropertyOp19
 70
     1
102
RTVSPropertyOp20
 70
     1
102
RTVSPropertyOp21
 70
     1
102
RTVSPropertyOp22
 70
     1
102
RTVSPropertyOp23
 70
     1
102
RTVSPropertyOp24
 70
     1
102
RTVSPropertyOp25
 70
     1
102
RTVSPropertyOp26
 70
     1
102
RTVSPropertyOp27
 70
     1
  0
XRECORD
  5
3AD
102
{ACAD_REACTORS
330
3AC
102
}
330
3AC
100
AcDbXrecord
280
     1
102
RTVSPropertyOp0
 70
     1
102
RTVSPropertyOp1
 70
     1
102
RTVSPropertyOp2
 70
     1
102
RTVSPropertyOp3
 70
     1
102
RTVSPropertyOp4
 70
     1
102
RTVSPropertyOp5
 70
     1
102
RTVSPropertyOp6
 70
     1
102
RTVSPropertyOp7
 70
     1
102
RTVSPropertyOp8
 70
     1
102
RTVSPropertyOp9
 70
     1
102
RTVSPropertyOp10
 70
     1
102
RTVSPropertyOp11
 70
     1
102
RTVSPropertyOp12
 70
     1
102
RTVSPropertyOp13
 70
     1
102
RTVSPropertyOp14
 70
     1
102
RTVSPropertyOp15
 70
     1
102
RTVSPropertyOp16
 70
     1
102
RTVSPropertyOp17
 70
     1
102
RTVSPropertyOp18
 70
     1
102
RTVSPropertyOp19
 70
     1
102
RTVSPropertyOp20
 70
     1
102
RTVSPropertyOp21
 70
     1
102
RTVSPropertyOp22
 70
     1
102
RTVSPropertyOp23
 70
     1
102
RTVSPropertyOp24
 70
     1
102
RTVSPropertyOp25
 70
     1
102
RTVSPropertyOp26
 70
     1
102
RTVSPropertyOp27
 70
     1
  0
XRECORD
  5
3AF
102
{ACAD_REACTORS
330
3AE
102
}
330
3AE
100
AcDbXrecord
280
     1
102
RTVSPropertyOp0
 70
     1
102
RTVSPropertyOp1
 70
     1
102
RTVSPropertyOp2
 70
     1
102
RTVSPropertyOp3
 70
     1
102
RTVSPropertyOp4
 70
     1
102
RTVSPropertyOp5
 70
     1
102
RTVSPropertyOp6
 70
     1
102
RTVSPropertyOp7
 70
     1
102
RTVSPropertyOp8
 70
     1
102
RTVSPropertyOp9
 70
     1
102
RTVSPropertyOp10
 70
     1
102
RTVSPropertyOp11
 70
     1
102
RTVSPropertyOp12
 70
     1
102
RTVSPropertyOp13
 70
     1
102
RTVSPropertyOp14
 70
     1
102
RTVSPropertyOp15
 70
     1
102
RTVSPropertyOp16
 70
     1
102
RTVSPropertyOp17
 70
     1
102
RTVSPropertyOp18
 70
     1
102
RTVSPropertyOp19
 70
     1
102
RTVSPropertyOp20
 70
     1
102
RTVSPropertyOp21
 70
     1
102
RTVSPropertyOp22
 70
     1
102
RTVSPropertyOp23
 70
     1
102
RTVSPropertyOp24
 70
     1
102
RTVSPropertyOp25
 70
     1
102
RTVSPropertyOp26
 70
     1
102
RTVSPropertyOp27
 70
     1
  0
XRECORD
  5
3B1
102
{ACAD_REACTORS
330
3B0
102
}
330
3B0
100
AcDbXrecord
280
     1
102
RTVSPropertyOp0
 70
     1
102
RTVSPropertyOp1
 70
     1
102
RTVSPropertyOp2
 70
     1
102
RTVSPropertyOp3
 70
     1
102
RTVSPropertyOp4
 70
     1
102
RTVSPropertyOp5
 70
     1
102
RTVSPropertyOp6
 70
     1
102
RTVSPropertyOp7
 70
     1
102
RTVSPropertyOp8
 70
     1
102
RTVSPropertyOp9
 70
     1
102
RTVSPropertyOp10
 70
     1
102
RTVSPropertyOp11
 70
     1
102
RTVSPropertyOp12
 70
     1
102
RTVSPropertyOp13
 70
     1
102
RTVSPropertyOp14
 70
     1
102
RTVSPropertyOp15
 70
     1
102
RTVSPropertyOp16
 70
     1
102
RTVSPropertyOp17
 70
     1
102
RTVSPropertyOp18
 70
     1
102
RTVSPropertyOp19
 70
     1
102
RTVSPropertyOp20
 70
     1
102
RTVSPropertyOp21
 70
     1
102
RTVSPropertyOp22
 70
     1
102
RTVSPropertyOp23
 70
     1
102
RTVSPropertyOp24
 70
     1
102
RTVSPropertyOp25
 70
     1
102
RTVSPropertyOp26
 70
     1
102
RTVSPropertyOp27
 70
     1
  0
XRECORD
  5
3B3
102
{ACAD_REACTORS
330
3B2
102
}
330
3B2
100
AcDbXrecord
280
     1
102
RTVSPropertyOp0
 70
     1
102
RTVSPropertyOp1
 70
     1
102
RTVSPropertyOp2
 70
     1
102
RTVSPropertyOp3
 70
     1
102
RTVSPropertyOp4
 70
     1
102
RTVSPropertyOp5
 70
     1
102
RTVSPropertyOp6
 70
     1
102
RTVSPropertyOp7
 70
     1
102
RTVSPropertyOp8
 70
     1
102
RTVSPropertyOp9
 70
     1
102
RTVSPropertyOp10
 70
     1
102
RTVSPropertyOp11
 70
     1
102
RTVSPropertyOp12
 70
     1
102
RTVSPropertyOp13
 70
     1
102
RTVSPropertyOp14
 70
     1
102
RTVSPropertyOp15
 70
     1
102
RTVSPropertyOp16
 70
     1
102
RTVSPropertyOp17
 70
     1
102
RTVSPropertyOp18
 70
     1
102
RTVSPropertyOp19
 70
     1
102
RTVSPropertyOp20
 70
     1
102
RTVSPropertyOp21
 70
     1
102
RTVSPropertyOp22
 70
     1
102
RTVSPropertyOp23
 70
     1
102
RTVSPropertyOp24
 70
     1
102
RTVSPropertyOp25
 70
     1
102
RTVSPropertyOp26
 70
     1
102
RTVSPropertyOp27
 70
     1
  0
XRECORD
  5
3B5
102
{ACAD_REACTORS
330
3B4
102
}
330
3B4
100
AcDbXrecord
280
     1
102
RTVSPropertyOp0
 70
     1
102
RTVSPropertyOp1
 70
     1
102
RTVSPropertyOp2
 70
     1
102
RTVSPropertyOp3
 70
     1
102
RTVSPropertyOp4
 70
     1
102
RTVSPropertyOp5
 70
     1
102
RTVSPropertyOp6
 70
     1
102
RTVSPropertyOp7
 70
     1
102
RTVSPropertyOp8
 70
     1
102
RTVSPropertyOp9
 70
     1
102
RTVSPropertyOp10
 70
     1
102
RTVSPropertyOp11
 70
     1
102
RTVSPropertyOp12
 70
     1
102
RTVSPropertyOp13
 70
     1
102
RTVSPropertyOp14
 70
     1
102
RTVSPropertyOp15
 70
     1
102
RTVSPropertyOp16
 70
     1
102
RTVSPropertyOp17
 70
     1
102
RTVSPropertyOp18
 70
     1
102
RTVSPropertyOp19
 70
     1
102
RTVSPropertyOp20
 70
     1
102
RTVSPropertyOp21
 70
     1
102
RTVSPropertyOp22
 70
     1
102
RTVSPropertyOp23
 70
     1
102
RTVSPropertyOp24
 70
     1
102
RTVSPropertyOp25
 70
     1
102
RTVSPropertyOp26
 70
     1
102
RTVSPropertyOp27
 70
     1
  0
XRECORD
  5
3B7
102
{ACAD_REACTORS
330
3B6
102
}
330
3B6
100
AcDbXrecord
280
     1
102
RTVSPropertyOp0
 70
     1
102
RTVSPropertyOp1
 70
     1
102
RTVSPropertyOp2
 70
     1
102
RTVSPropertyOp3
 70
     1
102
RTVSPropertyOp4
 70
     1
102
RTVSPropertyOp5
 70
     1
102
RTVSPropertyOp6
 70
     1
102
RTVSPropertyOp7
 70
     1
102
RTVSPropertyOp8
 70
     1
102
RTVSPropertyOp9
 70
     1
102
RTVSPropertyOp10
 70
     1
102
RTVSPropertyOp11
 70
     1
102
RTVSPropertyOp12
 70
     1
102
RTVSPropertyOp13
 70
     1
102
RTVSPropertyOp14
 70
     1
102
RTVSPropertyOp15
 70
     1
102
RTVSPropertyOp16
 70
     1
102
RTVSPropertyOp17
 70
     1
102
RTVSPropertyOp18
 70
     1
102
RTVSPropertyOp19
 70
     1
102
RTVSPropertyOp20
 70
     1
102
RTVSPropertyOp21
 70
     1
102
RTVSPropertyOp22
 70
     1
102
RTVSPropertyOp23
 70
     1
102
RTVSPropertyOp24
 70
     1
102
RTVSPropertyOp25
 70
     1
102
RTVSPropertyOp26
 70
     1
102
RTVSPropertyOp27
 70
     1
  0
XRECORD
  5
3B9
102
{ACAD_REACTORS
330
3B8
102
}
330
3B8
100
AcDbXrecord
280
     1
102
RTVSPropertyOp0
 70
     1
102
RTVSPropertyOp1
 70
     1
102
RTVSPropertyOp2
 70
     1
102
RTVSPropertyOp3
 70
     1
102
RTVSPropertyOp4
 70
     1
102
RTVSPropertyOp5
 70
     1
102
RTVSPropertyOp6
 70
     1
102
RTVSPropertyOp7
 70
     1
102
RTVSPropertyOp8
 70
     1
102
RTVSPropertyOp9
 70
     1
102
RTVSPropertyOp10
 70
     1
102
RTVSPropertyOp11
 70
     1
102
RTVSPropertyOp12
 70
     1
102
RTVSPropertyOp13
 70
     1
102
RTVSPropertyOp14
 70
     1
102
RTVSPropertyOp15
 70
     1
102
RTVSPropertyOp16
 70
     1
102
RTVSPropertyOp17
 70
     1
102
RTVSPropertyOp18
 70
     1
102
RTVSPropertyOp19
 70
     1
102
RTVSPropertyOp20
 70
     1
102
RTVSPropertyOp21
 70
     1
102
RTVSPropertyOp22
 70
     1
102
RTVSPropertyOp23
 70
     1
102
RTVSPropertyOp24
 70
     1
102
RTVSPropertyOp25
 70
     1
102
RTVSPropertyOp26
 70
     1
102
RTVSPropertyOp27
 70
     1
  0
XRECORD
  5
3D3
102
{ACAD_REACTORS
330
3D2
102
}
330
3D2
100
AcDbXrecord
280
     1
102
RTVSPropertyOp0
 70
     0
102
RTVSPropertyOp1
 70
     0
102
RTVSPropertyOp2
 70
     0
102
RTVSPropertyOp3
 70
     0
102
RTVSPropertyOp4
 70
     0
102
RTVSPropertyOp5
 70
     0
102
RTVSPropertyOp6
 70
     0
102
RTVSPropertyOp7
 70
     0
102
RTVSPropertyOp8
 70
     0
102
RTVSPropertyOp9
 70
     0
102
RTVSPropertyOp10
 70
     0
102
RTVSPropertyOp11
 70
     0
102
RTVSPropertyOp12
 70
     0
102
RTVSPropertyOp13
 70
     0
102
RTVSPropertyOp14
 70
     2
102
RTVSPropertyOp15
 70
     0
102
RTVSPropertyOp16
 70
     0
102
RTVSPropertyOp17
 70
     0
102
RTVSPropertyOp18
 70
     0
102
RTVSPropertyOp19
 70
     0
102
RTVSPropertyOp20
 70
     0
102
RTVSPropertyOp21
 70
     0
102
RTVSPropertyOp22
 70
     0
102
RTVSPropertyOp23
 70
     0
102
RTVSPropertyOp24
 70
     0
102
RTVSPropertyOp25
 70
     0
102
RTVSPropertyOp26
 70
     0
102
RTVSPropertyOp27
 70
     0
  0
XRECORD
  5
3BB
102
{ACAD_REACTORS
330
3BA
102
}
330
3BA
100
AcDbXrecord
280
     1
102
RTVSPropertyOp0
 70
     1
102
RTVSPropertyOp1
 70
     1
102
RTVSPropertyOp2
 70
     1
102
RTVSPropertyOp3
 70
     1
102
RTVSPropertyOp4
 70
     1
102
RTVSPropertyOp5
 70
     1
102
RTVSPropertyOp6
 70
     1
102
RTVSPropertyOp7
 70
     1
102
RTVSPropertyOp8
 70
     1
102
RTVSPropertyOp9
 70
     1
102
RTVSPropertyOp10
 70
     1
102
RTVSPropertyOp11
 70
     1
102
RTVSPropertyOp12
 70
     1
102
RTVSPropertyOp13
 70
     1
102
RTVSPropertyOp14
 70
     1
102
RTVSPropertyOp15
 70
     1
102
RTVSPropertyOp16
 70
     1
102
RTVSPropertyOp17
 70
     1
102
RTVSPropertyOp18
 70
     1
102
RTVSPropertyOp19
 70
     1
102
RTVSPropertyOp20
 70
     1
102
RTVSPropertyOp21
 70
     1
102
RTVSPropertyOp22
 70
     1
102
RTVSPropertyOp23
 70
     1
102
RTVSPropertyOp24
 70
     1
102
RTVSPropertyOp25
 70
     1
102
RTVSPropertyOp26
 70
     1
102
RTVSPropertyOp27
 70
     1
  0
XRECORD
  5
3BD
102
{ACAD_REACTORS
330
3BC
102
}
330
3BC
100
AcDbXrecord
280
     1
102
RTVSPropertyOp0
 70
     1
102
RTVSPropertyOp1
 70
     1
102
RTVSPropertyOp2
 70
     1
102
RTVSPropertyOp3
 70
     1
102
RTVSPropertyOp4
 70
     1
102
RTVSPropertyOp5
 70
     1
102
RTVSPropertyOp6
 70
     1
102
RTVSPropertyOp7
 70
     1
102
RTVSPropertyOp8
 70
     1
102
RTVSPropertyOp9
 70
     1
102
RTVSPropertyOp10
 70
     1
102
RTVSPropertyOp11
 70
     1
102
RTVSPropertyOp12
 70
     1
102
RTVSPropertyOp13
 70
     1
102
RTVSPropertyOp14
 70
     1
102
RTVSPropertyOp15
 70
     1
102
RTVSPropertyOp16
 70
     1
102
RTVSPropertyOp17
 70
     1
102
RTVSPropertyOp18
 70
     1
102
RTVSPropertyOp19
 70
     1
102
RTVSPropertyOp20
 70
     1
102
RTVSPropertyOp21
 70
     1
102
RTVSPropertyOp22
 70
     1
102
RTVSPropertyOp23
 70
     1
102
RTVSPropertyOp24
 70
     1
102
RTVSPropertyOp25
 70
     1
102
RTVSPropertyOp26
 70
     1
102
RTVSPropertyOp27
 70
     1
  0
XRECORD
  5
3BF
102
{ACAD_REACTORS
330
3BE
102
}
330
3BE
100
AcDbXrecord
280
     1
102
RTVSPropertyOp0
 70
     1
102
RTVSPropertyOp1
 70
     1
102
RTVSPropertyOp2
 70
     1
102
RTVSPropertyOp3
 70
     1
102
RTVSPropertyOp4
 70
     1
102
RTVSPropertyOp5
 70
     1
102
RTVSPropertyOp6
 70
     1
102
RTVSPropertyOp7
 70
     1
102
RTVSPropertyOp8
 70
     1
102
RTVSPropertyOp9
 70
     1
102
RTVSPropertyOp10
 70
     1
102
RTVSPropertyOp11
 70
     1
102
RTVSPropertyOp12
 70
     1
102
RTVSPropertyOp13
 70
     1
102
RTVSPropertyOp14
 70
     1
102
RTVSPropertyOp15
 70
     1
102
RTVSPropertyOp16
 70
     1
102
RTVSPropertyOp17
 70
     1
102
RTVSPropertyOp18
 70
     1
102
RTVSPropertyOp19
 70
     1
102
RTVSPropertyOp20
 70
     1
102
RTVSPropertyOp21
 70
     1
102
RTVSPropertyOp22
 70
     1
102
RTVSPropertyOp23
 70
     1
102
RTVSPropertyOp24
 70
     1
102
RTVSPropertyOp25
 70
     1
102
RTVSPropertyOp26
 70
     1
102
RTVSPropertyOp27
 70
     1
  0
XRECORD
  5
3C1
102
{ACAD_REACTORS
330
3C0
102
}
330
3C0
100
AcDbXrecord
280
     1
102
RTVSPropertyOp0
 70
     1
102
RTVSPropertyOp1
 70
     1
102
RTVSPropertyOp2
 70
     1
102
RTVSPropertyOp3
 70
     1
102
RTVSPropertyOp4
 70
     1
102
RTVSPropertyOp5
 70
     1
102
RTVSPropertyOp6
 70
     1
102
RTVSPropertyOp7
 70
     1
102
RTVSPropertyOp8
 70
     1
102
RTVSPropertyOp9
 70
     1
102
RTVSPropertyOp10
 70
     1
102
RTVSPropertyOp11
 70
     1
102
RTVSPropertyOp12
 70
     1
102
RTVSPropertyOp13
 70
     1
102
RTVSPropertyOp14
 70
     1
102
RTVSPropertyOp15
 70
     1
102
RTVSPropertyOp16
 70
     1
102
RTVSPropertyOp17
 70
     1
102
RTVSPropertyOp18
 70
     1
102
RTVSPropertyOp19
 70
     1
102
RTVSPropertyOp20
 70
     1
102
RTVSPropertyOp21
 70
     1
102
RTVSPropertyOp22
 70
     1
102
RTVSPropertyOp23
 70
     1
102
RTVSPropertyOp24
 70
     1
102
RTVSPropertyOp25
 70
     1
102
RTVSPropertyOp26
 70
     1
102
RTVSPropertyOp27
 70
     1
  0
XRECORD
  5
3C3
102
{ACAD_REACTORS
330
3C2
102
}
330
3C2
100
AcDbXrecord
280
     1
102
RTVSPropertyOp0
 70
     1
102
RTVSPropertyOp1
 70
     1
102
RTVSPropertyOp2
 70
     1
102
RTVSPropertyOp3
 70
     1
102
RTVSPropertyOp4
 70
     1
102
RTVSPropertyOp5
 70
     1
102
RTVSPropertyOp6
 70
     1
102
RTVSPropertyOp7
 70
     1
102
RTVSPropertyOp8
 70
     1
102
RTVSPropertyOp9
 70
     1
102
RTVSPropertyOp10
 70
     1
102
RTVSPropertyOp11
 70
     1
102
RTVSPropertyOp12
 70
     1
102
RTVSPropertyOp13
 70
     1
102
RTVSPropertyOp14
 70
     1
102
RTVSPropertyOp15
 70
     1
102
RTVSPropertyOp16
 70
     1
102
RTVSPropertyOp17
 70
     1
102
RTVSPropertyOp18
 70
     1
102
RTVSPropertyOp19
 70
     1
102
RTVSPropertyOp20
 70
     1
102
RTVSPropertyOp21
 70
     1
102
RTVSPropertyOp22
 70
     1
102
RTVSPropertyOp23
 70
     1
102
RTVSPropertyOp24
 70
     1
102
RTVSPropertyOp25
 70
     1
102
RTVSPropertyOp26
 70
     1
102
RTVSPropertyOp27
 70
     1
  0
XRECORD
  5
3CD
102
{ACAD_REACTORS
330
3CC
102
}
330
3CC
100
AcDbXrecord
280
     1
102
RTVSPropertyOp0
 70
     1
102
RTVSPropertyOp1
 70
     1
102
RTVSPropertyOp2
 70
     1
102
RTVSPropertyOp3
 70
     1
102
RTVSPropertyOp4
 70
     1
102
RTVSPropertyOp5
 70
     1
102
RTVSPropertyOp6
 70
     1
102
RTVSPropertyOp7
 70
     1
102
RTVSPropertyOp8
 70
     1
102
RTVSPropertyOp9
 70
     1
102
RTVSPropertyOp10
 70
     1
102
RTVSPropertyOp11
 70
     1
102
RTVSPropertyOp12
 70
     1
102
RTVSPropertyOp13
 70
     1
102
RTVSPropertyOp14
 70
     1
102
RTVSPropertyOp15
 70
     1
102
RTVSPropertyOp16
 70
     1
102
RTVSPropertyOp17
 70
     1
102
RTVSPropertyOp18
 70
     1
102
RTVSPropertyOp19
 70
     1
102
RTVSPropertyOp20
 70
     1
102
RTVSPropertyOp21
 70
     1
102
RTVSPropertyOp22
 70
     1
102
RTVSPropertyOp23
 70
     1
102
RTVSPropertyOp24
 70
     1
102
RTVSPropertyOp25
 70
     1
102
RTVSPropertyOp26
 70
     1
102
RTVSPropertyOp27
 70
     1
  0
XRECORD
  5
3CF
102
{ACAD_REACTORS
330
3CE
102
}
330
3CE
100
AcDbXrecord
280
     1
102
RTVSPropertyOp0
 70
     0
102
RTVSPropertyOp1
 70
     0
102
RTVSPropertyOp2
 70
     0
102
RTVSPropertyOp3
 70
     0
102
RTVSPropertyOp4
 70
     0
102
RTVSPropertyOp5
 70
     0
102
RTVSPropertyOp6
 70
     0
102
RTVSPropertyOp7
 70
     0
102
RTVSPropertyOp8
 70
     0
102
RTVSPropertyOp9
 70
     0
102
RTVSPropertyOp10
 70
     0
102
RTVSPropertyOp11
 70
     0
102
RTVSPropertyOp12
 70
     0
102
RTVSPropertyOp13
 70
     0
102
RTVSPropertyOp14
 70
     2
102
RTVSPropertyOp15
 70
     0
102
RTVSPropertyOp16
 70
     0
102
RTVSPropertyOp17
 70
     0
102
RTVSPropertyOp18
 70
     0
102
RTVSPropertyOp19
 70
     0
102
RTVSPropertyOp20
 70
     0
102
RTVSPropertyOp21
 70
     0
102
RTVSPropertyOp22
 70
     0
102
RTVSPropertyOp23
 70
     0
102
RTVSPropertyOp24
 70
     0
102
RTVSPropertyOp25
 70
     0
102
RTVSPropertyOp26
 70
     0
102
RTVSPropertyOp27
 70
     0
  0
XRECORD
  5
3C5
102
{ACAD_REACTORS
330
3C4
102
}
330
3C4
100
AcDbXrecord
280
     1
102
RTVSPropertyOp0
 70
     1
102
RTVSPropertyOp1
 70
     1
102
RTVSPropertyOp2
 70
     1
102
RTVSPropertyOp3
 70
     1
102
RTVSPropertyOp4
 70
     1
102
RTVSPropertyOp5
 70
     1
102
RTVSPropertyOp6
 70
     1
102
RTVSPropertyOp7
 70
     1
102
RTVSPropertyOp8
 70
     1
102
RTVSPropertyOp9
 70
     1
102
RTVSPropertyOp10
 70
     1
102
RTVSPropertyOp11
 70
     1
102
RTVSPropertyOp12
 70
     1
102
RTVSPropertyOp13
 70
     1
102
RTVSPropertyOp14
 70
     1
102
RTVSPropertyOp15
 70
     1
102
RTVSPropertyOp16
 70
     1
102
RTVSPropertyOp17
 70
     1
102
RTVSPropertyOp18
 70
     1
102
RTVSPropertyOp19
 70
     1
102
RTVSPropertyOp20
 70
     1
102
RTVSPropertyOp21
 70
     1
102
RTVSPropertyOp22
 70
     1
102
RTVSPropertyOp23
 70
     1
102
RTVSPropertyOp24
 70
     1
102
RTVSPropertyOp25
 70
     1
102
RTVSPropertyOp26
 70
     1
102
RTVSPropertyOp27
 70
     1
  0
XRECORD
  5
3D1
102
{ACAD_REACTORS
330
3D0
102
}
330
3D0
100
AcDbXrecord
280
     1
102
RTVSPropertyOp0
 70
     0
102
RTVSPropertyOp1
 70
     0
102
RTVSPropertyOp2
 70
     0
102
RTVSPropertyOp3
 70
     0
102
RTVSPropertyOp4
 70
     0
102
RTVSPropertyOp5
 70
     0
102
RTVSPropertyOp6
 70
     0
102
RTVSPropertyOp7
 70
     0
102
RTVSPropertyOp8
 70
     0
102
RTVSPropertyOp9
 70
     0
102
RTVSPropertyOp10
 70
     0
102
RTVSPropertyOp11
 70
     0
102
RTVSPropertyOp12
 70
     0
102
RTVSPropertyOp13
 70
     0
102
RTVSPropertyOp14
 70
     2
102
RTVSPropertyOp15
 70
     0
102
RTVSPropertyOp16
 70
     0
102
RTVSPropertyOp17
 70
     0
102
RTVSPropertyOp18
 70
     0
102
RTVSPropertyOp19
 70
     0
102
RTVSPropertyOp20
 70
     0
102
RTVSPropertyOp21
 70
     0
102
RTVSPropertyOp22
 70
     0
102
RTVSPropertyOp23
 70
     0
102
RTVSPropertyOp24
 70
     0
102
RTVSPropertyOp25
 70
     0
102
RTVSPropertyOp26
 70
     0
102
RTVSPropertyOp27
 70
     0
  0
XRECORD
  5
3C7
102
{ACAD_REACTORS
330
3C6
102
}
330
3C6
100
AcDbXrecord
280
     1
102
RTVSPropertyOp0
 70
     1
102
RTVSPropertyOp1
 70
     1
102
RTVSPropertyOp2
 70
     1
102
RTVSPropertyOp3
 70
     1
102
RTVSPropertyOp4
 70
     1
102
RTVSPropertyOp5
 70
     1
102
RTVSPropertyOp6
 70
     1
102
RTVSPropertyOp7
 70
     1
102
RTVSPropertyOp8
 70
     1
102
RTVSPropertyOp9
 70
     1
102
RTVSPropertyOp10
 70
     1
102
RTVSPropertyOp11
 70
     1
102
RTVSPropertyOp12
 70
     1
102
RTVSPropertyOp13
 70
     1
102
RTVSPropertyOp14
 70
     1
102
RTVSPropertyOp15
 70
     1
102
RTVSPropertyOp16
 70
     1
102
RTVSPropertyOp17
 70
     1
102
RTVSPropertyOp18
 70
     1
102
RTVSPropertyOp19
 70
     1
102
RTVSPropertyOp20
 70
     1
102
RTVSPropertyOp21
 70
     1
102
RTVSPropertyOp22
 70
     1
102
RTVSPropertyOp23
 70
     1
102
RTVSPropertyOp24
 70
     1
102
RTVSPropertyOp25
 70
     1
102
RTVSPropertyOp26
 70
     1
102
RTVSPropertyOp27
 70
     1
  0
XRECORD
  5
3DD
102
{ACAD_REACTORS
330
3DC
102
}
330
3DC
100
AcDbXrecord
280
     1
102
RTVSPropertyOp0
 70
     1
102
RTVSPropertyOp1
 70
     1
102
RTVSPropertyOp2
 70
     1
102
RTVSPropertyOp3
 70
     1
102
RTVSPropertyOp4
 70
     1
102
RTVSPropertyOp5
 70
     1
102
RTVSPropertyOp6
 70
     1
102
RTVSPropertyOp7
 70
     1
102
RTVSPropertyOp8
 70
     1
102
RTVSPropertyOp9
 70
     1
102
RTVSPropertyOp10
 70
     1
102
RTVSPropertyOp11
 70
     1
102
RTVSPropertyOp12
 70
     1
102
RTVSPropertyOp13
 70
     1
102
RTVSPropertyOp14
 70
     1
102
RTVSPropertyOp15
 70
     1
102
RTVSPropertyOp16
 70
     1
102
RTVSPropertyOp17
 70
     1
102
RTVSPropertyOp18
 70
     1
102
RTVSPropertyOp19
 70
     1
102
RTVSPropertyOp20
 70
     1
102
RTVSPropertyOp21
 70
     1
102
RTVSPropertyOp22
 70
     1
102
RTVSPropertyOp23
 70
     1
102
RTVSPropertyOp24
 70
     1
102
RTVSPropertyOp25
 70
     1
102
RTVSPropertyOp26
 70
     1
102
RTVSPropertyOp27
 70
     1
  0
XRECORD
  5
3DB
102
{ACAD_REACTORS
330
3DA
102
}
330
3DA
100
AcDbXrecord
280
     1
102
RTVSPropertyOp0
 70
     1
102
RTVSPropertyOp1
 70
     1
102
RTVSPropertyOp2
 70
     1
102
RTVSPropertyOp3
 70
     1
102
RTVSPropertyOp4
 70
     1
102
RTVSPropertyOp5
 70
     1
102
RTVSPropertyOp6
 70
     1
102
RTVSPropertyOp7
 70
     1
102
RTVSPropertyOp8
 70
     1
102
RTVSPropertyOp9
 70
     1
102
RTVSPropertyOp10
 70
     1
102
RTVSPropertyOp11
 70
     1
102
RTVSPropertyOp12
 70
     1
102
RTVSPropertyOp13
 70
     1
102
RTVSPropertyOp14
 70
     1
102
RTVSPropertyOp15
 70
     1
102
RTVSPropertyOp16
 70
     1
102
RTVSPropertyOp17
 70
     1
102
RTVSPropertyOp18
 70
     1
102
RTVSPropertyOp19
 70
     1
102
RTVSPropertyOp20
 70
     1
102
RTVSPropertyOp21
 70
     1
102
RTVSPropertyOp22
 70
     1
102
RTVSPropertyOp23
 70
     1
102
RTVSPropertyOp24
 70
     1
102
RTVSPropertyOp25
 70
     1
102
RTVSPropertyOp26
 70
     1
102
RTVSPropertyOp27
 70
     1
  0
XRECORD
  5
3D5
102
{ACAD_REACTORS
330
3D4
102
}
330
3D4
100
AcDbXrecord
280
     1
102
RTVSPropertyOp0
 70
     1
102
RTVSPropertyOp1
 70
     1
102
RTVSPropertyOp2
 70
     1
102
RTVSPropertyOp3
 70
     1
102
RTVSPropertyOp4
 70
     1
102
RTVSPropertyOp5
 70
     1
102
RTVSPropertyOp6
 70
     1
102
RTVSPropertyOp7
 70
     1
102
RTVSPropertyOp8
 70
     1
102
RTVSPropertyOp9
 70
     1
102
RTVSPropertyOp10
 70
     1
102
RTVSPropertyOp11
 70
     1
102
RTVSPropertyOp12
 70
     1
102
RTVSPropertyOp13
 70
     1
102
RTVSPropertyOp14
 70
     1
102
RTVSPropertyOp15
 70
     1
102
RTVSPropertyOp16
 70
     1
102
RTVSPropertyOp17
 70
     1
102
RTVSPropertyOp18
 70
     1
102
RTVSPropertyOp19
 70
     1
102
RTVSPropertyOp20
 70
     1
102
RTVSPropertyOp21
 70
     1
102
RTVSPropertyOp22
 70
     1
102
RTVSPropertyOp23
 70
     1
102
RTVSPropertyOp24
 70
     1
102
RTVSPropertyOp25
 70
     1
102
RTVSPropertyOp26
 70
     1
102
RTVSPropertyOp27
 70
     1
  0
XRECORD
  5
3D7
102
{ACAD_REACTORS
330
3D6
102
}
330
3D6
100
AcDbXrecord
280
     1
102
RTVSPropertyOp0
 70
     1
102
RTVSPropertyOp1
 70
     1
102
RTVSPropertyOp2
 70
     1
102
RTVSPropertyOp3
 70
     1
102
RTVSPropertyOp4
 70
     1
102
RTVSPropertyOp5
 70
     1
102
RTVSPropertyOp6
 70
     1
102
RTVSPropertyOp7
 70
     1
102
RTVSPropertyOp8
 70
     1
102
RTVSPropertyOp9
 70
     1
102
RTVSPropertyOp10
 70
     1
102
RTVSPropertyOp11
 70
     1
102
RTVSPropertyOp12
 70
     1
102
RTVSPropertyOp13
 70
     1
102
RTVSPropertyOp14
 70
     1
102
RTVSPropertyOp15
 70
     1
102
RTVSPropertyOp16
 70
     1
102
RTVSPropertyOp17
 70
     1
102
RTVSPropertyOp18
 70
     1
102
RTVSPropertyOp19
 70
     1
102
RTVSPropertyOp20
 70
     1
102
RTVSPropertyOp21
 70
     1
102
RTVSPropertyOp22
 70
     1
102
RTVSPropertyOp23
 70
     1
102
RTVSPropertyOp24
 70
     1
102
RTVSPropertyOp25
 70
     1
102
RTVSPropertyOp26
 70
     1
102
RTVSPropertyOp27
 70
     1
  0
XRECORD
  5
3C9
102
{ACAD_REACTORS
330
3C8
102
}
330
3C8
100
AcDbXrecord
280
     1
102
RTVSPropertyOp0
 70
     1
102
RTVSPropertyOp1
 70
     1
102
RTVSPropertyOp2
 70
     1
102
RTVSPropertyOp3
 70
     1
102
RTVSPropertyOp4
 70
     1
102
RTVSPropertyOp5
 70
     1
102
RTVSPropertyOp6
 70
     1
102
RTVSPropertyOp7
 70
     1
102
RTVSPropertyOp8
 70
     1
102
RTVSPropertyOp9
 70
     1
102
RTVSPropertyOp10
 70
     1
102
RTVSPropertyOp11
 70
     1
102
RTVSPropertyOp12
 70
     1
102
RTVSPropertyOp13
 70
     1
102
RTVSPropertyOp14
 70
     1
102
RTVSPropertyOp15
 70
     1
102
RTVSPropertyOp16
 70
     1
102
RTVSPropertyOp17
 70
     1
102
RTVSPropertyOp18
 70
     1
102
RTVSPropertyOp19
 70
     1
102
RTVSPropertyOp20
 70
     1
102
RTVSPropertyOp21
 70
     1
102
RTVSPropertyOp22
 70
     1
102
RTVSPropertyOp23
 70
     1
102
RTVSPropertyOp24
 70
     1
102
RTVSPropertyOp25
 70
     1
102
RTVSPropertyOp26
 70
     1
102
RTVSPropertyOp27
 70
     1
  0
XRECORD
  5
3CB
102
{ACAD_REACTORS
330
3CA
102
}
330
3CA
100
AcDbXrecord
280
     1
102
RTVSPropertyOp0
 70
     1
102
RTVSPropertyOp1
 70
     1
102
RTVSPropertyOp2
 70
     1
102
RTVSPropertyOp3
 70
     1
102
RTVSPropertyOp4
 70
     1
102
RTVSPropertyOp5
 70
     1
102
RTVSPropertyOp6
 70
     1
102
RTVSPropertyOp7
 70
     1
102
RTVSPropertyOp8
 70
     1
102
RTVSPropertyOp9
 70
     1
102
RTVSPropertyOp10
 70
     1
102
RTVSPropertyOp11
 70
     1
102
RTVSPropertyOp12
 70
     1
102
RTVSPropertyOp13
 70
     1
102
RTVSPropertyOp14
 70
     1
102
RTVSPropertyOp15
 70
     1
102
RTVSPropertyOp16
 70
     1
102
RTVSPropertyOp17
 70
     1
102
RTVSPropertyOp18
 70
     1
102
RTVSPropertyOp19
 70
     1
102
RTVSPropertyOp20
 70
     1
102
RTVSPropertyOp21
 70
     1
102
RTVSPropertyOp22
 70
     1
102
RTVSPropertyOp23
 70
     1
102
RTVSPropertyOp24
 70
     1
102
RTVSPropertyOp25
 70
     1
102
RTVSPropertyOp26
 70
     1
102
RTVSPropertyOp27
 70
     1
  0
XRECORD
  5
3D9
102
{ACAD_REACTORS
330
3D8
102
}
330
3D8
100
AcDbXrecord
280
     1
102
RTVSPropertyOp0
 70
     1
102
RTVSPropertyOp1
 70
     1
102
RTVSPropertyOp2
 70
     1
102
RTVSPropertyOp3
 70
     1
102
RTVSPropertyOp4
 70
     1
102
RTVSPropertyOp5
 70
     1
102
RTVSPropertyOp6
 70
     1
102
RTVSPropertyOp7
 70
     1
102
RTVSPropertyOp8
 70
     1
102
RTVSPropertyOp9
 70
     1
102
RTVSPropertyOp10
 70
     1
102
RTVSPropertyOp11
 70
     1
102
RTVSPropertyOp12
 70
     1
102
RTVSPropertyOp13
 70
     1
102
RTVSPropertyOp14
 70
     1
102
RTVSPropertyOp15
 70
     1
102
RTVSPropertyOp16
 70
     1
102
RTVSPropertyOp17
 70
     1
102
RTVSPropertyOp18
 70
     1
102
RTVSPropertyOp19
 70
     1
102
RTVSPropertyOp20
 70
     1
102
RTVSPropertyOp21
 70
     1
102
RTVSPropertyOp22
 70
     1
102
RTVSPropertyOp23
 70
     1
102
RTVSPropertyOp24
 70
     1
102
RTVSPropertyOp25
 70
     1
102
RTVSPropertyOp26
 70
     1
102
RTVSPropertyOp27
 70
     1
  0
ENDSEC
  0
EOF
