  0
SECTION
  2
HEADER
  9
$ACADVER
  1
AC1018
  9
$ACADMAINTVER
 70
   104
  9
$DWGCODEPAGE
  3
ANSI_936
  9
$LASTSAVEDBY
  1
yuqin.cai
  9
$INSBASE
 10
0.0
 20
0.0
 30
0.0
  9
$EXTMIN
 10
12069.3737628894
 20
-2043.133520782097
 30
-0.00000001
  9
$EXTMAX
 10
13214.2456361123
 20
-599.1828229647095
 30
0.00000001
  9
$LIMMIN
 10
0.0
 20
0.0
  9
$LIMMAX
 10
297.0
 20
210.0
  9
$ORTHOMODE
 70
     0
  9
$REGENMODE
 70
     1
  9
$FILLMODE
 70
     1
  9
$QTEXTMODE
 70
     0
  9
$MIRRTEXT
 70
     0
  9
$LTSCALE
 40
16.335
  9
$ATTMODE
 70
     1
  9
$TEXTSIZE
 40
0.2
  9
$TRACEWID
 40
0.05
  9
$TEXTSTYLE
  7
STANDARD
  9
$CLAYER
  8
0
  9
$CELTYPE
  6
BYLAYER
  9
$CECOLOR
 62
   256
  9
$CELTSCALE
 40
1.0
  9
$DISPSILH
 70
     0
  9
$DIMSCALE
 40
1.0
  9
$DIMASZ
 40
3.5
  9
$DIMEXO
 40
1.0
  9
$DIMDLI
 40
11.286
  9
$DIMRND
 40
0.0
  9
$DIMDLE
 40
0.0
  9
$DIMEXE
 40
1.5
  9
$DIMTP
 40
0.01
  9
$DIMTM
 40
0.01
  9
$DIMTXT
 40
3.5
  9
$DIMCEN
 40
2.673
  9
$DIMTSZ
 40
0.0
  9
$DIMTOL
 70
     1
  9
$DIMLIM
 70
     0
  9
$DIMTIH
 70
     1
  9
$DIMTOH
 70
     1
  9
$DIMSE1
 70
     0
  9
$DIMSE2
 70
     0
  9
$DIMTAD
 70
     0
  9
$DIMZIN
 70
     0
  9
$DIMBLK
  1

  9
$DIMASO
 70
     1
  9
$DIMSHO
 70
     1
  9
$DIMPOST
  1

  9
$DIMAPOST
  1

  9
$DIMALT
 70
     0
  9
$DIMALTD
 70
     2
  9
$DIMALTF
 40
25.4
  9
$DIMLFAC
 40
1.0
  9
$DIMTOFL
 70
     0
  9
$DIMTVP
 40
0.0
  9
$DIMTIX
 70
     0
  9
$DIMSOXD
 70
     0
  9
$DIMSAH
 70
     0
  9
$DIMBLK1
  1

  9
$DIMBLK2
  1

  9
$DIMSTYLE
  2
STANDARD
  9
$DIMCLRD
 70
     0
  9
$DIMCLRE
 70
     0
  9
$DIMCLRT
 70
     0
  9
$DIMTFAC
 40
1.0
  9
$DIMGAP
 40
0.625
  9
$DIMJUST
 70
     0
  9
$DIMSD1
 70
     0
  9
$DIMSD2
 70
     0
  9
$DIMTOLJ
 70
     1
  9
$DIMTZIN
 70
     0
  9
$DIMALTZ
 70
     0
  9
$DIMALTTZ
 70
     0
  9
$DIMUPT
 70
     0
  9
$DIMDEC
 70
     4
  9
$DIMTDEC
 70
     4
  9
$DIMALTU
 70
     2
  9
$DIMALTTD
 70
     2
  9
$DIMTXSTY
  7
STANDARD
  9
$DIMAUNIT
 70
     0
  9
$DIMADEC
 70
     0
  9
$DIMALTRND
 40
0.0
  9
$DIMAZIN
 70
     0
  9
$DIMDSEP
 70
    44
  9
$DIMATFIT
 70
     3
  9
$DIMFRAC
 70
     0
  9
$DIMLDRBLK
  1

  9
$DIMLUNIT
 70
     2
  9
$DIMLWD
 70
    -2
  9
$DIMLWE
 70
    -2
  9
$DIMTMOVE
 70
     0
  9
$LUNITS
 70
     2
  9
$LUPREC
 70
     4
  9
$SKETCHINC
 40
0.1
  9
$FILLETRAD
 40
0.0
  9
$AUNITS
 70
     0
  9
$AUPREC
 70
     0
  9
$MENU
  1
.
  9
$ELEVATION
 40
0.0
  9
$PELEVATION
 40
0.0
  9
$THICKNESS
 40
0.0
  9
$LIMCHECK
 70
     0
  9
$CHAMFERA
 40
0.0
  9
$CHAMFERB
 40
0.0
  9
$CHAMFERC
 40
0.0
  9
$CHAMFERD
 40
0.0
  9
$SKPOLY
 70
     0
  9
$TDCREATE
 40
2458249.370432882
  9
$TDUCREATE
 40
2458249.037099549
  9
$TDUPDATE
 40
2458555.573725081
  9
$TDUUPDATE
 40
2458555.240391748
  9
$TDINDWG
 40
0.1109682292
  9
$TDUSRTIMER
 40
0.1109680208
  9
$USRTIMER
 70
     1
  9
$ANGBASE
 50
0.0
  9
$ANGDIR
 70
     0
  9
$PDMODE
 70
     3
  9
$PDSIZE
 40
8.0
  9
$PLINEWID
 40
0.0
  9
$SPLFRAME
 70
     0
  9
$SPLINETYPE
 70
     6
  9
$SPLINESEGS
 70
     8
  9
$HANDSEED
  5
1083
  9
$SURFTAB1
 70
     6
  9
$SURFTAB2
 70
     6
  9
$SURFTYPE
 70
     6
  9
$SURFU
 70
     6
  9
$SURFV
 70
     6
  9
$UCSBASE
  2

  9
$UCSNAME
  2

  9
$UCSORG
 10
0.0
 20
0.0
 30
0.0
  9
$UCSXDIR
 10
1.0
 20
0.0
 30
0.0
  9
$UCSYDIR
 10
0.0
 20
1.0
 30
0.0
  9
$UCSORTHOREF
  2

  9
$UCSORTHOVIEW
 70
     0
  9
$UCSORGTOP
 10
0.0
 20
0.0
 30
0.0
  9
$UCSORGBOTTOM
 10
0.0
 20
0.0
 30
0.0
  9
$UCSORGLEFT
 10
0.0
 20
0.0
 30
0.0
  9
$UCSORGRIGHT
 10
0.0
 20
0.0
 30
0.0
  9
$UCSORGFRONT
 10
0.0
 20
0.0
 30
0.0
  9
$UCSORGBACK
 10
0.0
 20
0.0
 30
0.0
  9
$PUCSBASE
  2

  9
$PUCSNAME
  2

  9
$PUCSORG
 10
0.0
 20
0.0
 30
0.0
  9
$PUCSXDIR
 10
1.0
 20
0.0
 30
0.0
  9
$PUCSYDIR
 10
0.0
 20
1.0
 30
0.0
  9
$PUCSORTHOREF
  2

  9
$PUCSORTHOVIEW
 70
     0
  9
$PUCSORGTOP
 10
0.0
 20
0.0
 30
0.0
  9
$PUCSORGBOTTOM
 10
0.0
 20
0.0
 30
0.0
  9
$PUCSORGLEFT
 10
0.0
 20
0.0
 30
0.0
  9
$PUCSORGRIGHT
 10
0.0
 20
0.0
 30
0.0
  9
$PUCSORGFRONT
 10
0.0
 20
0.0
 30
0.0
  9
$PUCSORGBACK
 10
0.0
 20
0.0
 30
0.0
  9
$USERI1
 70
     0
  9
$USERI2
 70
     0
  9
$USERI3
 70
     0
  9
$USERI4
 70
     0
  9
$USERI5
 70
     0
  9
$USERR1
 40
0.0
  9
$USERR2
 40
0.0
  9
$USERR3
 40
0.0
  9
$USERR4
 40
0.0
  9
$USERR5
 40
0.0
  9
$WORLDVIEW
 70
     1
  9
$SHADEDGE
 70
     3
  9
$SHADEDIF
 70
    70
  9
$TILEMODE
 70
     1
  9
$MAXACTVP
 70
    64
  9
$PINSBASE
 10
0.0
 20
0.0
 30
0.0
  9
$PLIMCHECK
 70
     0
  9
$PEXTMIN
 10
1.000000000000000E+20
 20
1.000000000000000E+20
 30
1.000000000000000E+20
  9
$PEXTMAX
 10
-1.000000000000000E+20
 20
-1.000000000000000E+20
 30
-1.000000000000000E+20
  9
$PLIMMIN
 10
0.0
 20
0.0
  9
$PLIMMAX
 10
12.0
 20
9.0
  9
$UNITMODE
 70
     0
  9
$VISRETAIN
 70
     1
  9
$PLINEGEN
 70
     0
  9
$PSLTSCALE
 70
     1
  9
$TREEDEPTH
 70
  3020
  9
$CMLSTYLE
  2
Standard
  9
$CMLJUST
 70
     0
  9
$CMLSCALE
 40
1.0
  9
$PROXYGRAPHICS
 70
     1
  9
$MEASUREMENT
 70
     1
  9
$CELWEIGHT
370
    -1
  9
$ENDCAPS
280
     0
  9
$JOINSTYLE
280
     0
  9
$LWDISPLAY
290
     0
  9
$INSUNITS
 70
     4
  9
$HYPERLINKBASE
  1

  9
$STYLESHEET
  1

  9
$XEDIT
290
     1
  9
$CEPSNTYPE
380
     0
  9
$PSTYLEMODE
290
     1
  9
$FINGERPRINTGUID
  2
{F2F7998C-03D6-45F9-A96A-CF8146DB7140}
  9
$VERSIONGUID
  2
{A796B6E5-3EF0-4CA7-A14C-94D43B28BEAE}
  9
$EXTNAMES
290
     1
  9
$PSVPSCALE
 40
0.0
  9
$OLESTARTUP
290
     0
  9
$SORTENTS
280
   127
  9
$INDEXCTL
280
     0
  9
$HIDETEXT
280
     1
  9
$XCLIPFRAME
290
     0
  9
$HALOGAP
280
     0
  9
$OBSCOLOR
 70
   257
  9
$OBSLTYPE
280
     0
  9
$INTERSECTIONDISPLAY
280
     0
  9
$INTERSECTIONCOLOR
 70
   257
  9
$DIMASSOC
280
     2
  9
$PROJECTNAME
  1

  0
ENDSEC
  0
SECTION
  2
CLASSES
  0
CLASS
  1
ACDBDICTIONARYWDFLT
  2
AcDbDictionaryWithDefault
  3
ObjectDBX Classes
 90
        0
 91
        1
280
     0
281
     0
  0
CLASS
  1
MATERIAL
  2
AcDbMaterial
  3
ObjectDBX Classes
 90
        0
 91
        3
280
     0
281
     0
  0
CLASS
  1
VISUALSTYLE
  2
AcDbVisualStyle
  3
ObjectDBX Classes
 90
     4095
 91
       26
280
     0
281
     0
  0
CLASS
  1
TABLESTYLE
  2
AcDbTableStyle
  3
ObjectDBX Classes
 90
     4095
 91
        1
280
     0
281
     0
  0
CLASS
  1
SCALE
  2
AcDbScale
  3
ObjectDBX Classes
 90
     1153
 91
       33
280
     0
281
     0
  0
CLASS
  1
MLEADERSTYLE
  2
AcDbMLeaderStyle
  3
ACDB_MLEADERSTYLE_CLASS
 90
     4095
 91
        1
280
     0
281
     0
  0
CLASS
  1
CELLSTYLEMAP
  2
AcDbCellStyleMap
  3
ObjectDBX Classes
 90
     1152
 91
        1
280
     0
281
     0
  0
CLASS
  1
DICTIONARYVAR
  2
AcDbDictionaryVar
  3
ObjectDBX Classes
 90
        0
 91
        4
280
     0
281
     0
  0
CLASS
  1
DIMASSOC
  2
AcDbDimAssoc
  3
"ZcDbDimAssoc|Product Desc:     ZwDim ZRX App For Dimension|Company:          ZwSoft.|WEB Address:      www.zwsoft.com"
 90
        0
 91
        0
280
     0
281
     0
  0
CLASS
  1
SORTENTSTABLE
  2
AcDbSortentsTable
  3
ObjectDBX Classes
 90
        0
 91
        0
280
     0
281
     0
  0
CLASS
  1
SUN
  2
AcDbSun
  3
SCENEOE
 90
     1024
 91
        0
280
     0
281
     0
  0
ENDSEC
  0
SECTION
  2
TABLES
  0
TABLE
  2
VPORT
  5
8
330
0
100
AcDbSymbolTable
 70
     2
  0
VPORT
  5
104B
330
8
100
AcDbSymbolTableRecord
100
AcDbViewportTableRecord
  2
*Active
 70
     0
 10
0.0
 20
0.0
 11
1.0
 21
1.0
 12
15437.29926112693
 22
-1681.267896455026
 13
0.0
 23
0.0
 14
1.0
 24
1.0
 15
0.0
 25
0.0
 16
0.0
 26
0.0
 36
1.0
 17
0.0
 27
0.0
 37
0.0
 40
4503.315754797617
 41
2.917333333333333
 42
50.0
 43
0.0
 44
0.0
 50
0.0
 51
0.0
 71
     0
 72
   100
 73
     1
 74
     1
 75
     0
 76
     0
 77
     0
 78
     0
281
     0
 65
     1
110
0.0
120
0.0
130
0.0
111
1.0
121
0.0
131
0.0
112
0.0
122
1.0
132
0.0
 79
     0
146
0.0
  0
ENDTAB
  0
TABLE
  2
LTYPE
  5
5
330
0
100
AcDbSymbolTable
 70
     1
  0
LTYPE
  5
14
330
5
100
AcDbSymbolTableRecord
100
AcDbLinetypeTableRecord
  2
BYBLOCK
 70
     0
  3

 72
    65
 73
     0
 40
0.0
  0
LTYPE
  5
15
330
5
100
AcDbSymbolTableRecord
100
AcDbLinetypeTableRecord
  2
BYLAYER
 70
     0
  3

 72
    65
 73
     0
 40
0.0
  0
LTYPE
  5
16
330
5
100
AcDbSymbolTableRecord
100
AcDbLinetypeTableRecord
  2
CONTINUOUS
 70
     0
  3
Solid line
 72
    65
 73
     0
 40
0.0
  0
ENDTAB
  0
TABLE
  2
LAYER
  5
2
102
{ACAD_XDICTIONARY
360
38E
102
}
330
0
100
AcDbSymbolTable
 70
     5
  0
LAYER
  5
10
330
2
100
AcDbSymbolTableRecord
100
AcDbLayerTableRecord
  2
0
 70
     0
 62
     7
  6
CONTINUOUS
370
    -3
390
F
  0
LAYER
  5
351
330
2
100
AcDbSymbolTableRecord
100
AcDbLayerTableRecord
  2
Defpoints
 70
     0
 62
     7
  6
CONTINUOUS
290
     0
370
    -3
390
F
  0
LAYER
  5
380
102
{ACAD_XDICTIONARY
360
381
102
}
330
2
100
AcDbSymbolTableRecord
100
AcDbLayerTableRecord
  2
图框
 70
     0
 62
     7
  6
CONTINUOUS
370
    50
390
F
  0
LAYER
  5
43C
330
2
100
AcDbSymbolTableRecord
100
AcDbLayerTableRecord
  2
02___PRT_ALL_AXES
 70
     0
 62
     7
  6
CONTINUOUS
370
    -3
390
F
  0
LAYER
  5
43D
330
2
100
AcDbSymbolTableRecord
100
AcDbLayerTableRecord
  2
06___PRT_ALL_SURFS
 70
     0
 62
     7
  6
CONTINUOUS
370
    -3
390
F
  0
ENDTAB
  0
TABLE
  2
STYLE
  5
3
330
0
100
AcDbSymbolTable
 70
     1
  0
STYLE
  5
11
330
3
100
AcDbSymbolTableRecord
100
AcDbTextStyleTableRecord
  2
STANDARD
 70
     0
 40
0.0
 41
0.85
 50
0.0
 71
     0
 42
0.2
  3
txt
  4

  0
ENDTAB
  0
TABLE
  2
VIEW
  5
6
330
0
100
AcDbSymbolTable
 70
     0
  0
ENDTAB
  0
TABLE
  2
UCS
  5
7
330
0
100
AcDbSymbolTable
 70
     0
  0
ENDTAB
  0
TABLE
  2
APPID
  5
9
330
0
100
AcDbSymbolTable
 70
     7
  0
APPID
  5
1FF
330
9
100
AcDbSymbolTableRecord
100
AcDbRegAppTableRecord
  2
ACAD
 70
     0
  0
APPID
  5
343
330
9
100
AcDbSymbolTableRecord
100
AcDbRegAppTableRecord
  2
ACAD_MLEADERVER
 70
     0
  0
APPID
  5
389
330
9
100
AcDbSymbolTableRecord
100
AcDbRegAppTableRecord
  2
ACAD_DSTYLE_DIMJAG
 70
     0
  0
APPID
  5
38A
330
9
100
AcDbSymbolTableRecord
100
AcDbRegAppTableRecord
  2
ACAD_DSTYLE_DIMTALN
 70
     0
  0
APPID
  5
38B
330
9
100
AcDbSymbolTableRecord
100
AcDbRegAppTableRecord
  2
ACAD_PSEXT
 70
     0
  0
APPID
  5
38C
330
9
100
AcDbSymbolTableRecord
100
AcDbRegAppTableRecord
  2
AcAecLayerStandard
 70
     0
  0
APPID
  5
38D
330
9
100
AcDbSymbolTableRecord
100
AcDbRegAppTableRecord
  2
ACAD_DSTYLE_DIMBREAK
 70
     0
  0
ENDTAB
  0
TABLE
  2
DIMSTYLE
  5
A
330
0
100
AcDbSymbolTable
 70
     1
100
AcDbDimStyleTable
 71
     1
340
202
  0
DIMSTYLE
105
202
330
A
100
AcDbSymbolTableRecord
100
AcDbDimStyleTableRecord
  2
STANDARD
 70
     0
 41
3.5
 42
1.0
 44
1.5
 47
0.01
 48
0.01
 71
     1
 73
     0
 74
     0
 77
     1
 78
     8
140
3.5
147
0.625
271
     2
272
     2
278
    44
284
     8
340
11
  0
ENDTAB
  0
TABLE
  2
BLOCK_RECORD
  5
1
330
0
100
AcDbSymbolTable
 70
     1
  0
BLOCK_RECORD
  5
200
330
1
100
AcDbSymbolTableRecord
100
AcDbBlockTableRecord
  2
*Model_Space
340
2EE
  0
BLOCK_RECORD
  5
201
330
1
100
AcDbSymbolTableRecord
100
AcDbBlockTableRecord
  2
*Paper_Space
340
2EF
  0
ENDTAB
  0
ENDSEC
  0
SECTION
  2
BLOCKS
  0
BLOCK
  5
20
330
200
100
AcDbEntity
  8
0
100
AcDbBlockBegin
  2
*Model_Space
 70
     0
 10
0.0
 20
0.0
 30
0.0
  3
*Model_Space
  1

  0
ENDBLK
  5
21
330
200
100
AcDbEntity
  8
0
100
AcDbBlockEnd
  0
BLOCK
  5
1C
330
201
100
AcDbEntity
 67
     1
  8
0
100
AcDbBlockBegin
  2
*Paper_Space
 70
     0
 10
0.0
 20
0.0
 30
0.0
  3
*Paper_Space
  1

  0
ENDBLK
  5
1D
330
201
100
AcDbEntity
 67
     1
  8
0
100
AcDbBlockEnd
  0
ENDSEC
  0
SECTION
  2
ENTITIES
  0
MTEXT
  5
EAF
330
200
100
AcDbEntity
  8
图框
100
AcDbMText
 10
12290.01786522923
 20
-604.7383785202651
 30
0.0
 40
25.0
 41
9.974118243243243
 71
     1
 72
     5
  1
{\fSimSun|b0|i0|c134|p2;SCALE  1:1}
 73
     1
 44
1.0
1001
ACAD
1000
MTEXTBEGIN
1070
    73
1070
     1
1070
    44
1040
1.0
1070
    74
1070
     0
1000
MTEXTEND
  0
LWPOLYLINE
  5
EB0
330
200
100
AcDbEntity
  8
0
  6
Continuous
 62
     7
100
AcDbPolyline
 90
       22
 70
     0
 43
0.0
 10
12069.8602064372
 20
-1865.723009634097
 10
12071.802696253
 20
-1889.705176923696
 10
12077.6449284754
 20
-1915.036676230597
 10
12087.2346581322
 20
-1939.882493598096
 10
12100.3735094704
 20
-1963.515562717297
 10
12116.8167542601
 20
-1985.183525888196
 10
12136.3134624596
 20
-2004.096552486097
 10
12158.3416731287
 20
-2019.512374574796
 10
12182.1147021516
 20
-2031.049916255497
 10
12207.1096524627
 20
-2038.829936622897
 10
12233.0257377344
 20
-2042.899321571297
 10
12259.604948837
 20
-2043.133520782097
 10
12286.3409200696
 20
-2039.422203875897
 10
12312.4505245689
 20
-2031.847200314496
 10
12337.1516295247
 20
-2020.596994516297
 10
12359.7102026602
 20
-2005.925476098397
 10
12379.6375342142
 20
-1988.099990429696
 10
12396.5429614897
 20
-1967.435342808997
 10
12410.1130548611
 20
-1944.320482158996
 10
12420.0635684813
 20
-1919.162688717496
 10
12426.1510992645
 20
-1892.405726056597
 10
12428.2031194889
 20
-1865.694851396696
1001
ACAD
1000
RTMaterial
1005
0
  0
LWPOLYLINE
  5
EB1
330
200
100
AcDbEntity
  8
0
  6
Continuous
 62
     7
100
AcDbPolyline
 90
        3
 70
     0
 43
0.0
 10
12069.6438601292
 20
-1808.322673150196
 10
12069.7365722014
 20
-1839.018462803396
 10
12069.8601996756
 20
-1865.723010885997
1001
ACAD
1000
RTMaterial
1005
0
  0
LINE
  5
EB2
330
200
100
AcDbEntity
  8
0
  6
Continuous
 62
     7
100
AcDbLine
 10
12069.6438601292
 20
-1808.322673150196
 30
0.0
 11
12069.3737628894
 21
-1520.686640670496
 31
0.0
1001
ACAD
1000
RTMaterial
1005
0
  0
LINE
  5
EB3
330
200
100
AcDbEntity
  8
0
  6
Continuous
 62
     7
100
AcDbLine
 10
12077.3738681934
 20
-1517.684042065896
 30
0.0
 11
12077.5938676448
 21
-1775.875010744196
 31
0.0
1001
ACAD
1000
RTMaterial
1005
0
  0
LWPOLYLINE
  5
EB4
330
200
100
AcDbEntity
  8
0
  6
Continuous
 62
     7
100
AcDbPolyline
 90
        4
 70
     0
 43
0.0
 10
12123.6442119571
 20
-1861.526326821896
 10
12123.5383522913
 20
-1859.352226077096
 10
12123.438245356
 20
-1856.047415780496
 10
12123.4126245292
 20
-1853.842529002497
1001
ACAD
1000
RTMaterial
1005
0
  0
LINE
  5
EB5
330
200
100
AcDbEntity
  8
0
  6
Continuous
 62
     7
100
AcDbLine
 10
12106.4218636937
 20
-1866.601581621597
 30
0.0
 11
12106.3922848574
 21
-1718.623539052297
 31
0.0
1001
ACAD
1000
RTMaterial
1005
0
  0
LINE
  5
EB6
330
200
100
AcDbEntity
  8
0
  6
Continuous
 62
     7
100
AcDbLine
 10
12118.3112343139
 20
-1718.623539052297
 30
0.0
 11
12118.3112343139
 21
-1857.727835512497
 31
0.0
1001
ACAD
1000
RTMaterial
1005
0
  0
LINE
  5
EB7
330
200
100
AcDbEntity
  8
0
  6
Continuous
 62
     7
100
AcDbLine
 10
12106.3924930698
 20
-1718.227414766796
 30
0.0
 11
12106.3922848574
 21
-1718.623539052297
 31
0.0
1001
ACAD
1000
RTMaterial
1005
0
  0
LINE
  5
EB8
330
200
100
AcDbEntity
  8
0
  6
Continuous
 62
     7
100
AcDbLine
 10
12123.4126249599
 20
-1853.842506100997
 30
0.0
 11
12123.3947956168
 21
-1722.129521852896
 31
0.0
1001
ACAD
1000
RTMaterial
1005
0
  0
LINE
  5
EB9
330
200
100
AcDbEntity
  8
0
  6
Continuous
 62
     7
100
AcDbLine
 10
12123.3478537086
 20
-1722.130128113796
 30
0.0
 11
12123.3498104763
 21
-1777.562598039696
 31
0.0
1001
ACAD
1000
RTMaterial
1005
0
  0
LINE
  5
EBA
330
200
100
AcDbEntity
  8
0
  6
Continuous
 62
     7
100
AcDbLine
 10
12123.3947930554
 20
-1722.129556454996
 30
0.0
 11
12123.4001664299
 21
-1721.570641411396
 31
0.0
1001
ACAD
1000
RTMaterial
1005
0
  0
LWPOLYLINE
  5
EBB
330
200
100
AcDbEntity
  8
0
  6
Continuous
 62
     7
100
AcDbPolyline
 90
        3
 70
     0
 43
0.0
 10
12123.4001664299
 20
-1721.570641411396
 10
12123.473586698
 20
-1719.913206859496
 10
12123.5265211485
 20
-1719.256293464697
1001
ACAD
1000
RTMaterial
1005
0
  0
LWPOLYLINE
  5
EBC
330
200
100
AcDbEntity
  8
0
  6
Continuous
 62
     7
100
AcDbPolyline
 90
        7
 70
     0
 43
0.0
 10
12123.526574757
 20
-1719.256287191096
 10
12124.5523740356
 20
-1713.702642196096
 10
12127.0889744028
 20
-1707.438608367897
 10
12130.9282605438
 20
-1701.888392172096
 10
12135.8916683086
 20
-1697.314982432297
 10
12141.748797444
 20
-1693.948907722996
 10
12147.9805896928
 20
-1692.027205572696
1001
ACAD
1000
RTMaterial
1005
0
  0
LINE
  5
EBD
330
200
100
AcDbEntity
  8
0
  6
Continuous
 62
     7
100
AcDbLine
 10
12148.0387660366
 20
-1691.845475621096
 30
0.0
 11
12147.9805896928
 21
-1692.027205572696
 31
0.0
1001
ACAD
1000
RTMaterial
1005
0
  0
LINE
  5
EBE
330
200
100
AcDbEntity
  8
0
  6
Continuous
 62
     7
100
AcDbLine
 10
12163.6014364789
 20
-1691.303862352397
 30
0.0
 11
12163.6012110433
 21
-1691.094693373896
 31
0.0
1001
ACAD
1000
RTMaterial
1005
0
  0
LINE
  5
EBF
330
200
100
AcDbEntity
  8
0
  6
Continuous
 62
     7
100
AcDbLine
 10
12158.1795694808
 20
-1668.314725188996
 30
0.0
 11
12158.1795694808
 21
-1679.956435190696
 31
0.0
1001
ACAD
1000
RTMaterial
1005
0
  0
LINE
  5
EC0
330
200
100
AcDbEntity
  8
0
  6
Continuous
 62
     7
100
AcDbLine
 10
12153.2223305812
 20
-1691.456493144697
 30
0.0
 11
12153.2315330433
 21
-1691.280875351896
 31
0.0
1001
ACAD
1000
RTMaterial
1005
0
  0
LINE
  5
EC1
330
200
100
AcDbEntity
  8
0
  6
Continuous
 62
     7
100
AcDbLine
 10
12118.3485147168
 20
-1866.480576009496
 30
0.0
 11
12106.4375480786
 21
-1866.601581504797
 31
0.0
1001
ACAD
1000
RTMaterial
1005
0
  0
LINE
  5
EC2
330
200
100
AcDbEntity
  8
0
  6
Continuous
 62
     7
100
AcDbLine
 10
12077.860580262
 20
-1865.679303581696
 30
0.0
 11
12069.8601996756
 21
-1865.723010885997
 31
0.0
1001
ACAD
1000
RTMaterial
1005
0
  0
LINE
  5
EC3
330
200
100
AcDbEntity
  8
0
  6
Continuous
 62
     7
100
AcDbLine
 10
12420.2032992637
 20
-1865.645522395496
 30
0.0
 11
12428.2031194635
 21
-1865.694851396497
 31
0.0
1001
ACAD
1000
RTMaterial
1005
0
  0
LINE
  5
EC4
330
200
100
AcDbEntity
  8
0
  6
Continuous
 62
     7
100
AcDbLine
 10
12379.7776941668
 20
-1866.428258885096
 30
0.0
 11
12391.6833751907
 21
-1866.613651041996
 31
0.0
1001
ACAD
1000
RTMaterial
1005
0
  0
LINE
  5
EC5
330
200
100
AcDbEntity
  8
0
  6
Continuous
 62
     7
100
AcDbLine
 10
12123.6442121956
 20
-1861.526332217696
 30
0.0
 11
12123.5887928458
 21
-1861.534481627897
 31
0.0
1001
ACAD
1000
RTMaterial
1005
0
  0
LINE
  5
EC6
330
200
100
AcDbEntity
  8
0
  6
Continuous
 62
     7
100
AcDbLine
 10
12123.365156076
 20
-1853.844493933296
 30
0.0
 11
12123.4126245293
 21
-1853.842529020997
 31
0.0
1001
ACAD
1000
RTMaterial
1005
0
  0
LINE
  5
EC7
330
200
100
AcDbEntity
  8
0
  6
Continuous
 62
     7
100
AcDbLine
 10
12379.8356992999
 20
-1858.008380003096
 30
0.0
 11
12391.7548579417
 21
-1858.008380003096
 31
0.0
1001
ACAD
1000
RTMaterial
1005
0
  0
LINE
  5
EC8
330
200
100
AcDbEntity
  8
0
  6
Continuous
 62
     7
100
AcDbLine
 10
12106.3920766449
 20
-1857.727835512497
 30
0.0
 11
12118.311234314
 21
-1857.727835512497
 31
0.0
1001
ACAD
1000
RTMaterial
1005
0
  0
LINE
  5
EC9
330
200
100
AcDbEntity
  8
0
  6
Continuous
 62
     7
100
AcDbLine
 10
12374.7758681175
 20
-1853.948820192496
 30
0.0
 11
12374.7280269482
 21
-1853.945333347397
 31
0.0
1001
ACAD
1000
RTMaterial
1005
0
  0
LINE
  5
ECA
330
200
100
AcDbEntity
  8
0
  6
Continuous
 62
     7
100
AcDbLine
 10
12147.2317638145
 20
-1681.281578624997
 30
0.0
 11
12144.4523174555
 21
-1669.975339129797
 31
0.0
1001
ACAD
1000
RTMaterial
1005
0
  0
LINE
  5
ECB
330
200
100
AcDbEntity
  8
0
  6
Continuous
 62
     7
100
AcDbLine
 10
12374.3694161429
 20
-1861.236303558596
 30
0.0
 11
12374.4299328994
 21
-1861.245542307096
 31
0.0
1001
ACAD
1000
RTMaterial
1005
0
  0
LINE
  5
ECC
330
200
100
AcDbEntity
  8
0
  6
Continuous
 62
     7
100
AcDbLine
 10
12123.5887886915
 20
-1861.534481833796
 30
0.0
 11
12118.3485127547
 21
-1866.480576003896
 31
0.0
1001
ACAD
1000
RTMaterial
1005
0
  0
LINE
  5
ECD
330
200
100
AcDbEntity
  8
0
  6
Continuous
 62
     7
100
AcDbLine
 10
12118.3112343139
 20
-1718.623539052297
 30
0.0
 11
12123.349050643
 21
-1722.447371146897
 31
0.0
1001
ACAD
1000
RTMaterial
1005
0
  0
LINE
  5
ECE
330
200
100
AcDbEntity
  8
0
  6
Continuous
 62
     7
100
AcDbLine
 10
12123.3478537086
 20
-1722.130128113796
 30
0.0
 11
12118.3113659105
 21
-1718.286984764896
 31
0.0
1001
ACAD
1000
RTMaterial
1005
0
  0
LINE
  5
ECF
330
200
100
AcDbEntity
  8
0
  6
Continuous
 62
     7
100
AcDbLine
 10
12153.2315338434
 20
-1691.280866798396
 30
0.0
 11
12147.2317682574
 21
-1681.281588667996
 31
0.0
1001
ACAD
1000
RTMaterial
1005
0
  0
LINE
  5
ED0
330
200
100
AcDbEntity
  8
0
  6
Continuous
 62
     7
100
AcDbLine
 10
12163.600990268
 20
-1691.094284354196
 30
0.0
 11
12158.1795694808
 21
-1679.956435190696
 31
0.0
1001
ACAD
1000
RTMaterial
1005
0
  0
LINE
  5
ED1
330
200
100
AcDbEntity
  8
0
  6
Continuous
 62
     7
100
AcDbLine
 10
12216.8567725095
 20
-1733.026396769097
 30
0.0
 11
12214.0082209837
 21
-1717.615226261796
 31
0.0
1001
ACAD
1000
RTMaterial
1005
0
  0
LINE
  5
ED2
330
200
100
AcDbEntity
  8
0
  6
Continuous
 62
     7
100
AcDbLine
 10
12243.2594664619
 20
-1691.302960217396
 30
0.0
 11
12243.2594661918
 21
-1691.094545933196
 31
0.0
1001
ACAD
1000
RTMaterial
1005
0
  0
LINE
  5
ED3
330
200
100
AcDbEntity
  8
0
  6
Continuous
 62
     7
100
AcDbLine
 10
12249.0734672933
 20
-1691.303025916796
 30
0.0
 11
12249.0734885441
 21
-1715.685210876096
 31
0.0
1001
ACAD
1000
RTMaterial
1005
0
  0
LINE
  5
ED4
330
200
100
AcDbEntity
  8
0
  6
Continuous
 62
     7
100
AcDbLine
 10
12374.7492744335
 20
-1779.305848619196
 30
0.0
 11
12374.7965238064
 21
-1779.306183099496
 31
0.0
1001
ACAD
1000
RTMaterial
1005
0
  0
LINE
  5
ED5
330
200
100
AcDbEntity
  8
0
  6
Continuous
 62
     7
100
AcDbLine
 10
12201.1081746259
 20
-1732.955186033496
 30
0.0
 11
12206.933467296
 21
-1742.923614031797
 31
0.0
1001
ACAD
1000
RTMaterial
1005
0
  0
LINE
  5
ED6
330
200
100
AcDbEntity
  8
0
  6
Continuous
 62
     7
100
AcDbLine
 10
12281.29015987
 20
-1733.026164270496
 30
0.0
 11
12284.1386385084
 21
-1717.614870305096
 31
0.0
1001
ACAD
1000
RTMaterial
1005
0
  0
LINE
  5
ED7
330
200
100
AcDbEntity
  8
0
  6
Continuous
 62
     7
100
AcDbLine
 10
12291.2134672933
 20
-1742.923614238896
 30
0.0
 11
12297.0387521045
 21
-1732.955190390796
 31
0.0
1001
ACAD
1000
RTMaterial
1005
0
  0
LWPOLYLINE
  5
ED8
330
200
100
AcDbEntity
  8
0
  6
Continuous
 62
     7
100
AcDbPolyline
 90
        5
 70
     0
 43
0.0
 10
12186.0413276535
 20
-1786.608025678096
 10
12168.24964506
 20
-1791.515226264197
 10
12150.3206355099
 20
-1799.088789110397
 10
12131.8706926316
 20
-1809.800645479496
 10
12123.4021498138
 20
-1816.173062210896
1001
ACAD
1000
RTMaterial
1005
0
  0
LINE
  5
ED9
330
200
100
AcDbEntity
  8
0
  6
Continuous
 62
     7
100
AcDbLine
 10
12123.3976598061
 20
-1777.562262812097
 30
0.0
 11
12123.3504717895
 21
-1777.562598009597
 31
0.0
1001
ACAD
1000
RTMaterial
1005
0
  0
LINE
  5
EDA
330
200
100
AcDbEntity
  8
0
  6
Continuous
 62
     7
100
AcDbLine
 10
12077.5943211736
 20
-1775.875010368396
 30
0.0
 11
12069.593982461
 21
-1775.881966565696
 31
0.0
1001
ACAD
1000
RTMaterial
1005
0
  0
LINE
  5
EDB
330
200
100
AcDbEntity
  8
0
  6
Continuous
 62
     7
100
AcDbLine
 10
12420.5530265251
 20
-1775.880020926997
 30
0.0
 11
12428.5530485799
 21
-1775.886973863497
 31
0.0
1001
ACAD
1000
RTMaterial
1005
0
  0
LWPOLYLINE
  5
EDC
330
200
100
AcDbEntity
  8
0
  6
Continuous
 62
     7
100
AcDbPolyline
 90
        5
 70
     0
 43
0.0
 10
12312.1741993788
 20
-1786.523587641497
 10
12330.2993109464
 20
-1791.448084587896
 10
12348.398195038
 20
-1799.119196508597
 10
12366.8628047469
 20
-1810.014294984597
 10
12374.7431655724
 20
-1816.120598857996
1001
ACAD
1000
RTMaterial
1005
0
  0
LINE
  5
EDD
330
200
100
AcDbEntity
  8
0
  6
Continuous
 62
     7
100
AcDbLine
 10
12339.9199205763
 20
-1679.956435190696
 30
0.0
 11
12334.2659257973
 21
-1691.094344626096
 31
0.0
1001
ACAD
1000
RTMaterial
1005
0
  0
LINE
  5
EDE
330
200
100
AcDbEntity
  8
0
  6
Continuous
 62
     7
100
AcDbLine
 10
12344.9487477765
 20
-1691.292467082696
 30
0.0
 11
12351.1931643666
 21
-1681.362172834896
 31
0.0
1001
ACAD
1000
RTMaterial
1005
0
  0
LINE
  5
EDF
330
200
100
AcDbEntity
  8
0
  6
Continuous
 62
     7
100
AcDbLine
 10
12374.7978973343
 20
-1722.166567023996
 30
0.0
 11
12379.8356993
 21
-1718.569378372597
 31
0.0
1001
ACAD
1000
RTMaterial
1005
0
  0
LWPOLYLINE
  5
EE0
330
200
100
AcDbEntity
  8
0
  6
Continuous
 62
     7
100
AcDbPolyline
 90
        4
 70
     0
 43
0.0
 10
12186.5403047453
 20
-1753.562148131896
 10
12158.8099302823
 20
-1755.472266228996
 10
12135.2623701446
 20
-1757.557253269596
 10
12123.3966065328
 20
-1758.764034801896
1001
ACAD
1000
RTMaterial
1005
0
  0
LWPOLYLINE
  5
EE1
330
200
100
AcDbEntity
  8
0
  6
Continuous
 62
     7
100
AcDbPolyline
 90
        4
 70
     0
 43
0.0
 10
12311.6066051937
 20
-1753.536295901296
 10
12339.6097906393
 20
-1755.455381897396
 10
12363.3445213235
 20
-1757.561694956596
 10
12374.7503930085
 20
-1758.729418652696
1001
ACAD
1000
RTMaterial
1005
0
  0
LINE
  5
EE2
330
200
100
AcDbEntity
  8
0
  6
Continuous
 62
     7
100
AcDbLine
 10
12379.8356993
 20
-1858.008379076396
 30
0.0
 11
12374.7778537261
 21
-1853.334899363796
 31
0.0
1001
ACAD
1000
RTMaterial
1005
0
  0
LINE
  5
EE3
330
200
100
AcDbEntity
  8
0
  6
Continuous
 62
     7
100
AcDbLine
 10
12374.4299363611
 20
-1861.245514664997
 30
0.0
 11
12379.7776842815
 21
-1866.428243776396
 31
0.0
1001
ACAD
1000
RTMaterial
1005
0
  0
LINE
  5
EE4
330
200
100
AcDbEntity
  8
0
  6
Continuous
 62
     7
100
AcDbLine
 10
12123.3947941923
 20
-1722.129550298496
 30
0.0
 11
12123.3475924316
 21
-1722.130099517196
 31
0.0
1001
ACAD
1000
RTMaterial
1005
0
  0
LINE
  5
EE5
330
200
100
AcDbEntity
  8
0
  6
Continuous
 62
     7
100
AcDbLine
 10
12123.3946661101
 20
-1722.445786791596
 30
0.0
 11
12123.3475133793
 21
-1722.446198816397
 31
0.0
1001
ACAD
1000
RTMaterial
1005
0
  0
LINE
  5
EE6
330
200
100
AcDbEntity
  8
0
  6
Continuous
 62
     7
100
AcDbLine
 10
12118.311234314
 20
-1718.623539060196
 30
0.0
 11
12106.3920766449
 21
-1718.623539060196
 31
0.0
1001
ACAD
1000
RTMaterial
1005
0
  0
LINE
  5
EE7
330
200
100
AcDbEntity
  8
0
  6
Continuous
 62
     7
100
AcDbLine
 10
12391.7548579417
 20
-1718.568161368897
 30
0.0
 11
12379.8356992999
 21
-1718.568161368897
 31
0.0
1001
ACAD
1000
RTMaterial
1005
0
  0
LINE
  5
EE8
330
200
100
AcDbEntity
  8
0
  6
Continuous
 62
     7
100
AcDbLine
 10
12118.3118047326
 20
-1718.286987828397
 30
0.0
 11
12106.3950688167
 21
-1718.202181606796
 31
0.0
1001
ACAD
1000
RTMaterial
1005
0
  0
LINE
  5
EE9
330
200
100
AcDbEntity
  8
0
  6
Continuous
 62
     7
100
AcDbLine
 10
12374.7523847742
 20
-1722.165062951097
 30
0.0
 11
12374.7996323766
 21
-1722.165457460896
 31
0.0
1001
ACAD
1000
RTMaterial
1005
0
  0
LINE
  5
EEA
330
200
100
AcDbEntity
  8
0
  6
Continuous
 62
     7
100
AcDbLine
 10
12334.2654687271
 20
-1691.303976478096
 30
0.0
 11
12334.2656649662
 21
-1691.094708548497
 31
0.0
1001
ACAD
1000
RTMaterial
1005
0
  0
LINE
  5
EEB
330
200
100
AcDbEntity
  8
0
  6
Continuous
 62
     7
100
AcDbLine
 10
12351.193222374
 20
-1681.361961584196
 30
0.0
 11
12354.0561930358
 21
-1670.075285898396
 31
0.0
1001
ACAD
1000
RTMaterial
1005
0
  0
LINE
  5
EEC
330
200
100
AcDbEntity
  8
0
  6
Continuous
 62
     7
100
AcDbLine
 10
12344.9582675262
 20
-1691.465842109196
 30
0.0
 11
12344.9487591208
 21
-1691.292120086096
 31
0.0
1001
ACAD
1000
RTMaterial
1005
0
  0
LINE
  5
EED
330
200
100
AcDbEntity
  8
0
  6
Continuous
 62
     7
100
AcDbLine
 10
12339.9199199065
 20
-1679.956435190696
 30
0.0
 11
12339.9199199065
 21
-1668.314725188996
 31
0.0
1001
ACAD
1000
RTMaterial
1005
0
  0
LINE
  5
EEE
330
200
100
AcDbEntity
  8
0
  6
Continuous
 62
     7
100
AcDbLine
 10
12123.5265737127
 20
-1719.256298688696
 30
0.0
 11
12123.4713532602
 21
-1719.269876719296
 31
0.0
1001
ACAD
1000
RTMaterial
1005
0
  0
LINE
  5
EEF
330
200
100
AcDbEntity
  8
0
  6
Continuous
 62
     7
100
AcDbLine
 10
12147.9805648011
 20
-1692.027217240896
 30
0.0
 11
12149.3310197507
 21
-1691.799220114496
 31
0.0
1001
ACAD
1000
RTMaterial
1005
0
  0
LINE
  5
EF0
330
200
100
AcDbEntity
  8
0
  6
Continuous
 62
     7
100
AcDbLine
 10
12149.3310197507
 20
-1691.799220114496
 30
0.0
 11
12151.7804093374
 21
-1691.529842702097
 31
0.0
1001
ACAD
1000
RTMaterial
1005
0
  0
LINE
  5
EF1
330
200
100
AcDbEntity
  8
0
  6
Continuous
 62
     7
100
AcDbLine
 10
12151.7804093374
 20
-1691.529842702097
 30
0.0
 11
12153.222329881
 21
-1691.456488285196
 31
0.0
1001
ACAD
1000
RTMaterial
1005
0
  0
LWPOLYLINE
  5
EF2
330
200
100
AcDbEntity
  8
0
  6
Continuous
 62
     7
100
AcDbPolyline
 90
        4
 70
     0
 43
0.0
 10
12153.2223298359
 20
-1691.456493166396
 10
12156.1911492887
 20
-1691.381951672196
 10
12160.3953871606
 20
-1691.318477067096
 10
12163.6014355442
 20
-1691.303744992196
1001
ACAD
1000
RTMaterial
1005
0
  0
LINE
  5
EF3
330
200
100
AcDbEntity
  8
0
  6
Continuous
 62
     7
100
AcDbLine
 10
12163.6014345922
 20
-1691.303863249197
 30
0.0
 11
12334.2654702732
 21
-1691.303977387696
 31
0.0
1001
ACAD
1000
RTMaterial
1005
0
  0
LINE
  5
EF4
330
200
100
AcDbEntity
  8
0
  6
Continuous
 62
     7
100
AcDbLine
 10
12163.600990268
 20
-1691.094284354196
 30
0.0
 11
12334.2659257973
 21
-1691.094344626096
 31
0.0
1001
ACAD
1000
RTMaterial
1005
0
  0
LINE
  5
EF5
330
200
100
AcDbEntity
  8
0
  6
Continuous
 62
     7
100
AcDbLine
 10
12339.9199205763
 20
-1679.956435190696
 30
0.0
 11
12158.1795694808
 21
-1679.956435190696
 31
0.0
1001
ACAD
1000
RTMaterial
1005
0
  0
LWPOLYLINE
  5
EF6
330
200
100
AcDbEntity
  8
0
  6
Continuous
 62
     7
100
AcDbPolyline
 90
        4
 70
     0
 43
0.0
 10
12334.2654695143
 20
-1691.303865487096
 10
12337.4847027844
 20
-1691.318702071296
 10
12341.7935080517
 20
-1691.384522768996
 10
12344.9582677029
 20
-1691.465843479797
1001
ACAD
1000
RTMaterial
1005
0
  0
LINE
  5
EF7
330
200
100
AcDbEntity
  8
0
  6
Continuous
 62
     7
100
AcDbLine
 10
12344.9582675262
 20
-1691.465842109196
 30
0.0
 11
12346.3056041395
 21
-1691.533619607196
 31
0.0
1001
ACAD
1000
RTMaterial
1005
0
  0
LINE
  5
EF8
330
200
100
AcDbEntity
  8
0
  6
Continuous
 62
     7
100
AcDbLine
 10
12346.3056041395
 20
-1691.533619607196
 30
0.0
 11
12348.7418071059
 21
-1691.796222359597
 31
0.0
1001
ACAD
1000
RTMaterial
1005
0
  0
LINE
  5
EF9
330
200
100
AcDbEntity
  8
0
  6
Continuous
 62
     7
100
AcDbLine
 10
12348.7418071059
 20
-1691.796222359597
 30
0.0
 11
12350.1597714334
 21
-1692.033699882196
 31
0.0
1001
ACAD
1000
RTMaterial
1005
0
  0
LINE
  5
EFA
330
200
100
AcDbEntity
  8
0
  6
Continuous
 62
     7
100
AcDbLine
 10
12374.6201231313
 20
-1719.257572028096
 30
0.0
 11
12374.6753079728
 21
-1719.271167852997
 31
0.0
1001
ACAD
1000
RTMaterial
1005
0
  0
LWPOLYLINE
  5
EFB
330
200
100
AcDbEntity
  8
0
  6
Continuous
 62
     7
100
AcDbPolyline
 90
        4
 70
     0
 43
0.0
 10
12374.6201231313
 20
-1719.257572028096
 10
12374.6675151985
 20
-1719.835731921596
 10
12374.745501515
 20
-1721.504438455096
 10
12374.7522914853
 20
-1722.165077824596
1001
ACAD
1000
RTMaterial
1005
0
  0
LINE
  5
EFC
330
200
100
AcDbEntity
  8
0
  6
Continuous
 62
     7
100
AcDbLine
 10
12374.7978973343
 20
-1722.166567023996
 30
0.0
 11
12374.797105281
 21
-1779.306182814596
 31
0.0
1001
ACAD
1000
RTMaterial
1005
0
  0
LINE
  5
EFD
330
200
100
AcDbEntity
  8
0
  6
Continuous
 62
     7
100
AcDbLine
 10
12374.7523833017
 20
-1722.165062880296
 30
0.0
 11
12374.7280269496
 21
-1853.945333141797
 31
0.0
1001
ACAD
1000
RTMaterial
1005
0
  0
LWPOLYLINE
  5
EFE
330
200
100
AcDbEntity
  8
0
  6
Continuous
 62
     7
100
AcDbPolyline
 90
        4
 70
     0
 43
0.0
 10
12374.728024606
 20
-1853.945361186596
 10
12374.695627757
 20
-1855.674679975896
 10
12374.548127209
 20
-1858.843943914896
 10
12374.369416446
 20
-1861.236291081696
1001
ACAD
1000
RTMaterial
1005
0
  0
LINE
  5
EFF
330
200
100
AcDbEntity
  8
0
  6
Continuous
 62
     7
100
AcDbLine
 10
12158.1795694727
 20
-1668.314766647896
 30
0.0
 11
12339.9199205867
 21
-1668.314772921496
 31
0.0
1001
ACAD
1000
RTMaterial
1005
0
  0
LWPOLYLINE
  5
F00
330
200
100
AcDbEntity
  8
0
  6
Continuous
 62
     7
100
AcDbPolyline
 90
        7
 70
     0
 43
0.0
 10
12350.1597759773
 20
-1692.033696319197
 10
12355.4163216037
 20
-1693.551268674696
 10
12361.4307642507
 20
-1696.737394245496
 10
12366.6739097576
 20
-1701.284832392897
 10
12370.7908991038
 20
-1706.960538327196
 10
12373.5153978028
 20
-1713.432493336596
 10
12374.6201228389
 20
-1719.257564100997
1001
ACAD
1000
RTMaterial
1005
0
  0
LINE
  5
F01
330
200
100
AcDbEntity
  8
0
  6
Continuous
 62
     7
100
AcDbLine
 10
12350.1597637237
 20
-1692.033693991096
 30
0.0
 11
12350.1017710093
 21
-1691.853679166496
 31
0.0
1001
ACAD
1000
RTMaterial
1005
0
  0
LINE
  5
F02
330
200
100
AcDbEntity
  8
0
  6
Continuous
 62
     7
100
AcDbLine
 10
12379.8356993
 20
-1858.008379076396
 30
0.0
 11
12379.8356993
 21
-1718.569378372597
 31
0.0
1001
ACAD
1000
RTMaterial
1005
0
  0
LINE
  5
F03
330
200
100
AcDbEntity
  8
0
  6
Continuous
 62
     7
100
AcDbLine
 10
12391.7548573769
 20
-1718.574981034596
 30
0.0
 11
12391.7433117268
 21
-1858.008380070296
 31
0.0
1001
ACAD
1000
RTMaterial
1005
0
  0
LINE
  5
F04
330
200
100
AcDbEntity
  8
0
  6
Continuous
 62
     7
100
AcDbLine
 10
12391.7075702168
 20
-1866.613668103896
 30
0.0
 11
12391.7433117268
 21
-1858.008380070296
 31
0.0
1001
ACAD
1000
RTMaterial
1005
0
  0
LWPOLYLINE
  5
F05
330
200
100
AcDbEntity
  8
0
  6
Continuous
 62
     7
100
AcDbPolyline
 90
       20
 70
     0
 43
0.0
 10
12374.3694169858
 20
-1861.236295140997
 10
12371.5948792387
 20
-1878.828020235297
 10
12366.2780528028
 20
-1897.400933274196
 10
12358.7075726669
 20
-1915.519253977296
 10
12348.6702003612
 20
-1932.768211257396
 10
12335.8293386517
 20
-1948.243831873597
 10
12320.1139629907
 20
-1960.894576317496
 10
12302.2572785796
 20
-1970.241912147596
 10
12282.98000988
 20
-1976.330499629396
 10
12262.6666701637
 20
-1979.371638136196
 10
12241.5709328724
 20
-1979.475038208297
 10
12220.1991783531
 20
-1976.544420919796
 10
12199.5482928036
 20
-1970.465667921496
 10
12180.678833595
 20
-1961.378379181097
 10
12164.3235068903
 20
-1949.568957117696
 10
12150.7828853946
 20
-1935.297001284096
 10
12140.0197982652
 20
-1918.969773953796
 10
12131.8586447633
 20
-1900.990993800897
 10
12126.2810579138
 20
-1881.480092308396
 10
12123.6442147343
 20
-1861.526333963696
1001
ACAD
1000
RTMaterial
1005
0
  0
LINE
  5
F06
330
200
100
AcDbEntity
  8
0
  6
Continuous
 62
     7
100
AcDbLine
 10
12420.7730683762
 20
-1517.684042065896
 30
0.0
 11
12420.5536273645
 21
-1775.880021019696
 31
0.0
1001
ACAD
1000
RTMaterial
1005
0
  0
LINE
  5
F07
330
200
100
AcDbEntity
  8
0
  6
Continuous
 62
     7
100
AcDbLine
 10
12428.7731748339
 20
-1520.686639237696
 30
0.0
 11
12428.5530528221
 21
-1775.886973368096
 31
0.0
1001
ACAD
1000
RTMaterial
1005
0
  0
LWPOLYLINE
  5
F08
330
200
100
AcDbEntity
  8
0
  6
Continuous
 62
     7
100
AcDbPolyline
 90
        4
 70
     0
 43
0.0
 10
12428.203120202
 20
-1865.694852751397
 10
12428.3776792604
 20
-1833.216405176996
 10
12428.4956578106
 20
-1802.531319212096
 10
12428.5530185441
 20
-1775.886976249896
1001
ACAD
1000
RTMaterial
1005
0
  0
LINE
  5
F09
330
200
100
AcDbEntity
  8
0
  6
Continuous
 62
     7
100
AcDbLine
 10
12420.773068375
 20
-1520.684042065896
 30
0.0
 11
12077.3738676459
 21
-1520.684042065896
 31
0.0
1001
ACAD
1000
RTMaterial
1005
0
  0
LINE
  5
F0A
330
200
100
AcDbEntity
  8
0
  6
Continuous
 62
     7
100
AcDbLine
 10
12072.377104833
 20
-1517.683942976196
 30
0.0
 11
12425.7715873958
 21
-1517.684042065896
 31
0.0
1001
ACAD
1000
RTMaterial
1005
0
  0
LINE
  5
F0B
330
200
100
AcDbEntity
  8
0
  6
Continuous
 62
     7
100
AcDbLine
 10
12104.9753304923
 20
-1096.645147342396
 30
0.0
 11
12393.1716053618
 21
-1096.645147342396
 31
0.0
1001
ACAD
1000
RTMaterial
1005
0
  0
LWPOLYLINE
  5
F0C
330
200
100
AcDbEntity
  8
0
  6
Continuous
 62
     7
100
AcDbPolyline
 90
       11
 70
     0
 43
0.0
 10
12189.2191444323
 20
-1096.645006179996
 10
12189.9032533022
 20
-1096.674373026697
 10
12191.4608589264
 20
-1096.966243188096
 10
12192.8809477378
 20
-1097.534595982996
 10
12194.1182512269
 20
-1098.325980879396
 10
12195.1373834085
 20
-1099.273536907996
 10
12195.9210658227
 20
-1100.299651399596
 10
12196.4653212827
 20
-1101.303979863996
 10
12196.7717835863
 20
-1102.109609175796
 10
12196.8886849399
 20
-1102.540470462396
 10
12196.8971115697
 20
-1102.578872309196
1001
ACAD
1000
RTMaterial
1005
0
  0
LWPOLYLINE
  5
F0D
330
200
100
AcDbEntity
  8
0
  6
Continuous
 62
     7
100
AcDbPolyline
 90
       14
 70
     0
 43
0.0
 10
12199.832755541
 20
-1115.344726304996
 10
12203.5512596323
 20
-1123.243363705296
 10
12209.2953107715
 20
-1131.282093000596
 10
12216.5218155147
 20
-1138.117664972796
 10
12224.9429460958
 20
-1143.477256734796
 10
12234.2542227471
 20
-1147.153406809796
 10
12244.0886969605
 20
-1149.022637581596
 10
12254.1119387525
 20
-1149.014826426396
 10
12263.9406343084
 20
-1147.143131150296
 10
12273.2384516445
 20
-1143.457366702496
 10
12281.6381650719
 20
-1138.112448366196
 10
12288.8524422245
 20
-1131.278447288896
 10
12294.6076857121
 20
-1123.230168050796
 10
12298.3229820401
 20
-1115.318445773496
1001
ACAD
1000
RTMaterial
1005
0
  0
LINE
  5
F0E
330
200
100
AcDbEntity
  8
0
  6
Continuous
 62
     7
100
AcDbLine
 10
12199.8321800998
 20
-1115.343418741696
 30
0.0
 11
12199.8327178942
 21
-1115.344874313996
 31
0.0
1001
ACAD
1000
RTMaterial
1005
0
  0
LINE
  5
F0F
330
200
100
AcDbEntity
  8
0
  6
Continuous
 62
     7
100
AcDbLine
 10
12198.8600467811
 20
-1112.438580192596
 30
0.0
 11
12199.8321800998
 21
-1115.343418741696
 31
0.0
1001
ACAD
1000
RTMaterial
1005
0
  0
LINE
  5
F10
330
200
100
AcDbEntity
  8
0
  6
Continuous
 62
     7
100
AcDbLine
 10
12196.9008016971
 20
-1102.607932331796
 30
0.0
 11
12196.9008974672
 21
-1102.608836258596
 31
0.0
1001
ACAD
1000
RTMaterial
1005
0
  0
LINE
  5
F11
330
200
100
AcDbEntity
  8
0
  6
Continuous
 62
     7
100
AcDbLine
 10
12196.8862231047
 20
-1102.487599177796
 30
0.0
 11
12196.8858245396
 21
-1102.484660916596
 31
0.0
1001
ACAD
1000
RTMaterial
1005
0
  0
LWPOLYLINE
  5
F12
330
200
100
AcDbEntity
  8
0
  6
Continuous
 62
     7
100
AcDbPolyline
 90
        4
 70
     0
 43
0.0
 10
12196.9008974672
 20
-1102.608836258596
 10
12197.1522864777
 20
-1104.632832049096
 10
12197.8409790003
 20
-1108.482882439196
 10
12198.8600467811
 20
-1112.438580192596
1001
ACAD
1000
RTMaterial
1005
0
  0
LWPOLYLINE
  5
F13
330
200
100
AcDbEntity
  8
0
  6
Continuous
 62
     7
100
AcDbPolyline
 90
        4
 70
     0
 43
0.0
 10
12098.0742340411
 20
-1090.818669592396
 10
12098.1152469705
 20
-1090.762779582996
 10
12098.1568270532
 20
-1090.706657993996
 10
12098.1989798022
 20
-1090.650315337796
1001
ACAD
1000
RTMaterial
1005
0
  0
LINE
  5
F14
330
200
100
AcDbEntity
  8
0
  6
Continuous
 62
     7
100
AcDbLine
 10
12428.7671526198
 20
-814.9554999397965
 30
0.0
 11
12428.536519119
 21
-815.1592134328966
 31
0.0
1001
ACAD
1000
RTMaterial
1005
0
  0
LINE
  5
F15
330
200
100
AcDbEntity
  8
0
  6
Continuous
 62
     7
100
AcDbLine
 10
12069.6105169498
 20
-815.1593003171965
 30
0.0
 11
12069.4562643398
 21
-815.0235924837966
 31
0.0
1001
ACAD
1000
RTMaterial
1005
0
  0
LINE
  5
F16
330
200
100
AcDbEntity
  8
0
  6
Continuous
 62
     7
100
AcDbLine
 10
12069.4562643398
 20
-815.0235924837966
 30
0.0
 11
12069.3797851534
 21
-814.9555012440965
 31
0.0
1001
ACAD
1000
RTMaterial
1005
0
  0
LINE
  5
F17
330
200
100
AcDbEntity
  8
0
  6
Continuous
 62
     7
100
AcDbLine
 10
12301.2488562191
 20
-1102.613652254296
 30
0.0
 11
12301.2488718792
 21
-1102.613504737196
 31
0.0
1001
ACAD
1000
RTMaterial
1005
0
  0
LINE
  5
F18
330
200
100
AcDbEntity
  8
0
  6
Continuous
 62
     7
100
AcDbLine
 10
12301.2488509263
 20
-1102.613702048596
 30
0.0
 11
12301.2535299635
 21
-1102.575336337797
 31
0.0
1001
ACAD
1000
RTMaterial
1005
0
  0
LWPOLYLINE
  5
F19
330
200
100
AcDbEntity
  8
0
  6
Continuous
 62
     7
100
AcDbPolyline
 90
        4
 70
     0
 43
0.0
 10
12399.9480196699
 20
-1090.650393543396
 10
12399.9901490254
 20
-1090.706710345996
 10
12400.0317061226
 20
-1090.762806040996
 10
12400.0723585179
 20
-1090.818209542996
1001
ACAD
1000
RTMaterial
1005
0
  0
LINE
  5
F1A
330
200
100
AcDbEntity
  8
0
  6
Continuous
 62
     7
100
AcDbLine
 10
12301.2641089926
 20
-1102.488094564696
 30
0.0
 11
12301.2646693612
 21
-1102.483998977696
 31
0.0
1001
ACAD
1000
RTMaterial
1005
0
  0
LINE
  5
F1B
330
200
100
AcDbEntity
  8
0
  6
Continuous
 62
     7
100
AcDbLine
 10
12300.6683969219
 20
-1106.660813137196
 30
0.0
 11
12301.2488562191
 21
-1102.613652254296
 31
0.0
1001
ACAD
1000
RTMaterial
1005
0
  0
LWPOLYLINE
  5
F1C
330
200
100
AcDbEntity
  8
0
  6
Continuous
 62
     7
100
AcDbPolyline
 90
        3
 70
     0
 43
0.0
 10
12301.245642839
 20
-1102.611951056297
 10
12301.2633482548
 20
-1102.529756485497
 10
12301.3807457371
 20
-1102.098726334296
1001
ACAD
1000
RTMaterial
1005
0
  0
LWPOLYLINE
  5
F1D
330
200
100
AcDbEntity
  8
0
  6
Continuous
 62
     7
100
AcDbPolyline
 90
        3
 70
     0
 43
0.0
 10
12298.3229705959
 20
-1115.318477367696
 10
12299.4654562821
 20
-1111.824214994197
 10
12300.6683969219
 20
-1106.660813137196
1001
ACAD
1000
RTMaterial
1005
0
  0
LINE
  5
F1E
330
200
100
AcDbEntity
  8
0
  6
Continuous
 62
     7
100
AcDbLine
 10
12298.3230157562
 20
-1115.318354669396
 30
0.0
 11
12298.3229820401
 21
-1115.318445773496
 31
0.0
1001
ACAD
1000
RTMaterial
1005
0
  0
LWPOLYLINE
  5
F1F
330
200
100
AcDbEntity
  8
0
  6
Continuous
 62
     7
100
AcDbPolyline
 90
        9
 70
     0
 43
0.0
 10
12301.3807457371
 20
-1102.098726334296
 10
12301.6870611531
 20
-1101.295904551596
 10
12302.2309268685
 20
-1100.294232492696
 10
12303.0142215577
 20
-1099.269953720996
 10
12304.0329207121
 20
-1098.323725011796
 10
12305.2696260456
 20
-1097.533369919496
 10
12306.6888960666
 20
-1096.965770468896
 10
12308.2456168544
 20
-1096.674305045096
 10
12308.9288346794
 20
-1096.645005120596
1001
ACAD
1000
RTMaterial
1005
0
  0
LINE
  5
F20
330
200
100
AcDbEntity
  8
0
  6
Continuous
 62
     7
100
AcDbLine
 10
12069.3793616933
 20
-814.9555177556965
 30
0.0
 11
12069.3794090239
 21
-814.9555158999964
 31
0.0
1001
ACAD
1000
RTMaterial
1005
0
  0
LINE
  5
F21
330
200
100
AcDbEntity
  8
0
  6
Continuous
 62
     7
100
AcDbLine
 10
12420.773068375
 20
-806.6451473423965
 30
0.0
 11
12077.3738676459
 21
-806.6451473423965
 31
0.0
1001
ACAD
1000
RTMaterial
1005
0
  0
LINE
  5
F22
330
200
100
AcDbEntity
  8
0
  6
Continuous
 62
     7
100
AcDbLine
 10
12688.4834332184
 20
-809.6451503492968
 30
0.0
 11
12688.4834332184
 21
-1093.645144462496
 31
0.0
1001
ACAD
1000
RTMaterial
1005
0
  0
LWPOLYLINE
  5
F23
330
200
100
AcDbEntity
  8
0
  6
Continuous
 62
     7
100
AcDbPolyline
 90
        4
 70
     0
 43
0.0
 10
12908.600289666
 20
-1147.034047899096
 10
12910.5273612401
 20
-1147.070607027796
 10
12913.4578845771
 20
-1147.612243038896
 10
12914.63033717
 20
-1148.005337514597
1001
ACAD
1000
RTMaterial
1005
0
  0
LWPOLYLINE
  5
F24
330
200
100
AcDbEntity
  8
0
  6
Continuous
 62
     7
100
AcDbPolyline
 90
        4
 70
     0
 43
0.0
 10
12914.6303114371
 20
-1148.005316621896
 10
12917.9317349936
 20
-1148.934442850196
 10
12922.4846601569
 20
-1149.224453304197
 10
12925.5033275294
 20
-1148.808253818196
1001
ACAD
1000
RTMaterial
1005
0
  0
LWPOLYLINE
  5
F25
330
200
100
AcDbEntity
  8
0
  6
Continuous
 62
     7
100
AcDbPolyline
 90
        8
 70
     0
 43
0.0
 10
12825.8305355599
 20
-1096.645147342396
 10
12829.8741683845
 20
-1104.252402802097
 10
12840.0523110284
 20
-1118.353623818296
 10
12851.7588145473
 20
-1129.726471822396
 10
12865.134361592
 20
-1138.237600940196
 10
12879.4673078161
 20
-1143.766308575296
 10
12894.4427692663
 20
-1146.609231628196
 10
12908.599466139
 20
-1147.034079698596
1001
ACAD
1000
RTMaterial
1005
0
  0
LWPOLYLINE
  5
F26
330
200
100
AcDbEntity
  8
0
  6
Continuous
 62
     7
100
AcDbPolyline
 90
        5
 70
     0
 43
0.0
 10
13094.1482239135
 20
-1096.645147342396
 10
13096.2007110485
 20
-1096.337477805196
 10
13098.0706735312
 20
-1095.442936072796
 10
13099.5959469179
 20
-1094.040855120896
 10
13100.4485066048
 20
-1092.695778119896
1001
ACAD
1000
RTMaterial
1005
0
  0
LINE
  5
F27
330
200
100
AcDbEntity
  8
0
  6
Continuous
 62
     7
100
AcDbLine
 10
12691.4834332184
 20
-1096.645147342396
 30
0.0
 11
13094.1469900343
 21
-1096.645147342396
 31
0.0
1001
ACAD
1000
RTMaterial
1005
0
  0
LWPOLYLINE
  5
F28
330
200
100
AcDbEntity
  8
0
  6
Continuous
 62
     7
100
AcDbPolyline
 90
        5
 70
     0
 43
0.0
 10
12991.3799985265
 20
-1100.730263132596
 10
12992.1843745602
 20
-1099.555563046096
 10
12993.9244744019
 20
-1097.984984975096
 10
12996.0453498277
 20
-1096.986182216996
 10
12998.3560558596
 20
-1096.645146530196
1001
ACAD
1000
RTMaterial
1005
0
  0
LWPOLYLINE
  5
F29
330
200
100
AcDbEntity
  8
0
  6
Continuous
 62
     7
100
AcDbPolyline
 90
        6
 70
     0
 43
0.0
 10
12925.5018675665
 20
-1148.808584274996
 10
12941.6252580052
 20
-1143.886797277096
 10
12956.8438869033
 20
-1136.436449665996
 10
12970.3993457875
 20
-1126.723901618896
 10
12982.1533552797
 20
-1114.540586680297
 10
12991.3811753221
 20
-1100.729709762596
1001
ACAD
1000
RTMaterial
1005
0
  0
LWPOLYLINE
  5
F2A
330
200
100
AcDbEntity
  8
0
  6
Continuous
 62
     7
100
AcDbPolyline
 90
        4
 70
     0
 43
0.0
 10
13100.4484188648
 20
-1092.695734885996
 10
13142.0546172729
 20
-1002.159933281696
 10
13180.3759018589
 20
-908.9984143520965
 10
13213.8825336507
 20
-817.2402683637965
1001
ACAD
1000
RTMaterial
1005
0
  0
LINE
  5
F2B
330
200
100
AcDbEntity
  8
0
  6
Continuous
 62
     7
100
AcDbLine
 10
13206.3151192121
 20
-806.6451473423965
 30
0.0
 11
12691.483433273
 21
-806.6452079427966
 31
0.0
1001
ACAD
1000
RTMaterial
1005
0
  0
LWPOLYLINE
  5
F2C
330
200
100
AcDbEntity
  8
0
  6
Continuous
 62
     7
100
AcDbPolyline
 90
        8
 70
     0
 43
0.0
 10
13213.8824735042
 20
-817.2402460020967
 10
13214.2184497009
 20
-815.8847927582964
 10
13214.2456361123
 20
-813.5933619787966
 10
13213.621190638
 20
-811.3862004682964
 10
13212.3957791738
 20
-809.4465795084966
 10
13210.6699526982
 20
-807.9343268586965
 10
13208.5877154316
 20
-806.9747395505965
 10
13206.3150891713
 20
-806.6451473423965
1001
ACAD
1000
RTMaterial
1005
0
  0
ARC
  5
F2D
330
200
100
AcDbEntity
  8
0
  6
Continuous
 62
     7
100
AcDbCircle
 10
-7096.275729498302
 20
-1744.437845686196
 30
0.0
 40
19516.8556383319
100
AcDbArc
 50
359.6441674249002
 51
359.9076949255996
1001
ACAD
1000
RTMaterial
1005
0
  0
ARC
  5
F2E
330
200
100
AcDbEntity
  8
0
  6
Continuous
 62
     7
100
AcDbCircle
 10
9028.555238988401
 20
-1706.487713062396
 30
0.0
 40
3158.3359032853
100
AcDbArc
 50
359.1459849713975
 51
359.5092791240946
1001
ACAD
1000
RTMaterial
1005
0
  0
ARC
  5
F2F
330
200
100
AcDbEntity
  8
0
  6
Continuous
 62
     7
100
AcDbCircle
 10
11753.6461404241
 20
-1857.903948404197
 30
0.0
 40
626.1895820284999
100
AcDbArc
 50
359.2200102808055
 51
359.9904445919091
1001
ACAD
1000
RTMaterial
1005
0
  0
ARC
  5
F30
330
200
100
AcDbEntity
  8
0
  6
Continuous
 62
     7
100
AcDbCircle
 10
12163.525400971
 20
-1975.953564397796
 30
0.0
 40
284.8587517682
100
AcDbArc
 50
89.98475177289833
 51
92.07093367676291
1001
ACAD
1000
RTMaterial
1005
0
  0
ARC
  5
F31
330
200
100
AcDbEntity
  8
0
  6
Continuous
 62
     7
100
AcDbCircle
 10
12257.763909539
 20
-1854.146948897196
 30
0.0
 40
134.3783374414
100
AcDbArc
 50
183.1514599403916
 51
191.3246063916631
1001
ACAD
1000
RTMaterial
1005
0
  0
ARC
  5
F32
330
200
100
AcDbEntity
  8
0
  6
Continuous
 62
     7
100
AcDbCircle
 10
12158.1712785689
 20
-1725.827998184497
 30
0.0
 40
57.5132321342
100
AcDbArc
 50
89.99174044343172
 51
103.8093707598463
1001
ACAD
1000
RTMaterial
1005
0
  0
ARC
  5
F33
330
200
100
AcDbEntity
  8
0
  6
Continuous
 62
     7
100
AcDbCircle
 10
12156.4250636876
 20
-1718.553278737196
 30
0.0
 40
50.03268166189999
100
AcDbArc
 50
103.8559549862314
 51
179.6268357597051
1001
ACAD
1000
RTMaterial
1005
0
  0
ARC
  5
F34
330
200
100
AcDbEntity
  8
0
  6
Continuous
 62
     7
100
AcDbCircle
 10
12251.1557763985
 20
-1784.457725321396
 30
0.0
 40
45.80022217569999
100
AcDbArc
 50
358.5608323964946
 51
359.7919298796975
1001
ACAD
1000
RTMaterial
1005
0
  0
ARC
  5
F35
330
200
100
AcDbEntity
  8
0
  6
Continuous
 62
     7
100
AcDbCircle
 10
12246.4064651523
 20
-1784.474480280096
 30
0.0
 40
45.22010549029999
100
AcDbArc
 50
180.1885865479977
 51
181.4646037830937
1001
ACAD
1000
RTMaterial
1005
0
  0
ARC
  5
F36
330
200
100
AcDbEntity
  8
0
  6
Continuous
 62
     7
100
AcDbCircle
 10
12157.8478753122
 20
-1723.095530015196
 30
0.0
 40
43.1405542383
100
AcDbArc
 50
89.55946746057835
 51
104.2457762384952
1001
ACAD
1000
RTMaterial
1005
0
  0
ARC
  5
F37
330
200
100
AcDbEntity
  8
0
  6
Continuous
 62
     7
100
AcDbCircle
 10
12212.3159265846
 20
-1750.463093508597
 30
0.0
 40
39.4907736011
100
AcDbArc
 50
90.37486251208012
 51
99.25143309012799
1001
ACAD
1000
RTMaterial
1005
0
  0
ARC
  5
F38
330
200
100
AcDbEntity
  8
0
  6
Continuous
 62
     7
100
AcDbCircle
 10
12156.6539215015
 20
-1718.449462894696
 30
0.0
 40
38.3431979015
100
AcDbArc
 50
104.224919159618
 51
179.7572077043976
1001
ACAD
1000
RTMaterial
1005
0
  0
ARC
  5
F39
330
200
100
AcDbEntity
  8
0
  6
Continuous
 62
     7
100
AcDbCircle
 10
12154.2554194462
 20
-1724.789706393796
 30
0.0
 40
33.5241272146
100
AcDbArc
 50
91.75016590419991
 51
94.69312362505254
1001
ACAD
1000
RTMaterial
1005
0
  0
ARC
  5
F3A
330
200
100
AcDbEntity
  8
0
  6
Continuous
 62
     7
100
AcDbCircle
 10
12154.2426883326
 20
-1724.631692878096
 30
0.0
 40
33.3656018397
100
AcDbArc
 50
94.69353586327288
 51
100.7149063725909
1001
ACAD
1000
RTMaterial
1005
0
  0
ARC
  5
F3B
330
200
100
AcDbEntity
  8
0
  6
Continuous
 62
     7
100
AcDbCircle
 10
12155.501849169
 20
-1722.077580426596
 30
0.0
 40
32.1544969081
100
AcDbArc
 50
174.9904590864052
 51
180.0935831288913
1001
ACAD
1000
RTMaterial
1005
0
  0
ARC
  5
F3C
330
200
100
AcDbEntity
  8
0
  6
Continuous
 62
     7
100
AcDbCircle
 10
12153.5715155467
 20
-1720.959883204496
 30
0.0
 40
29.6330352803
100
AcDbArc
 50
100.7597649645344
 51
100.9560934987472
1001
ACAD
1000
RTMaterial
1005
0
  0
ARC
  5
F3D
330
200
100
AcDbEntity
  8
0
  6
Continuous
 62
     7
100
AcDbCircle
 10
12216.8352289036
 20
-1742.927914690196
 30
0.0
 40
9.901532348799999
100
AcDbArc
 50
89.89899558558837
 51
180.0237483322997
1001
ACAD
1000
RTMaterial
1005
0
  0
CIRCLE
  5
F3E
330
200
100
AcDbEntity
  8
0
  6
Continuous
 62
     7
100
AcDbCircle
 10
12159.0734672933
 20
-1587.684042065896
 30
0.0
 40
7.5
1001
ACAD
1000
RTMaterial
1005
0
  0
ARC
  5
F3F
330
200
100
AcDbEntity
  8
0
  6
Continuous
 62
     7
100
AcDbCircle
 10
12072.3740632475
 20
-1520.684073413396
 30
0.0
 40
2.9999829361
100
AcDbArc
 50
90.00362986597554
 51
180.0482651692935
1001
ACAD
1000
RTMaterial
1005
0
  0
ARC
  5
F40
330
200
100
AcDbEntity
  8
0
  6
Continuous
 62
     7
100
AcDbCircle
 10
12249.0735452401
 20
16247.7915374213
 30
0.0
 40
17980.8469716369
100
AcDbArc
 50
269.8973285088272
 51
270.1026710030035
1001
ACAD
1000
RTMaterial
1005
0
  0
ARC
  5
F41
330
200
100
AcDbEntity
  8
0
  6
Continuous
 62
     7
100
AcDbCircle
 10
31627.03902323351
 20
-1762.943275142296
 30
0.0
 40
19549.4494326862
100
AcDbArc
 50
180.0379005008958
 51
180.3011014844076
1001
ACAD
1000
RTMaterial
1005
0
  0
ARC
  5
F42
330
200
100
AcDbEntity
  8
0
  6
Continuous
 62
     7
100
AcDbCircle
 10
15446.8478500763
 20
-1706.665576087596
 30
0.0
 40
3135.591575443
100
AcDbArc
 50
180.4910259269955
 51
180.8564873268954
1001
ACAD
1000
RTMaterial
1005
0
  0
ARC
  5
F43
330
200
100
AcDbEntity
  8
0
  6
Continuous
 62
     7
100
AcDbCircle
 10
13119.2976079376
 20
-1857.840939006797
 30
0.0
 40
1000.986378802
100
AcDbArc
 50
179.9935260329014
 51
180.4945330861938
1001
ACAD
1000
RTMaterial
1005
0
  0
ARC
  5
F44
330
200
100
AcDbEntity
  8
0
  6
Continuous
 62
     7
100
AcDbCircle
 10
12334.3682874005
 20
-1975.049180975197
 30
0.0
 40
283.9543493558
100
AcDbArc
 50
87.86459661946038
 51
90.02070702782388
1001
ACAD
1000
RTMaterial
1005
0
  0
ARC
  5
F45
330
200
100
AcDbEntity
  8
0
  6
Continuous
 62
     7
100
AcDbCircle
 10
12280.7473425993
 20
-1853.286970168496
 30
0.0
 40
157.3829508427
100
AcDbArc
 50
180.0064853046905
 51
180.202279835003
1001
ACAD
1000
RTMaterial
1005
0
  0
ARC
  5
F46
330
200
100
AcDbEntity
  8
0
  6
Continuous
 62
     7
100
AcDbCircle
 10
12275.315141675
 20
-1853.278297490796
 30
0.0
 40
151.9508169428
100
AcDbArc
 50
180.2127814380972
 51
183.1146761459044
1001
ACAD
1000
RTMaterial
1005
0
  0
ARC
  5
F47
330
200
100
AcDbEntity
  8
0
  6
Continuous
 62
     7
100
AcDbCircle
 10
12291.8667061483
 20
-1853.381571910896
 30
0.0
 40
82.9111028408
100
AcDbArc
 50
359.6075017437081
 51
0.0322898626981529
1001
ACAD
1000
RTMaterial
1005
0
  0
ARC
  5
F48
330
200
100
AcDbEntity
  8
0
  6
Continuous
 62
     7
100
AcDbCircle
 10
12339.9260619831
 20
-1725.851631995196
 30
0.0
 40
57.53685940149999
100
AcDbArc
 50
75.76858049886713
 51
90.00611566391183
1001
ACAD
1000
RTMaterial
1005
0
  0
ARC
  5
F49
330
200
100
AcDbEntity
  8
0
  6
Continuous
 62
     7
100
AcDbCircle
 10
12341.7242053142
 20
-1718.562673193696
 30
0.0
 40
50.0301704493
100
AcDbArc
 50
359.985904894297
 51
75.71252042434524
1001
ACAD
1000
RTMaterial
1005
0
  0
ARC
  5
F4A
330
200
100
AcDbEntity
  8
0
  6
Continuous
 62
     7
100
AcDbCircle
 10
12340.2561129266
 20
-1723.168606249197
 30
0.0
 40
43.21349532479999
100
AcDbArc
 50
75.33932024709786
 51
90.44575420117375
1001
ACAD
1000
RTMaterial
1005
0
  0
ARC
  5
F4B
330
200
100
AcDbEntity
  8
0
  6
Continuous
 62
     7
100
AcDbCircle
 10
12341.4942367611
 20
-1718.457281214296
 30
0.0
 40
38.3423879473
100
AcDbArc
 50
359.8324243838948
 51
75.34739801231063
1001
ACAD
1000
RTMaterial
1005
0
  0
ARC
  5
F4C
330
200
100
AcDbEntity
  8
0
  6
Continuous
 62
     7
100
AcDbCircle
 10
12343.8979733336
 20
-1724.781174360296
 30
0.0
 40
33.5051882857
100
AcDbArc
 50
85.28064109766013
 51
88.20282119549224
1001
ACAD
1000
RTMaterial
1005
0
  0
ARC
  5
F4D
330
200
100
AcDbEntity
  8
0
  6
Continuous
 62
     7
100
AcDbCircle
 10
12343.9105295057
 20
-1724.626151459296
 30
0.0
 40
33.349657906
100
AcDbArc
 50
79.30216059372369
 51
85.28022714664709
1001
ACAD
1000
RTMaterial
1005
0
  0
ARC
  5
F4E
330
200
100
AcDbEntity
  8
0
  6
Continuous
 62
     7
100
AcDbCircle
 10
12342.6520646483
 20
-1722.083205448696
 30
0.0
 40
32.14772197
100
AcDbArc
 50
359.8523353058002
 51
5.018374776799688
1001
ACAD
1000
RTMaterial
1005
0
  0
ARC
  5
F4F
330
200
100
AcDbEntity
  8
0
  6
Continuous
 62
     7
100
AcDbCircle
 10
12343.9762292411
 20
-1721.965366986697
 30
0.0
 40
30.8183253966
100
AcDbArc
 50
5.015483498201306
 51
41.96948645086555
1001
ACAD
1000
RTMaterial
1005
0
  0
ARC
  5
F50
330
200
100
AcDbEntity
  8
0
  6
Continuous
 62
     7
100
AcDbCircle
 10
12344.0586845657
 20
-1721.914918667696
 30
0.0
 40
30.7232882905
100
AcDbArc
 50
42.0023689958008
 51
43.26475636595872
1001
ACAD
1000
RTMaterial
1005
0
  0
ARC
  5
F51
330
200
100
AcDbEntity
  8
0
  6
Continuous
 62
     7
100
AcDbCircle
 10
12344.0905748992
 20
-1721.887174207396
 30
0.0
 40
30.681050734
100
AcDbArc
 50
43.26784390672663
 51
54.90114145097284
1001
ACAD
1000
RTMaterial
1005
0
  0
ARC
  5
F52
330
200
100
AcDbEntity
  8
0
  6
Continuous
 62
     7
100
AcDbCircle
 10
12344.259344967
 20
-1721.671705747296
 30
0.0
 40
30.4077251921
100
AcDbArc
 50
54.92787733555091
 51
56.70832768363581
1001
ACAD
1000
RTMaterial
1005
0
  0
ARC
  5
F53
330
200
100
AcDbEntity
  8
0
  6
Continuous
 62
     7
100
AcDbCircle
 10
12344.4176982447
 20
-1721.427796640497
 30
0.0
 40
30.116924417
100
AcDbArc
 50
56.70544250578332
 51
68.32574858286796
1001
ACAD
1000
RTMaterial
1005
0
  0
ARC
  5
F54
330
200
100
AcDbEntity
  8
0
  6
Continuous
 62
     7
100
AcDbCircle
 10
12344.4478893269
 20
-1721.399977585696
 30
0.0
 40
30.0799254607
100
AcDbArc
 50
69.34761518429883
 51
78.95909442667631
1001
ACAD
1000
RTMaterial
1005
0
  0
ARC
  5
F55
330
200
100
AcDbEntity
  8
0
  6
Continuous
 62
     7
100
AcDbCircle
 10
12344.4614289522
 20
-1721.365222919096
 30
0.0
 40
30.0426288305
100
AcDbArc
 50
68.35917821678968
 51
69.34840027474432
1001
ACAD
1000
RTMaterial
1005
0
  0
ARC
  5
F56
330
200
100
AcDbEntity
  8
0
  6
Continuous
 62
     7
100
AcDbCircle
 10
12344.5272143181
 20
-1721.041495048796
 30
0.0
 40
29.7128880969
100
AcDbArc
 50
78.97684231093649
 51
79.18751936986456
1001
ACAD
1000
RTMaterial
1005
0
  0
ARC
  5
F57
330
200
100
AcDbEntity
  8
0
  6
Continuous
 62
     7
100
AcDbCircle
 10
12281.3117099215
 20
-1742.927911555196
 30
0.0
 40
9.9015288528
100
AcDbArc
 50
359.9762730678924
 51
90.10101345304546
1001
ACAD
1000
RTMaterial
1005
0
  0
CIRCLE
  5
F58
330
200
100
AcDbEntity
  8
0
  6
Continuous
 62
     7
100
AcDbCircle
 10
12339.0734672933
 20
-1587.684042065896
 30
0.0
 40
7.5
1001
ACAD
1000
RTMaterial
1005
0
  0
ARC
  5
F59
330
200
100
AcDbEntity
  8
0
  6
Continuous
 62
     7
100
AcDbCircle
 10
12425.7728751298
 20
-1520.684072927296
 30
0.0
 40
2.999983578299999
100
AcDbArc
 50
359.951752807497
 51
89.99601587945054
1001
ACAD
1000
RTMaterial
1005
0
  0
ARC
  5
F5A
330
200
100
AcDbEntity
  8
0
  6
Continuous
 62
     7
100
AcDbCircle
 10
14209.7968450182
 20
-731.7387673244966
 30
0.0
 40
2142.0345540055
100
AcDbArc
 50
182.2264667789968
 51
189.6503410451047
1001
ACAD
1000
RTMaterial
1005
0
  0
ARC
  5
F5B
330
200
100
AcDbEntity
  8
0
  6
Continuous
 62
     7
100
AcDbCircle
 10
10288.864533551
 20
-731.7922748220967
 30
0.0
 40
2141.5177185302
100
AcDbArc
 50
350.352728694406
 51
357.7744290415997
1001
ACAD
1000
RTMaterial
1005
0
  0
ARC
  5
F5C
330
200
100
AcDbEntity
  8
0
  6
Continuous
 62
     7
100
AcDbCircle
 10
12077.5939140603
 20
-814.6451473424965
 30
0.0
 40
7.9999393996
100
AcDbArc
 50
89.99708424345596
 51
183.6849184876924
1001
ACAD
1000
RTMaterial
1005
0
  0
ARC
  5
F5D
330
200
100
AcDbEntity
  8
0
  6
Continuous
 62
     7
100
AcDbCircle
 10
12420.5531174149
 20
-814.6451473424965
 30
0.0
 40
7.9999383971
100
AcDbArc
 50
356.3157046082949
 51
90.00065095519344
1001
ACAD
1000
RTMaterial
1005
0
  0
ARC
  5
F5E
330
200
100
AcDbEntity
  8
0
  6
Continuous
 62
     7
100
AcDbCircle
 10
12420.7735015146
 20
-814.6446684318966
 30
0.0
 40
7.9993571982
100
AcDbArc
 50
357.7731871144961
 51
90.0031028779434
1001
ACAD
1000
RTMaterial
1005
0
  0
ARC
  5
F5F
330
200
100
AcDbEntity
  8
0
  6
Continuous
 62
     7
100
AcDbCircle
 10
12077.3734366126
 20
-814.6446653914964
 30
0.0
 40
7.9993563059
100
AcDbArc
 50
89.99691224350097
 51
182.2268438731035
1001
ACAD
1000
RTMaterial
1005
0
  0
ARC
  5
F60
330
200
100
AcDbEntity
  8
0
  6
Continuous
 62
     7
100
AcDbCircle
 10
12105.1261985036
 20
-1089.645147342396
 30
0.0
 40
6.9997678823
100
AcDbArc
 50
188.2562301097969
 51
270.003895802293
1001
ACAD
1000
RTMaterial
1005
0
  0
ARC
  5
F61
330
200
100
AcDbEntity
  8
0
  6
Continuous
 62
     7
100
AcDbCircle
 10
12393.0208128066
 20
-1089.645147342396
 30
0.0
 40
6.9997673958
100
AcDbArc
 50
269.9837318854194
 51
351.7431224670297
1001
ACAD
1000
RTMaterial
1005
0
  0
ARC
  5
F62
330
200
100
AcDbEntity
  8
0
  6
Continuous
 62
     7
100
AcDbCircle
 10
12393.1719057903
 20
-1089.645514603796
 30
0.0
 40
6.999527145
100
AcDbArc
 50
269.9975411523253
 51
350.3517841760018
1001
ACAD
1000
RTMaterial
1005
0
  0
ARC
  5
F63
330
200
100
AcDbEntity
  8
0
  6
Continuous
 62
     7
100
AcDbCircle
 10
12104.9750288126
 20
-1089.645513660696
 30
0.0
 40
6.999527136499999
100
AcDbArc
 50
189.6482134675964
 51
270.002469117763
1001
ACAD
1000
RTMaterial
1005
0
  0
ARC
  5
F64
330
200
100
AcDbEntity
  8
0
  6
Continuous
 62
     7
100
AcDbCircle
 10
12691.4834391627
 20
-1093.645053166096
 30
0.0
 40
2.9999885787
100
AcDbArc
 50
180.0020477507914
 51
269.9998903362561
1001
ACAD
1000
RTMaterial
1005
0
  0
ARC
  5
F65
330
200
100
AcDbEntity
  8
0
  6
Continuous
 62
     7
100
AcDbCircle
 10
12691.4834276272
 20
-809.6452920280965
 30
0.0
 40
2.9999829361
100
AcDbArc
 50
89.99989066944877
 51
179.9968307408949
1001
ACAD
1000
RTMaterial
1005
0
  0
SPLINE
  5
F66
330
200
100
AcDbEntity
  8
0
  6
Continuous
 62
     7
100
AcDbSpline
210
0.0
220
0.0
230
1.0
 70
     8
 71
     3
 72
     8
 73
     4
 74
     0
 42
0.0000000001
 43
0.0000000001
 40
0.0
 40
0.0
 40
0.0
 40
0.0
 40
1.0
 40
1.0
 40
1.0
 40
1.0
 10
12118.3113659105
 20
-1718.286984764896
 30
0.0
 10
12118.3115061255
 20
-1718.399169442796
 30
0.0
 10
12118.3108558974
 20
-1718.511356103897
 30
0.0
 10
12118.3114973168
 20
-1718.623539035696
 30
0.0
1001
ACAD
1000
RTMaterial
1005
0
  0
SPLINE
  5
F67
330
200
100
AcDbEntity
  8
0
  6
Continuous
 62
     7
100
AcDbSpline
210
0.0
220
0.0
230
1.0
 70
     8
 71
     3
 72
    10
 73
     6
 74
     0
 42
0.0000000001
 43
0.0000000001
 40
0.0
 40
0.0
 40
0.0
 40
0.0
 40
0.5249662654999999
 40
0.7700096338
 40
1.0
 40
1.0
 40
1.0
 40
1.0
 10
12187.7627608221
 20
-1725.313485356196
 30
0.0
 10
12178.0492675437
 20
-1720.727151528197
 30
0.0
 10
12163.725881963
 20
-1714.150655216296
 30
0.0
 10
12144.8176333445
 20
-1706.323544500996
 30
0.0
 10
12135.7017109194
 20
-1702.938204680596
 30
0.0
 10
12131.2461762361
 20
-1701.423272499996
 30
0.0
1001
ACAD
1000
RTMaterial
1005
0
  0
SPLINE
  5
F68
330
200
100
AcDbEntity
  8
0
  6
Continuous
 62
     7
100
AcDbSpline
210
0.0
220
0.0
230
1.0
 70
     8
 71
     3
 72
     9
 73
     5
 74
     0
 42
0.0000000001
 43
0.0000000001
 40
0.0
 40
0.0
 40
0.0
 40
0.0
 40
0.2504012429
 40
1.0
 40
1.0
 40
1.0
 40
1.0
 10
12186.7753046348
 20
-1733.537572680997
 30
0.0
 10
12186.7816680349
 20
-1732.845442675096
 30
0.0
 10
12186.8841554995
 20
-1730.082711885696
 30
0.0
 10
12187.2875145538
 20
-1727.330289367096
 30
0.0
 10
12187.7627613802
 20
-1725.313486044296
 30
0.0
1001
ACAD
1000
RTMaterial
1005
0
  0
SPLINE
  5
F69
330
200
100
AcDbEntity
  8
0
  6
Continuous
 62
     7
100
AcDbSpline
210
0.0
220
0.0
230
1.0
 70
     8
 71
     3
 72
    16
 73
    12
 74
     0
 42
0.0000000001
 43
0.0000000001
 40
0.0
 40
0.0
 40
0.0
 40
0.0
 40
0.196963476
 40
0.3785556761
 40
0.5414726802000001
 40
0.6831517643
 40
0.8013249431999998
 40
0.8941159605999999
 40
0.9603299864
 40
0.9833923520999999
 40
1.0
 40
1.0
 40
1.0
 40
1.0
 10
12187.7627613802
 20
-1725.313486044296
 30
0.0
 10
12188.6811497754
 20
-1725.551650532197
 30
0.0
 10
12190.4436162185
 20
-1726.019690275396
 30
0.0
 10
12192.9551454263
 20
-1726.723701454497
 30
0.0
 10
12195.199610426
 20
-1727.393024940597
 30
0.0
 10
12197.1384828117
 20
-1728.016032852996
 30
0.0
 10
12198.7413099613
 20
-1728.580751805996
 30
0.0
 10
12199.9798204673
 20
-1729.078332395797
 30
0.0
 10
12200.7734277828
 20
-1729.458764445996
 30
0.0
 10
12201.2008087838
 20
-1729.737218209796
 30
0.0
 10
12201.34628129
 20
-1729.864408872896
 30
0.0
 10
12201.3961542889
 20
-1729.926958483996
 30
0.0
1001
ACAD
1000
RTMaterial
1005
0
  0
SPLINE
  5
F6A
330
200
100
AcDbEntity
  8
0
  6
Continuous
 62
     7
100
AcDbSpline
210
0.0
220
0.0
230
1.0
 70
     8
 71
     3
 72
     9
 73
     5
 74
     0
 42
0.0000000001
 43
0.0000000001
 40
0.0
 40
0.0
 40
0.0
 40
0.0
 40
0.2460707809
 40
1.0
 40
1.0
 40
1.0
 40
1.0
 10
12201.1082345116
 20
-1732.955243550296
 30
0.0
 10
12201.1033871811
 20
-1732.705473792696
 30
0.0
 10
12201.1115192557
 20
-1731.690161786796
 30
0.0
 10
12201.2350175624
 20
-1730.675209468897
 30
0.0
 10
12201.3961196432
 20
-1729.926949325496
 30
0.0
1001
ACAD
1000
RTMaterial
1005
0
  0
SPLINE
  5
F6B
330
200
100
AcDbEntity
  8
0
  6
Continuous
 62
     7
100
AcDbSpline
210
0.0
220
0.0
230
1.0
 70
     8
 71
     3
 72
    11
 73
     7
 74
     0
 42
0.0000000001
 43
0.0000000001
 40
0.0
 40
0.0
 40
0.0
 40
0.0
 40
0.2651986306
 40
0.5239443884
 40
0.7711632505
 40
1.0
 40
1.0
 40
1.0
 40
1.0
 10
12201.3961196432
 20
-1729.926949325496
 30
0.0
 10
12201.6953591662
 20
-1728.524273047896
 30
0.0
 10
12202.6935840753
 20
-1725.825553247196
 30
0.0
 10
12205.1549606831
 20
-1722.401307488796
 30
0.0
 10
12208.2356843875
 20
-1719.835173887197
 30
0.0
 10
12210.5433083324
 20
-1718.641359569096
 30
0.0
 10
12211.7013738279
 20
-1718.204884481096
 30
0.0
1001
ACAD
1000
RTMaterial
1005
0
  0
SPLINE
  5
F6C
330
200
100
AcDbEntity
  8
0
  6
Continuous
 62
     7
100
AcDbSpline
210
0.0
220
0.0
230
1.0
 70
     8
 71
     3
 72
     9
 73
     5
 74
     0
 42
0.0000000001
 43
0.0000000001
 40
0.0
 40
0.0
 40
0.0
 40
0.0
 40
0.2342824963
 40
1.0
 40
1.0
 40
1.0
 40
1.0
 10
12211.7013738279
 20
-1718.204884481096
 30
0.0
 10
12211.8751197318
 20
-1718.137979739497
 30
0.0
 10
12212.6239226702
 20
-1717.871842774896
 30
0.0
 10
12213.4045727781
 20
-1717.691861442497
 30
0.0
 10
12214.0081946111
 20
-1717.614890951296
 30
0.0
1001
ACAD
1000
RTMaterial
1005
0
  0
SPLINE
  5
F6D
330
200
100
AcDbEntity
  8
0
  6
Continuous
 62
     7
100
AcDbSpline
210
0.0
220
0.0
230
1.0
 70
     8
 71
     3
 72
    23
 73
    19
 74
     0
 42
0.0000000001
 43
0.0000000001
 40
0.0
 40
0.0
 40
0.0
 40
0.0
 40
0.16109217
 40
0.314735946
 40
0.4571923384
 40
0.5817072379
 40
0.6791295058
 40
0.7515976879
 40
0.8076397612
 40
0.8519667459999999
 40
0.8872468387999999
 40
0.9151582471999999
 40
0.9366257220999999
 40
0.9527490237
 40
0.9654691171999999
 40
0.9770223176999998
 40
0.9884758137
 40
1.0
 40
1.0
 40
1.0
 40
1.0
 10
12208.8090529098
 20
-1737.263992777296
 30
0.0
 10
12208.7925123805
 20
-1739.963045792996
 30
0.0
 10
12208.7232250936
 20
-1745.236188229197
 30
0.0
 10
12208.5252965551
 20
-1752.894090783696
 30
0.0
 10
12208.2520109872
 20
-1759.936424211196
 30
0.0
 10
12207.9089561587
 20
-1766.032737847696
 30
0.0
 10
12207.4649924522
 20
-1770.947131641896
 30
0.0
 10
12206.9357979574
 20
-1774.697076765697
 30
0.0
 10
12206.3875742539
 20
-1777.541905666496
 30
0.0
 10
12205.8305346566
 20
-1779.746957227396
 30
0.0
 10
12205.2680514171
 20
-1781.460116356496
 30
0.0
 10
12204.70724266
 20
-1782.765964093196
 30
0.0
 10
12204.1440446976
 20
-1783.712808805496
 30
0.0
 10
12203.5604528885
 20
-1784.337109039596
 30
0.0
 10
12202.9395964204
 20
-1784.647773245696
 30
0.0
 10
12202.3369322107
 20
-1784.702614874296
 30
0.0
 10
12201.7590703093
 20
-1784.693887873696
 30
0.0
 10
12201.3749792244
 20
-1784.653511040996
 30
0.0
 10
12201.1847347247
 20
-1784.620495477597
 30
0.0
1001
ACAD
1000
RTMaterial
1005
0
  0
SPLINE
  5
F6E
330
200
100
AcDbEntity
  8
0
  6
Continuous
 62
     7
100
AcDbSpline
210
0.0
220
0.0
230
1.0
 70
     8
 71
     3
 72
     8
 73
     4
 74
     0
 42
0.0000000001
 43
0.0000000001
 40
0.0
 40
0.0
 40
0.0
 40
0.0
 40
1.0
 40
1.0
 40
1.0
 40
1.0
 10
12201.1847347247
 20
-1784.620495477597
 30
0.0
 10
12201.1721022476
 20
-1774.109144179396
 30
0.0
 10
12201.1585262646
 20
-1763.597793791197
 30
0.0
 10
12201.1426422194
 20
-1753.086446903597
 30
0.0
1001
ACAD
1000
RTMaterial
1005
0
  0
SPLINE
  5
F6F
330
200
100
AcDbEntity
  8
0
  6
Continuous
 62
     7
100
AcDbSpline
210
0.0
220
0.0
230
1.0
 70
     8
 71
     3
 72
     8
 73
     4
 74
     0
 42
0.0000000001
 43
0.0000000001
 40
0.0
 40
0.0
 40
0.0
 40
0.0
 40
1.0
 40
1.0
 40
1.0
 40
1.0
 10
12201.1426422194
 20
-1753.086446903597
 30
0.0
 10
12201.1325009305
 20
-1746.376024441096
 30
0.0
 10
12201.1206705195
 20
-1739.665604524396
 30
0.0
 10
12201.1081746259
 20
-1732.955186033496
 30
0.0
1001
ACAD
1000
RTMaterial
1005
0
  0
SPLINE
  5
F70
330
200
100
AcDbEntity
  8
0
  6
Continuous
 62
     7
100
AcDbSpline
210
0.0
220
0.0
230
1.0
 70
     8
 71
     3
 72
    10
 73
     6
 74
     0
 42
0.0000000001
 43
0.0000000001
 40
0.0
 40
0.0
 40
0.0
 40
0.0
 40
0.2491577974
 40
0.6239461287000001
 40
1.0
 40
1.0
 40
1.0
 40
1.0
 10
12214.0082209837
 20
-1717.615226261796
 30
0.0
 10
12216.9103144674
 20
-1717.312809910896
 30
0.0
 10
12224.1866985906
 20
-1716.639927385796
 30
0.0
 10
12235.8755757627
 20
-1715.883877585896
 30
0.0
 10
12244.669630119
 20
-1715.685802510597
 30
0.0
 10
12249.0734774496
 20
-1715.685210193496
 30
0.0
1001
ACAD
1000
RTMaterial
1005
0
  0
SPLINE
  5
F71
330
200
100
AcDbEntity
  8
0
  6
Continuous
 62
     7
100
AcDbSpline
210
0.0
220
0.0
230
1.0
 70
     8
 71
     3
 72
     9
 73
     5
 74
     0
 42
0.0000000001
 43
0.0000000001
 40
0.0
 40
0.0
 40
0.0
 40
0.0
 40
0.5011181409000001
 40
1.0
 40
1.0
 40
1.0
 40
1.0
 10
12249.0734774496
 20
-1715.685210193496
 30
0.0
 10
12254.9415581909
 20
-1715.683890793997
 30
0.0
 10
12266.6532731151
 20
-1716.048837523896
 30
0.0
 10
12278.3281325151
 20
-1717.010173409596
 30
0.0
 10
12284.1386110347
 20
-1717.615207201697
 30
0.0
1001
ACAD
1000
RTMaterial
1005
0
  0
SPLINE
  5
F72
330
200
100
AcDbEntity
  8
0
  6
Continuous
 62
     7
100
AcDbSpline
210
0.0
220
0.0
230
1.0
 70
     8
 71
     3
 72
     9
 73
     5
 74
     0
 42
0.0000000001
 43
0.0000000001
 40
0.0
 40
0.0
 40
0.0
 40
0.0
 40
0.2667910488
 40
1.0
 40
1.0
 40
1.0
 40
1.0
 10
12284.1386385084
 20
-1717.614870305096
 30
0.0
 10
12284.3489922793
 20
-1717.641669538496
 30
0.0
 10
12285.133928407
 20
-1717.769249279396
 30
0.0
 10
12285.9015444034
 20
-1717.995465945396
 30
0.0
 10
12286.4454105039
 20
-1718.204845157696
 30
0.0
1001
ACAD
1000
RTMaterial
1005
0
  0
SPLINE
  5
F73
330
200
100
AcDbEntity
  8
0
  6
Continuous
 62
     7
100
AcDbSpline
210
0.0
220
0.0
230
1.0
 70
     8
 71
     3
 72
    11
 73
     7
 74
     0
 42
0.0000000001
 43
0.0000000001
 40
0.0
 40
0.0
 40
0.0
 40
0.0
 40
0.228815076
 40
0.4760709011000001
 40
0.7347778775
 40
1.0
 40
1.0
 40
1.0
 40
1.0
 10
12286.4454105039
 20
-1718.204845157696
 30
0.0
 10
12287.6025131683
 20
-1718.643552430197
 30
0.0
 10
12289.9114184545
 20
-1719.834105257697
 30
0.0
 10
12292.991881145
 20
-1722.401244528897
 30
0.0
 10
12295.4531149777
 20
-1725.825456330996
 30
0.0
 10
12296.451463624
 20
-1728.524114004496
 30
0.0
 10
12296.7507283574
 20
-1729.926921785696
 30
0.0
1001
ACAD
1000
RTMaterial
1005
0
  0
SPLINE
  5
F74
330
200
100
AcDbEntity
  8
0
  6
Continuous
 62
     7
100
AcDbSpline
210
0.0
220
0.0
230
1.0
 70
     8
 71
     3
 72
     9
 73
     5
 74
     0
 42
0.0000000001
 43
0.0000000001
 40
0.0
 40
0.0
 40
0.0
 40
0.0
 40
0.2531335558999999
 40
1.0
 40
1.0
 40
1.0
 40
1.0
 10
12296.7507283574
 20
-1729.926921785696
 30
0.0
 10
12296.8048281921
 20
-1730.178164406096
 30
0.0
 10
12296.9880091035
 20
-1731.177096961096
 30
0.0
 10
12297.0533197152
 20
-1732.197079060896
 30
0.0
 10
12297.0386232487
 20
-1732.955214663897
 30
0.0
1001
ACAD
1000
RTMaterial
1005
0
  0
SPLINE
  5
F75
330
200
100
AcDbEntity
  8
0
  6
Continuous
 62
     7
100
AcDbSpline
210
0.0
220
0.0
230
1.0
 70
     8
 71
     3
 72
    22
 73
    18
 74
     0
 42
0.0000000001
 43
0.0000000001
 40
0.0
 40
0.0
 40
0.0
 40
0.0
 40
0.0131115491
 40
0.0259206161
 40
0.038822592
 40
0.0537596323
 40
0.0735823095
 40
0.1001243321
 40
0.1343175775
 40
0.1771911248
 40
0.2304256798
 40
0.2946971927
 40
0.3701421963
 40
0.4633580473
 40
0.5778683861000001
 40
0.7119912222
 40
1.0
 40
1.0
 40
1.0
 40
1.0
 10
12296.9555736342
 20
-1784.624171129296
 30
0.0
 10
12296.7382232116
 20
-1784.657621297996
 30
0.0
 10
12296.3101838876
 20
-1784.731705003697
 30
0.0
 10
12295.657621833
 20
-1784.784324805596
 30
0.0
 10
12294.975860355
 20
-1784.637645056297
 30
0.0
 10
12294.3109069134
 20
-1784.159201650997
 30
0.0
 10
12293.7014981886
 20
-1783.319221147696
 30
0.0
 10
12293.1047310946
 20
-1782.103520934396
 30
0.0
 10
12292.5122353143
 20
-1780.467155772397
 30
0.0
 10
12291.9317766321
 20
-1778.358500952596
 30
0.0
 10
12291.3818199548
 20
-1775.723977062196
 30
0.0
 10
12290.8776044613
 20
-1772.526072270296
 30
0.0
 10
12290.4499364104
 20
-1768.641548630096
 30
0.0
 10
12290.1057316162
 20
-1763.903975950796
 30
0.0
 10
12289.8160624957
 20
-1758.177466440296
 30
0.0
 10
12289.4967771806
 20
-1749.182300112397
 30
0.0
 10
12289.3658607977
 20
-1742.102574322897
 30
0.0
 10
12289.3360436817
 20
-1737.272129466296
 30
0.0
1001
ACAD
1000
RTMaterial
1005
0
  0
SPLINE
  5
F76
330
200
100
AcDbEntity
  8
0
  6
Continuous
 62
     7
100
AcDbSpline
210
0.0
220
0.0
230
1.0
 70
     8
 71
     3
 72
     8
 73
     4
 74
     0
 42
0.0000000001
 43
0.0000000001
 40
0.0
 40
0.0
 40
0.0
 40
0.0
 40
1.0
 40
1.0
 40
1.0
 40
1.0
 10
12297.0387521045
 20
-1732.955190390796
 30
0.0
 10
12297.0262776931
 20
-1739.656439946596
 30
0.0
 10
12297.0144653439
 20
-1746.357690913696
 30
0.0
 10
12297.0043032409
 20
-1753.058944374797
 30
0.0
1001
ACAD
1000
RTMaterial
1005
0
  0
SPLINE
  5
F77
330
200
100
AcDbEntity
  8
0
  6
Continuous
 62
     7
100
AcDbSpline
210
0.0
220
0.0
230
1.0
 70
     8
 71
     3
 72
     8
 73
     4
 74
     0
 42
0.0000000001
 43
0.0000000001
 40
0.0
 40
0.0
 40
0.0
 40
0.0
 40
1.0
 40
1.0
 40
1.0
 40
1.0
 10
12297.0043032409
 20
-1753.058944374797
 30
0.0
 10
12296.988354167
 20
-1763.579709550096
 30
0.0
 10
12296.9713833354
 20
-1774.100473439596
 30
0.0
 10
12296.9579386555
 20
-1784.621242113396
 30
0.0
1001
ACAD
1000
RTMaterial
1005
0
  0
SPLINE
  5
F78
330
200
100
AcDbEntity
  8
0
  6
Continuous
 62
     7
100
AcDbSpline
210
0.0
220
0.0
230
1.0
 70
     8
 71
     3
 72
    23
 73
    19
 74
     0
 42
0.0000000001
 43
0.0000000001
 40
0.0
 40
0.0
 40
0.0
 40
0.0
 40
0.0624651552
 40
0.1249262019
 40
0.1873819849
 40
0.2498712136
 40
0.3124006507
 40
0.3749363404999999
 40
0.4374627645000001
 40
0.5000128511000001
 40
0.5625924584000001
 40
0.6251477522
 40
0.6876892991
 40
0.7502310321
 40
0.8127696731999998
 40
0.8752123982
 40
0.9375720986000001
 40
1.0
 40
1.0
 40
1.0
 40
1.0
 10
12296.9415510897
 20
-1785.608024097596
 30
0.0
 10
12296.8636955216
 20
-1788.686514036996
 30
0.0
 10
12296.1177596801
 20
-1794.844718092096
 30
0.0
 10
12293.2536133842
 20
-1803.685867136196
 30
0.0
 10
12288.7290683507
 20
-1811.808350763196
 30
0.0
 10
12282.7357655098
 20
-1818.918149832396
 30
0.0
 10
12275.4913895121
 20
-1824.755715837996
 30
0.0
 10
12267.2602954822
 20
-1829.096905618596
 30
0.0
 10
12258.3470443819
 20
-1831.775998272597
 30
0.0
 10
12249.0818403381
 20
-1832.684902357097
 30
0.0
 10
12239.8139958743
 20
-1831.787450966497
 30
0.0
 10
12230.894857907
 20
-1829.115090198197
 30
0.0
 10
12222.6621131934
 20
-1824.770982406896
 30
0.0
 10
12215.4192328463
 20
-1818.925532578496
 30
0.0
 10
12209.4348800553
 20
-1811.804996476196
 30
0.0
 10
12204.9142565626
 20
-1803.685680912496
 30
0.0
 10
12202.0351073809
 20
-1794.857685945196
 30
0.0
 10
12201.2836182023
 20
-1788.706810023496
 30
0.0
 10
12201.2011328071
 20
-1785.630277892196
 30
0.0
1001
ACAD
1000
RTMaterial
1005
0
  0
SPLINE
  5
F79
330
200
100
AcDbEntity
  8
0
  6
Continuous
 62
     7
100
AcDbSpline
210
0.0
220
0.0
230
1.0
 70
     8
 71
     3
 72
    23
 73
    19
 74
     0
 42
0.0000000001
 43
0.0000000001
 40
0.0
 40
0.0
 40
0.0
 40
0.0
 40
0.0625089026
 40
0.1250084435
 40
0.1875029316
 40
0.2499948713
 40
0.3124896753
 40
0.374993335
 40
0.4375032188000001
 40
0.5000090744
 40
0.5625099631000001
 40
0.6250096171
 40
0.6874985429000002
 40
0.7499867616
 40
0.8124921115000001
 40
0.8750067728000001
 40
0.9375152918999999
 40
1.0
 40
1.0
 40
1.0
 40
1.0
 10
12420.2033941659
 20
-1865.645522200296
 30
0.0
 10
12420.1346653547
 20
-1876.788070028896
 30
0.0
 10
12417.9742156228
 20
-1899.119972134496
 30
0.0
 10
12408.38675
 20
-1931.357070567896
 30
0.0
 10
12392.5823221899
 20
-1961.065176300896
 30
0.0
 10
12371.1133527445
 20
-1986.981416166696
 30
0.0
 10
12344.8257659961
 20
-2007.990581506397
 30
0.0
 10
12314.9456108053
 20
-2023.421655858896
 30
0.0
 10
12282.7418903172
 20
-2033.054801502396
 30
0.0
 10
12249.3001867426
 20
-2036.602650902697
 30
0.0
 10
12215.7962776882
 20
-2033.593781089397
 30
0.0
 10
12183.5063233823
 20
-2024.192327368496
 30
0.0
 10
12153.6843999763
 20
-2008.577005426697
 30
0.0
 10
12127.85916789
 20
-1986.971709301296
 30
0.0
 10
12106.8841297657
 20
-1960.694391380096
 30
0.0
 10
12090.9661160477
 20
-1931.096335768097
 30
0.0
 10
12080.5977872913
 20
-1899.135820381896
 30
0.0
 10
12077.9205001089
 20
-1876.817589203396
 30
0.0
 10
12077.8595410025
 20
-1865.679309102696
 30
0.0
1001
ACAD
1000
RTMaterial
1005
0
  0
SPLINE
  5
F7A
330
200
100
AcDbEntity
  8
0
  6
Continuous
 62
     7
100
AcDbSpline
210
0.0
220
0.0
230
1.0
 70
     8
 71
     3
 72
     8
 73
     4
 74
     0
 42
0.0000000001
 43
0.0000000001
 40
0.0
 40
0.0
 40
0.0
 40
0.0
 40
1.0
 40
1.0
 40
1.0
 40
1.0
 10
12374.7778537261
 20
-1853.334899363796
 30
0.0
 10
12374.789752131
 20
-1828.658662548196
 30
0.0
 10
12374.7959313956
 20
-1803.982422470797
 30
0.0
 10
12374.797105281
 20
-1779.306182814596
 30
0.0
1001
ACAD
1000
RTMaterial
1005
0
  0
SPLINE
  5
F7B
330
200
100
AcDbEntity
  8
0
  6
Continuous
 62
     7
100
AcDbSpline
210
0.0
220
0.0
230
1.0
 70
     8
 71
     3
 72
     8
 73
     4
 74
     0
 42
0.0000000001
 43
0.0000000001
 40
0.0
 40
0.0
 40
0.0
 40
0.0
 40
1.0
 40
1.0
 40
1.0
 40
1.0
 10
12374.4299423033
 20
-1861.245515170996
 30
0.0
 10
12374.632158578
 20
-1858.819203757496
 30
0.0
 10
12374.7587584987
 20
-1856.384204008296
 30
0.0
 10
12374.7758635789
 20
-1853.949540599696
 30
0.0
1001
ACAD
1000
RTMaterial
1005
0
  0
SPLINE
  5
F7C
330
200
100
AcDbEntity
  8
0
  6
Continuous
 62
     7
100
AcDbSpline
210
0.0
220
0.0
230
1.0
 70
     8
 71
     3
 72
    29
 73
    25
 74
     0
 42
0.0000000001
 43
0.0000000001
 40
0.0
 40
0.0
 40
0.0
 40
0.0
 40
0.062472021
 40
0.1249377815
 40
0.1561995412
 40
0.1874664062
 40
0.2187281777
 40
0.24998957
 40
0.2812454571
 40
0.3125048985
 40
0.3749669459
 40
0.4374528886000001
 40
0.4999615487
 40
0.5624536588
 40
0.6249367346
 40
0.6874079817000001
 40
0.7186877695
 40
0.7499633236
 40
0.7812363149
 40
0.8125037195999999
 40
0.8437814691999999
 40
0.8750404301000001
 40
0.9375275833999999
 40
1.0
 40
1.0
 40
1.0
 40
1.0
 10
12126.0018623474
 20
-1880.534455285197
 30
0.0
 10
12127.4131893575
 20
-1887.615979522396
 30
0.0
 10
12131.3490771377
 20
-1901.579187467396
 30
0.0
 10
12138.955270937
 20
-1918.048107248896
 30
0.0
 10
12146.6664969867
 20
-1930.285268699896
 30
0.0
 10
12153.2693292899
 20
-1938.904918494196
 30
0.0
 10
12160.7129656867
 20
-1946.812768135396
 30
0.0
 10
12168.9296257685
 20
-1953.910771856796
 30
0.0
 10
12177.8093415619
 20
-1960.157410669796
 30
0.0
 10
12190.3756405473
 20
-1967.318183229297
 30
0.0
 10
12207.2010732626
 20
-1974.123857696396
 30
0.0
 10
12228.3988594567
 20
-1978.979800574796
 30
0.0
 10
12250.0752085296
 20
-1980.698537574497
 30
0.0
 10
12271.7793578247
 20
-1979.312615347696
 30
0.0
 10
12293.0227470219
 20
-1974.594991562196
 30
0.0
 10
12309.7923735758
 20
-1967.577920539396
 30
0.0
 10
12322.1546104352
 20
-1960.050494403697
 30
0.0
 10
12330.7873728603
 20
-1953.450229135796
 30
0.0
 10
12338.644524021
 20
-1945.944699151896
 30
0.0
 10
12345.6319399207
 20
-1937.626120870696
 30
0.0
 10
12351.7766806913
 20
-1928.675899221097
 30
0.0
 10
12358.9675496598
 20
-1916.126110397896
 30
0.0
 10
12366.1856198015
 20
-1899.512332725696
 30
0.0
 10
12370.2358410994
 20
-1885.600143019897
 30
0.0
 10
12371.7685838173
 20
-1878.543855781396
 30
0.0
1001
ACAD
1000
RTMaterial
1005
0
  0
SPLINE
  5
F7D
330
200
100
AcDbEntity
  8
0
  6
Continuous
 62
     7
100
AcDbSpline
210
0.0
220
0.0
230
1.0
 70
     8
 71
     3
 72
     8
 73
     4
 74
     0
 42
0.0000000001
 43
0.0000000001
 40
0.0
 40
0.0
 40
0.0
 40
0.0
 40
1.0
 40
1.0
 40
1.0
 40
1.0
 10
12371.7685838173
 20
-1878.543855781396
 30
0.0
 10
12373.0069379876
 20
-1872.842845020296
 30
0.0
 10
12373.9464414929
 20
-1867.059401270496
 30
0.0
 10
12374.4299363611
 20
-1861.245514664997
 30
0.0
1001
ACAD
1000
RTMaterial
1005
0
  0
SPLINE
  5
F7E
330
200
100
AcDbEntity
  8
0
  6
Continuous
 62
     7
100
AcDbSpline
210
0.0
220
0.0
230
1.0
 70
     8
 71
     3
 72
     9
 73
     5
 74
     0
 42
0.0000000001
 43
0.0000000001
 40
0.0
 40
0.0
 40
0.0
 40
0.0
 40
0.2507694342
 40
1.0
 40
1.0
 40
1.0
 40
1.0
 10
12374.7309194379
 20
-1853.331471183396
 30
0.0
 10
12374.7307106685
 20
-1853.334452983596
 30
0.0
 10
12374.7503085321
 20
-1853.330497202996
 30
0.0
 10
12374.757593799
 20
-1853.334045341496
 30
0.0
 10
12374.7665168327
 20
-1853.334413213196
 30
0.0
1001
ACAD
1000
RTMaterial
1005
0
  0
SPLINE
  5
F7F
330
200
100
AcDbEntity
  8
0
  6
Continuous
 62
     7
100
AcDbSpline
210
0.0
220
0.0
230
1.0
 70
     8
 71
     3
 72
    31
 73
    27
 74
     0
 42
0.0000000001
 43
0.0000000001
 40
0.0
 40
0.0
 40
0.0
 40
0.0
 40
0.0312409866
 40
0.0624914606
 40
0.0937483426
 40
0.1250106911
 40
0.1874703999
 40
0.2187443648
 40
0.2500195578
 40
0.2812966216
 40
0.3125712036
 40
0.3438470503
 40
0.3751200517
 40
0.4376003812000001
 40
0.5000844569
 40
0.5625681781000001
 40
0.6250461566
 40
0.6563199878
 40
0.6875938165000001
 40
0.7188550362
 40
0.7501128824
 40
0.8125559854999998
 40
0.8438154263999999
 40
0.8750752871999999
 40
0.9375362279
 40
1.0
 40
1.0
 40
1.0
 40
1.0
 10
12379.7776842815
 20
-1866.428243776396
 30
0.0
 10
12379.7274112334
 20
-1870.681878260397
 30
0.0
 10
12379.2359732074
 20
-1879.190324745396
 30
0.0
 10
12377.3735080569
 20
-1891.835431439996
 30
0.0
 10
12374.3310714325
 20
-1904.257569146096
 30
0.0
 10
12368.7148137835
 20
-1920.341831674997
 30
0.0
 10
12360.7577298431
 20
-1935.540910608096
 30
0.0
 10
12350.6341417142
 20
-1949.254878397696
 30
0.0
 10
12341.9977610198
 20
-1958.703595178096
 30
0.0
 10
12332.4093533669
 20
-1967.182356715096
 30
0.0
 10
12321.9907108702
 20
-1974.615587162296
 30
0.0
 10
12310.8786487661
 20
-1980.962002102996
 30
0.0
 10
12295.3402429335
 20
-1987.969516791096
 30
0.0
 10
12274.8062715425
 20
-1993.997840278396
 30
0.0
 10
12249.2786434181
 20
-1996.682074906397
 30
0.0
 10
12223.6962148214
 20
-1994.482898404497
 30
0.0
 10
12203.0930875262
 20
-1988.618187452097
 30
0.0
 10
12187.5789242116
 20
-1981.547842632696
 30
0.0
 10
12176.5470632757
 20
-1975.059722135997
 30
0.0
 10
12166.2863003139
 20
-1967.410760270497
 30
0.0
 10
12153.8112675796
 20
-1955.800232783496
 30
0.0
 10
12143.1752279547
 20
-1942.362306439196
 30
0.0
 10
12134.4875861937
 20
-1927.713941156497
 30
0.0
 10
12127.1194271369
 20
-1912.350740411896
 30
0.0
 10
12120.5116675193
 20
-1892.015041046296
 30
0.0
 10
12118.4128281921
 20
-1874.985717607496
 30
0.0
 10
12118.348513398
 20
-1866.480576018796
 30
0.0
1001
ACAD
1000
RTMaterial
1005
0
  0
SPLINE
  5
F80
330
200
100
AcDbEntity
  8
0
  6
Continuous
 62
     7
100
AcDbSpline
210
0.0
220
0.0
230
1.0
 70
     8
 71
     3
 72
     8
 73
     4
 74
     0
 42
0.0000000001
 43
0.0000000001
 40
0.0
 40
0.0
 40
0.0
 40
0.0
 40
1.0
 40
1.0
 40
1.0
 40
1.0
 10
12123.3498104763
 20
-1777.562598039696
 30
0.0
 10
12123.3510152889
 20
-1802.810023975496
 30
0.0
 10
12123.3550893725
 20
-1828.057450246396
 30
0.0
 10
12123.3642032156
 20
-1853.304874565997
 30
0.0
1001
ACAD
1000
RTMaterial
1005
0
  0
LINE
  5
F81
330
200
100
AcDbEntity
  8
0
  6
Continuous
 62
     7
100
AcDbLine
 10
12123.3642032156
 20
-1853.304874565997
 30
0.0
 11
12123.1251763078
 21
-1853.515772708896
 31
0.0
1001
ACAD
1000
RTMaterial
1005
0
  0
SPLINE
  5
F82
330
200
100
AcDbEntity
  8
0
  6
Continuous
 62
     7
100
AcDbSpline
210
0.0
220
0.0
230
1.0
 70
     8
 71
     3
 72
     9
 73
     5
 74
     0
 42
0.0000000001
 43
0.0000000001
 40
0.0
 40
0.0
 40
0.0
 40
0.0
 40
0.499768923
 40
1.0
 40
1.0
 40
1.0
 40
1.0
 10
12123.1251763078
 20
-1853.515772708896
 30
0.0
 10
12122.325992678
 20
-1854.220611375696
 30
0.0
 10
12120.7226446573
 20
-1855.625944177196
 30
0.0
 10
12119.0984513023
 20
-1857.008195002297
 30
0.0
 10
12118.3112343139
 20
-1857.727835512497
 30
0.0
1001
ACAD
1000
RTMaterial
1005
0
  0
LINE
  5
F83
330
200
100
AcDbEntity
  8
0
  6
Continuous
 62
     7
100
AcDbLine
 10
12069.3738469907
 20
-1520.686617990896
 30
0.0
 11
12077.3738676451
 21
-1520.684042065896
 31
0.0
1001
ACAD
1000
RTMaterial
1005
0
  0
SPLINE
  5
F84
330
200
100
AcDbEntity
  8
0
  6
Continuous
 62
     7
100
AcDbSpline
210
0.0
220
0.0
230
1.0
 70
     8
 71
     3
 72
    17
 73
    13
 74
     0
 42
0.0000000001
 43
0.0000000001
 40
0.0
 40
0.0
 40
0.0
 40
0.0
 40
0.2023429957
 40
0.3882966293
 40
0.5542800568999999
 40
0.6975085170000001
 40
0.8155023964999999
 40
0.9061543616999999
 40
0.9407366243999998
 40
0.9679454040000001
 40
0.9877049287999998
 40
1.0
 40
1.0
 40
1.0
 40
1.0
 10
12186.7753463151
 20
-1733.537568173696
 30
0.0
 10
12187.7433898638
 20
-1733.523705741296
 30
0.0
 10
12189.6010151752
 20
-1733.493259058696
 30
0.0
 10
12192.2524725701
 20
-1733.436840318796
 30
0.0
 10
12194.6208022437
 20
-1733.372312538896
 30
0.0
 10
12196.6636501296
 20
-1733.301194371797
 30
0.0
 10
12198.3454890036
 20
-1733.224711797996
 30
0.0
 10
12199.507328213
 20
-1733.154184146696
 30
0.0
 10
12200.2339935085
 20
-1733.092242241396
 30
0.0
 10
12200.6222418693
 20
-1733.050489906597
 30
0.0
 10
12200.902214902
 20
-1733.008266877596
 30
0.0
 10
12201.0532171993
 20
-1732.976250702497
 30
0.0
 10
12201.1081752677
 20
-1732.955267000396
 30
0.0
1001
ACAD
1000
RTMaterial
1005
0
  0
SPLINE
  5
F85
330
200
100
AcDbEntity
  8
0
  6
Continuous
 62
     7
100
AcDbSpline
210
0.0
220
0.0
230
1.0
 70
     8
 71
     3
 72
    25
 73
    21
 74
     0
 42
0.0000000001
 43
0.0000000001
 40
0.0
 40
0.0
 40
0.0
 40
0.0
 40
0.0625166296
 40
0.1249973682
 40
0.1562811597
 40
0.1875725532
 40
0.2500596174
 40
0.3125264881
 40
0.3749943343
 40
0.4374728727
 40
0.4999865867000001
 40
0.5625016102
 40
0.6250080822000001
 40
0.6875149486
 40
0.7500105441000001
 40
0.8124821434999999
 40
0.8749486842999999
 40
0.906214214
 40
0.9374900818
 40
1.0
 40
1.0
 40
1.0
 40
1.0
 10
12186.0413260016
 20
-1786.608026122897
 30
0.0
 10
12186.027490868
 20
-1790.791395376297
 30
0.0
 10
12186.509194304
 20
-1799.181494952296
 30
0.0
 10
12189.1105660385
 20
-1809.392770848996
 30
0.0
 10
12192.4294237759
 20
-1817.090812751897
 30
0.0
 10
12196.5855641585
 20
-1824.372578561396
 30
0.0
 10
12203.2863064271
 20
-1832.521222918896
 30
0.0
 10
12213.2050695438
 20
-1840.334349925196
 30
0.0
 10
12224.4326080131
 20
-1846.088103167296
 30
0.0
 10
12236.5368264348
 20
-1849.647377561696
 30
0.0
 10
12249.0930844516
 20
-1850.914033314197
 30
0.0
 10
12261.6695265401
 20
-1849.813256764896
 30
0.0
 10
12273.8092327974
 20
-1846.334699186696
 30
0.0
 10
12285.0296218408
 20
-1840.529545007596
 30
0.0
 10
12294.8125465067
 20
-1832.518145931197
 30
0.0
 10
12302.6041194316
 20
-1822.567943356796
 30
0.0
 10
12307.2791064578
 20
-1813.139193048296
 30
0.0
 10
12309.8955043555
 20
-1805.182361904696
 30
0.0
 10
12311.7508014149
 20
-1797.013388387196
 30
0.0
 10
12312.2504810765
 20
-1790.705835060497
 30
0.0
 10
12312.1741993788
 20
-1786.523587641497
 30
0.0
1001
ACAD
1000
RTMaterial
1005
0
  0
SPLINE
  5
F86
330
200
100
AcDbEntity
  8
0
  6
Continuous
 62
     7
100
AcDbSpline
210
0.0
220
0.0
230
1.0
 70
     8
 71
     3
 72
    17
 73
    13
 74
     0
 42
0.0000000001
 43
0.0000000001
 40
0.0
 40
0.0
 40
0.0
 40
0.0
 40
0.0121119413
 40
0.0317820563
 40
0.0589887066
 40
0.0936477153
 40
0.1846334436
 40
0.3030983824
 40
0.4467632302000001
 40
0.6129529404000001
 40
0.7986481898000001
 40
1.0
 40
1.0
 40
1.0
 40
1.0
 10
12296.9451167948
 20
-1785.609045405196
 30
0.0
 10
12297.0021642687
 20
-1785.632379832196
 30
0.0
 10
12297.1608186896
 20
-1785.669036028196
 30
0.0
 10
12297.4562390271
 20
-1785.719479418796
 30
0.0
 10
12297.8681931989
 20
-1785.771734744696
 30
0.0
 10
12298.6417033522
 20
-1785.852599102896
 30
0.0
 10
12299.8802110436
 20
-1785.951634644396
 30
0.0
 10
12301.673342218
 20
-1786.068056191096
 30
0.0
 10
12303.8498190874
 20
-1786.186340628196
 30
0.0
 10
12306.3688260595
 20
-1786.304250250096
 30
0.0
 10
12309.1818137912
 20
-1786.419060507897
 30
0.0
 10
12311.1501584869
 20
-1786.489753206196
 30
0.0
 10
12312.1742117528
 20
-1786.524421195997
 30
0.0
1001
ACAD
1000
RTMaterial
1005
0
  0
SPLINE
  5
F87
330
200
100
AcDbEntity
  8
0
  6
Continuous
 62
     7
100
AcDbSpline
210
0.0
220
0.0
230
1.0
 70
     8
 71
     3
 72
    17
 73
    13
 74
     0
 42
0.0000000001
 43
0.0000000001
 40
0.0
 40
0.0
 40
0.0
 40
0.0
 40
0.2015839228
 40
0.3874064222999999
 40
0.5536464067
 40
0.6973206159
 40
0.8157647683
 40
0.9067056887999999
 40
0.9413261531999999
 40
0.9684767592
 40
0.9880578404000001
 40
1.0
 40
1.0
 40
1.0
 40
1.0
 10
12186.043211874
 20
-1785.003623915496
 30
0.0
 10
12187.0611660278
 20
-1784.994954162596
 30
0.0
 10
12189.017461459
 20
-1784.975669810197
 30
0.0
 10
12191.8131252076
 20
-1784.939342548496
 30
0.0
 10
12194.3162263031
 20
-1784.897276486396
 30
0.0
 10
12196.4789378195
 20
-1784.850534134696
 30
0.0
 10
12198.2611410463
 20
-1784.799946890696
 30
0.0
 10
12199.4925742217
 20
-1784.753180927296
 30
0.0
 10
12200.2626046364
 20
-1784.711883372196
 30
0.0
 10
12200.6726511232
 20
-1784.684211538897
 30
0.0
 10
12200.9673655406
 20
-1784.655927087896
 30
0.0
 10
12201.125670446
 20
-1784.634973174596
 30
0.0
 10
12201.1842275917
 20
-1784.620549272696
 30
0.0
1001
ACAD
1000
RTMaterial
1005
0
  0
SPLINE
  5
F88
330
200
100
AcDbEntity
  8
0
  6
Continuous
 62
     7
100
AcDbSpline
210
0.0
220
0.0
230
1.0
 70
     8
 71
     3
 72
     8
 73
     4
 74
     0
 42
0.0000000001
 43
0.0000000001
 40
0.0
 40
0.0
 40
0.0
 40
0.0
 40
1.0
 40
1.0
 40
1.0
 40
1.0
 10
12186.0413169337
 20
-1786.607083589597
 30
0.0
 10
12186.0342053499
 20
-1786.072643971797
 30
0.0
 10
12186.0328568962
 20
-1785.538010530296
 30
0.0
 10
12186.043211874
 20
-1785.003623915496
 30
0.0
1001
ACAD
1000
RTMaterial
1005
0
  0
SPLINE
  5
F89
330
200
100
AcDbEntity
  8
0
  6
Continuous
 62
     7
100
AcDbSpline
210
0.0
220
0.0
230
1.0
 70
     8
 71
     3
 72
    17
 73
    13
 74
     0
 42
0.0000000001
 43
0.0000000001
 40
0.0
 40
0.0
 40
0.0
 40
0.0
 40
0.0122284543
 40
0.0319622583
 40
0.0592043538
 40
0.0938795839
 40
0.1848556021
 40
0.3032721888
 40
0.4468699060000001
 40
0.6129938441000001
 40
0.7986455502
 40
1.0
 40
1.0
 40
1.0
 40
1.0
 10
12201.197231327
 20
-1785.619020483796
 30
0.0
 10
12201.1409347203
 20
-1785.644897310696
 30
0.0
 10
12200.982830917
 20
-1785.685769551896
 30
0.0
 10
12200.6886190007
 20
-1785.741240896696
 30
0.0
 10
12200.2784881483
 20
-1785.798530045596
 30
0.0
 10
12199.5089938315
 20
-1785.886913478896
 30
0.0
 10
12198.2767857704
 20
-1785.994843464597
 30
0.0
 10
12196.4927309276
 20
-1786.120803569796
 30
0.0
 10
12194.3271073915
 20
-1786.247957853797
 30
0.0
 10
12191.8203079639
 20
-1786.373960701196
 30
0.0
 10
12189.0203570353
 20
-1786.496096102797
 30
0.0
 10
12187.0608894335
 20
-1786.570724217297
 30
0.0
 10
12186.0413169337
 20
-1786.607083589597
 30
0.0
1001
ACAD
1000
RTMaterial
1005
0
  0
SPLINE
  5
F8A
330
200
100
AcDbEntity
  8
0
  6
Continuous
 62
     7
100
AcDbSpline
210
0.0
220
0.0
230
1.0
 70
     8
 71
     3
 72
    17
 73
    13
 74
     0
 42
0.0000000001
 43
0.0000000001
 40
0.0
 40
0.0
 40
0.0
 40
0.0
 40
0.2021417519
 40
0.3880941454
 40
0.5541943367000001
 40
0.6975901104000001
 40
0.8157384573999999
 40
0.9064734595
 40
0.9410529765999999
 40
0.9682186851999999
 40
0.9878826538
 40
1.0
 40
1.0
 40
1.0
 40
1.0
 10
12186.540281892
 20
-1753.562148409996
 30
0.0
 10
12187.5250768396
 20
-1753.551008742897
 30
0.0
 10
12189.4157612179
 20
-1753.526442463696
 30
0.0
 10
12192.1154822427
 20
-1753.480676607896
 30
0.0
 10
12194.5287971644
 20
-1753.428119376596
 30
0.0
 10
12196.6115548147
 20
-1753.370040614797
 30
0.0
 10
12198.3267388388
 20
-1753.307445903996
 30
0.0
 10
12199.5116612423
 20
-1753.249688484796
 30
0.0
 10
12200.2527514511
 20
-1753.198848672096
 30
0.0
 10
12200.6481292985
 20
-1753.164682730297
 30
0.0
 10
12200.9329005574
 20
-1753.129957466396
 30
0.0
 10
12201.086258483
 20
-1753.103924542096
 30
0.0
 10
12201.1426485751
 20
-1753.086444901897
 30
0.0
1001
ACAD
1000
RTMaterial
1005
0
  0
SPLINE
  5
F8B
330
200
100
AcDbEntity
  8
0
  6
Continuous
 62
     7
100
AcDbSpline
210
0.0
220
0.0
230
1.0
 70
     8
 71
     3
 72
     8
 73
     4
 74
     0
 42
0.0000000001
 43
0.0000000001
 40
0.0
 40
0.0
 40
0.0
 40
0.0
 40
1.0
 40
1.0
 40
1.0
 40
1.0
 10
12186.5403047453
 20
-1753.562148131896
 30
0.0
 10
12186.3816011542
 20
-1764.042741994197
 30
0.0
 10
12186.1950741194
 20
-1774.522909767896
 30
0.0
 10
12186.0432121942
 20
-1785.003604997196
 30
0.0
1001
ACAD
1000
RTMaterial
1005
0
  0
SPLINE
  5
F8C
330
200
100
AcDbEntity
  8
0
  6
Continuous
 62
     7
100
AcDbSpline
210
0.0
220
0.0
230
1.0
 70
     8
 71
     3
 72
    10
 73
     6
 74
     0
 42
0.0000000001
 43
0.0000000001
 40
0.0
 40
0.0
 40
0.0
 40
0.0
 40
0.5249883450000001
 40
0.7700280378000001
 40
1.0
 40
1.0
 40
1.0
 40
1.0
 10
12310.3840468074
 20
-1725.313446759797
 30
0.0
 10
12320.103146369
 20
-1720.724480493996
 30
0.0
 10
12334.4345779435
 20
-1714.144393399496
 30
0.0
 10
12353.3532809694
 20
-1706.313926647996
 30
0.0
 10
12362.4739709346
 20
-1702.927760600596
 30
0.0
 10
12366.931731508
 20
-1701.412731630997
 30
0.0
1001
ACAD
1000
RTMaterial
1005
0
  0
SPLINE
  5
F8D
330
200
100
AcDbEntity
  8
0
  6
Continuous
 62
     7
100
AcDbSpline
210
0.0
220
0.0
230
1.0
 70
     8
 71
     3
 72
     9
 73
     5
 74
     0
 42
0.0000000001
 43
0.0000000001
 40
0.0
 40
0.0
 40
0.0
 40
0.0
 40
0.2563095464
 40
1.0
 40
1.0
 40
1.0
 40
1.0
 10
12292.1796010875
 20
-1711.486013016697
 30
0.0
 10
12294.8798553799
 20
-1709.805968551396
 30
0.0
 10
12305.3640277835
 20
-1703.169111199596
 30
0.0
 10
12315.710176572
 20
-1696.318667314297
 30
0.0
 10
12323.4268888628
 20
-1691.258987834497
 30
0.0
1001
ACAD
1000
RTMaterial
1005
0
  0
SPLINE
  5
F8E
330
200
100
AcDbEntity
  8
0
  6
Continuous
 62
     7
100
AcDbSpline
210
0.0
220
0.0
230
1.0
 70
     8
 71
     3
 72
     9
 73
     5
 74
     0
 42
0.0000000001
 43
0.0000000001
 40
0.0
 40
0.0
 40
0.0
 40
0.0
 40
0.256309865
 40
1.0
 40
1.0
 40
1.0
 40
1.0
 10
12205.9670902889
 20
-1711.486010501997
 30
0.0
 10
12203.2668225315
 20
-1709.805955301096
 30
0.0
 10
12192.7826111778
 20
-1703.169063531996
 30
0.0
 10
12182.4364263282
 20
-1696.318581104196
 30
0.0
 10
12174.7196925126
 20
-1691.258872074096
 30
0.0
1001
ACAD
1000
RTMaterial
1005
0
  0
SPLINE
  5
F8F
330
200
100
AcDbEntity
  8
0
  6
Continuous
 62
     7
100
AcDbSpline
210
0.0
220
0.0
230
1.0
 70
     8
 71
     3
 72
    11
 73
     7
 74
     0
 42
0.0000000001
 43
0.0000000001
 40
0.0
 40
0.0
 40
0.0
 40
0.0
 40
0.3341837724999999
 40
0.6139750229
 40
0.8352173377999999
 40
1.0
 40
1.0
 40
1.0
 40
1.0
 10
12205.967090699
 20
-1711.486012446796
 30
0.0
 10
12206.4512067221
 20
-1712.359634777496
 30
0.0
 10
12207.3921516281
 20
-1713.936923151896
 30
0.0
 10
12208.8675099715
 20
-1715.959049366696
 30
0.0
 10
12210.2479710099
 20
-1717.397049740196
 30
0.0
 10
12211.2357752385
 20
-1718.043968831896
 30
0.0
 10
12211.7013158373
 20
-1718.204662047297
 30
0.0
1001
ACAD
1000
RTMaterial
1005
0
  0
SPLINE
  5
F90
330
200
100
AcDbEntity
  8
0
  6
Continuous
 62
     7
100
AcDbSpline
210
0.0
220
0.0
230
1.0
 70
     8
 71
     3
 72
    13
 73
     9
 74
     0
 42
0.0000000001
 43
0.0000000001
 40
0.0
 40
0.0
 40
0.0
 40
0.0
 40
0.2496095989
 40
0.4996103006000001
 40
0.6251869018999999
 40
0.7505445084000001
 40
0.8756464916999998
 40
1.0
 40
1.0
 40
1.0
 40
1.0
 10
12187.7627612408
 20
-1725.313485861196
 30
0.0
 10
12188.0036177737
 20
-1723.205943068697
 30
0.0
 10
12189.4565608922
 20
-1719.076026803796
 30
0.0
 10
12192.9753472024
 20
-1714.928467010796
 30
0.0
 10
12196.5851198088
 20
-1712.618634501797
 30
0.0
 10
12199.6104063412
 20
-1711.504141815396
 30
0.0
 10
12202.800084907
 20
-1711.120865375997
 30
0.0
 10
12204.924524448
 20
-1711.313177400796
 30
0.0
 10
12205.967090699
 20
-1711.486012446796
 30
0.0
1001
ACAD
1000
RTMaterial
1005
0
  0
SPLINE
  5
F91
330
200
100
AcDbEntity
  8
0
  6
Continuous
 62
     7
100
AcDbSpline
210
0.0
220
0.0
230
1.0
 70
     8
 71
     3
 72
    12
 73
     8
 74
     0
 42
0.0000000001
 43
0.0000000001
 40
0.0
 40
0.0
 40
0.0
 40
0.0
 40
0.3527473907
 40
0.6404092562
 40
0.8570100671999998
 40
0.9377195810999999
 40
1.0
 40
1.0
 40
1.0
 40
1.0
 10
12212.0575566818
 20
-1710.973165113997
 30
0.0
 10
12212.2177474816
 20
-1711.774266689396
 30
0.0
 10
12212.5274299898
 20
-1713.225287112396
 30
0.0
 10
12213.0197975056
 20
-1715.148132507797
 30
0.0
 10
12213.4334312812
 20
-1716.441006869596
 30
0.0
 10
12213.7645354466
 20
-1717.205609374996
 30
0.0
 10
12213.9257621467
 20
-1717.496428351697
 30
0.0
 10
12214.0080923004
 20
-1717.614864950896
 30
0.0
1001
ACAD
1000
RTMaterial
1005
0
  0
SPLINE
  5
F92
330
200
100
AcDbEntity
  8
0
  6
Continuous
 62
     7
100
AcDbSpline
210
0.0
220
0.0
230
1.0
 70
     8
 71
     3
 72
    10
 73
     6
 74
     0
 42
0.0000000001
 43
0.0000000001
 40
0.0
 40
0.0
 40
0.0
 40
0.0
 40
0.4999997257000001
 40
0.7499975719
 40
1.0
 40
1.0
 40
1.0
 40
1.0
 10
12212.0575832216
 20
-1710.973110077296
 30
0.0
 10
12218.2269052093
 20
-1710.968749220397
 30
0.0
 10
12227.4807712458
 20
-1710.915261213297
 30
0.0
 10
12239.8194309255
 20
-1710.904213208997
 30
0.0
 10
12245.9887679124
 20
-1710.911039096396
 30
0.0
 10
12249.0734552774
 20
-1710.904929063296
 30
0.0
1001
ACAD
1000
RTMaterial
1005
0
  0
SPLINE
  5
F93
330
200
100
AcDbEntity
  8
0
  6
Continuous
 62
     7
100
AcDbSpline
210
0.0
220
0.0
230
1.0
 70
     8
 71
     3
 72
    12
 73
     8
 74
     0
 42
0.0000000001
 43
0.0000000001
 40
0.0
 40
0.0
 40
0.0
 40
0.0
 40
0.3527463314
 40
0.6404079446999999
 40
0.8570089693999999
 40
0.9377189624999999
 40
1.0
 40
1.0
 40
1.0
 40
1.0
 10
12286.0891157795
 20
-1710.973129522096
 30
0.0
 10
12285.928932188
 20
-1711.774227127897
 30
0.0
 10
12285.619262474
 20
-1713.225241855996
 30
0.0
 10
12285.1269132479
 20
-1715.148082181897
 30
0.0
 10
12284.7132916875
 20
-1716.440956449696
 30
0.0
 10
12284.382195512
 20
-1717.205562547796
 30
0.0
 10
12284.2209718985
 20
-1717.496384740396
 30
0.0
 10
12284.1386431021
 20
-1717.614823414796
 30
0.0
1001
ACAD
1000
RTMaterial
1005
0
  0
SPLINE
  5
F94
330
200
100
AcDbEntity
  8
0
  6
Continuous
 62
     7
100
AcDbSpline
210
0.0
220
0.0
230
1.0
 70
     8
 71
     3
 72
    10
 73
     6
 74
     0
 42
0.0000000001
 43
0.0000000001
 40
0.0
 40
0.0
 40
0.0
 40
0.0
 40
0.2500024161
 40
0.5000002472000001
 40
1.0
 40
1.0
 40
1.0
 40
1.0
 10
12249.0734952379
 20
-1710.904928870996
 30
0.0
 10
12252.1581606261
 20
-1710.911448647097
 30
0.0
 10
12258.3274565436
 20
-1710.904125685597
 30
0.0
 10
12270.6660312906
 20
-1710.915703096597
 30
0.0
 10
12279.9198357112
 20
-1710.968396184596
 30
0.0
 10
12286.0891157795
 20
-1710.973129522096
 30
0.0
1001
ACAD
1000
RTMaterial
1005
0
  0
SPLINE
  5
F95
330
200
100
AcDbEntity
  8
0
  6
Continuous
 62
     7
100
AcDbSpline
210
0.0
220
0.0
230
1.0
 70
     8
 71
     3
 72
    11
 73
     7
 74
     0
 42
0.0000000001
 43
0.0000000001
 40
0.0
 40
0.0
 40
0.0
 40
0.0
 40
0.3341853069
 40
0.6139771922000001
 40
0.8352175449
 40
1.0
 40
1.0
 40
1.0
 40
1.0
 10
12292.1796078683
 20
-1711.486009991296
 30
0.0
 10
12291.6954979744
 20
-1712.359629646096
 30
0.0
 10
12290.7545623536
 20
-1713.936909594496
 30
0.0
 10
12289.2792330722
 20
-1715.959027363797
 30
0.0
 10
12287.8987934388
 20
-1717.397014280196
 30
0.0
 10
12286.9110103918
 20
-1718.043931433596
 30
0.0
 10
12286.4454764531
 20
-1718.204627089296
 30
0.0
1001
ACAD
1000
RTMaterial
1005
0
  0
SPLINE
  5
F96
330
200
100
AcDbEntity
  8
0
  6
Continuous
 62
     7
100
AcDbSpline
210
0.0
220
0.0
230
1.0
 70
     8
 71
     3
 72
     9
 73
     5
 74
     0
 42
0.0000000001
 43
0.0000000001
 40
0.0
 40
0.0
 40
0.0
 40
0.0
 40
0.2508933541
 40
1.0
 40
1.0
 40
1.0
 40
1.0
 10
12286.0890891552
 20
-1710.973179660596
 30
0.0
 10
12286.6005378253
 20
-1710.975965342896
 30
0.0
 10
12288.6387054941
 20
-1711.026634529497
 30
0.0
 10
12290.6722809349
 20
-1711.241159594896
 30
0.0
 10
12292.1796078683
 20
-1711.486009991296
 30
0.0
1001
ACAD
1000
RTMaterial
1005
0
  0
SPLINE
  5
F97
330
200
100
AcDbEntity
  8
0
  6
Continuous
 62
     7
100
AcDbSpline
210
0.0
220
0.0
230
1.0
 70
     8
 71
     3
 72
    16
 73
    12
 74
     0
 42
0.0000000001
 43
0.0000000001
 40
0.0
 40
0.0
 40
0.0
 40
0.0
 40
0.1969637097
 40
0.3785562059
 40
0.5414731613
 40
0.6831521081
 40
0.8013251737
 40
0.8941160790999999
 40
0.9603300225999999
 40
0.9833923634999999
 40
1.0
 40
1.0
 40
1.0
 40
1.0
 10
12310.3840460514
 20
-1725.313447170497
 30
0.0
 10
12309.465659098
 20
-1725.551612280896
 30
0.0
 10
12307.7031951033
 20
-1726.019653478596
 30
0.0
 10
12305.1916707043
 20
-1726.723666313096
 30
0.0
 10
12302.9472116785
 20
-1727.392991270396
 30
0.0
 10
12301.0083464175
 20
-1728.016000046796
 30
0.0
 10
12299.4055258609
 20
-1728.580719742496
 30
0.0
 10
12298.1670208452
 20
-1729.078301080696
 30
0.0
 10
12297.3734174221
 20
-1729.458733848296
 30
0.0
 10
12296.9460390328
 20
-1729.737188255796
 30
0.0
 10
12296.8005676659
 20
-1729.864379278196
 30
0.0
 10
12296.750695246
 20
-1729.926929025696
 30
0.0
1001
ACAD
1000
RTMaterial
1005
0
  0
SPLINE
  5
F98
330
200
100
AcDbEntity
  8
0
  6
Continuous
 62
     7
100
AcDbSpline
210
0.0
220
0.0
230
1.0
 70
     8
 71
     3
 72
    15
 73
    11
 74
     0
 42
0.0000000001
 43
0.0000000001
 40
0.0
 40
0.0
 40
0.0
 40
0.0
 40
0.124009819
 40
0.2488189942
 40
0.3739215868
 40
0.4991714055
 40
0.6244133457
 40
0.7496737773000001
 40
0.8748542049999999
 40
1.0
 40
1.0
 40
1.0
 40
1.0
 10
12292.1796110463
 20
-1711.486012531796
 30
0.0
 10
12293.2209722145
 20
-1711.308235852096
 30
0.0
 10
12295.3462005037
 20
-1711.119146679496
 30
0.0
 10
12298.5351639889
 20
-1711.505366048396
 30
0.0
 10
12301.5604931742
 20
-1712.619071685796
 30
0.0
 10
12304.2758325477
 20
-1714.354602585096
 30
0.0
 10
12306.5882911659
 20
-1716.597311794097
 30
0.0
 10
12308.4362021811
 20
-1719.232386974796
 30
0.0
 10
12309.775499475
 20
-1722.158237889797
 30
0.0
 10
12310.2585143581
 20
-1724.254759439296
 30
0.0
 10
12310.3840460514
 20
-1725.313447170497
 30
0.0
1001
ACAD
1000
RTMaterial
1005
0
  0
SPLINE
  5
F99
330
200
100
AcDbEntity
  8
0
  6
Continuous
 62
     7
100
AcDbSpline
210
0.0
220
0.0
230
1.0
 70
     8
 71
     3
 72
    17
 73
    13
 74
     0
 42
0.0000000001
 43
0.0000000001
 40
0.0
 40
0.0
 40
0.0
 40
0.0
 40
0.2023461693
 40
0.3883021518
 40
0.5542872439000001
 40
0.6975164542
 40
0.8155100275
 40
0.9061606031
 40
0.9407417459000001
 40
0.9679491192
 40
0.9877069451999998
 40
1.0
 40
1.0
 40
1.0
 40
1.0
 10
12311.3714211609
 20
-1733.537330631496
 30
0.0
 10
12310.4033733159
 20
-1733.523472754496
 30
0.0
 10
12308.5457424406
 20
-1733.493036184896
 30
0.0
 10
12305.8942802721
 20
-1733.436636245696
 30
0.0
 10
12303.5259540345
 20
-1733.372130183096
 30
0.0
 10
12301.4831183698
 20
-1733.301036163696
 30
0.0
 10
12299.8013019392
 20
-1733.224579659196
 30
0.0
 10
12298.639487971
 20
-1733.154076443797
 30
0.0
 10
12297.9128480487
 20
-1733.092155436596
 30
0.0
 10
12297.5246227894
 20
-1733.050418149096
 30
0.0
 10
12297.2446758015
 20
-1733.008209533296
 30
0.0
 10
12297.0936907803
 20
-1732.976205695396
 30
0.0
 10
12297.038741667
 20
-1732.955227452996
 30
0.0
1001
ACAD
1000
RTMaterial
1005
0
  0
SPLINE
  5
F9A
330
200
100
AcDbEntity
  8
0
  6
Continuous
 62
     7
100
AcDbSpline
210
0.0
220
0.0
230
1.0
 70
     8
 71
     3
 72
     9
 73
     5
 74
     0
 42
0.0000000001
 43
0.0000000001
 40
0.0
 40
0.0
 40
0.0
 40
0.0
 40
0.7495983742
 40
1.0
 40
1.0
 40
1.0
 40
1.0
 10
12310.3840455512
 20
-1725.313446781396
 30
0.0
 10
12310.8587113678
 20
-1727.330332829896
 30
0.0
 10
12311.2625258913
 20
-1730.082529746297
 30
0.0
 10
12311.3652480298
 20
-1732.845215081496
 30
0.0
 10
12311.3714211609
 20
-1733.537330631496
 30
0.0
1001
ACAD
1000
RTMaterial
1005
0
  0
SPLINE
  5
F9B
330
200
100
AcDbEntity
  8
0
  6
Continuous
 62
     7
100
AcDbSpline
210
0.0
220
0.0
230
1.0
 70
     8
 71
     3
 72
    17
 73
    13
 74
     0
 42
0.0000000001
 43
0.0000000001
 40
0.0
 40
0.0
 40
0.0
 40
0.0
 40
0.2021408883
 40
0.3880923108
 40
0.5541919870000001
 40
0.6975874504
 40
0.8157356188999999
 40
0.9064707139999999
 40
0.9410504446999999
 40
0.9682165494999999
 40
0.9878812354
 40
1.0
 40
1.0
 40
1.0
 40
1.0
 10
12311.6066028325
 20
-1753.536294914696
 30
0.0
 10
12310.6218108377
 20
-1753.525116705696
 30
0.0
 10
12308.7311332244
 20
-1753.500465501696
 30
0.0
 10
12306.0314216307
 20
-1753.454541344796
 30
0.0
 10
12303.6181152367
 20
-1753.401802453797
 30
0.0
 10
12301.5353642818
 20
-1753.343522834996
 30
0.0
 10
12299.8201872398
 20
-1753.280711821797
 30
0.0
 10
12298.6352709713
 20
-1753.222754422196
 30
0.0
 10
12297.8941884788
 20
-1753.171739280596
 30
0.0
 10
12297.4988124398
 20
-1753.137454369596
 30
0.0
 10
12297.2140446275
 20
-1753.102610141096
 30
0.0
 10
12297.0606871317
 20
-1753.076484489596
 30
0.0
 10
12297.0043076455
 20
-1753.058947049497
 30
0.0
1001
ACAD
1000
RTMaterial
1005
0
  0
SPLINE
  5
F9C
330
200
100
AcDbEntity
  8
0
  6
Continuous
 62
     7
100
AcDbSpline
210
0.0
220
0.0
230
1.0
 70
     8
 71
     3
 72
    17
 73
    13
 74
     0
 42
0.0000000001
 43
0.0000000001
 40
0.0
 40
0.0
 40
0.0
 40
0.0
 40
0.2014910465
 40
0.3872795906
 40
0.5535243252000001
 40
0.6972256551
 40
0.8157045345
 40
0.9066755712999999
 40
0.9413069425999999
 40
0.9684650837000001
 40
0.9880512569
 40
1.0
 40
1.0
 40
1.0
 40
1.0
 10
12312.1693185155
 20
-1785.029119900696
 30
0.0
 10
12311.1470465998
 20
-1785.019933047796
 30
0.0
 10
12309.1821938315
 20
-1784.999473492797
 30
0.0
 10
12306.3740130511
 20
-1784.960871604096
 30
0.0
 10
12303.8591789235
 20
-1784.916119959396
 30
0.0
 10
12301.686005462
 20
-1784.866353835996
 30
0.0
 10
12299.8950349775
 20
-1784.812465556496
 30
0.0
 10
12298.6575176498
 20
-1784.762626627596
 30
0.0
 10
12297.8837606089
 20
-1784.718608765496
 30
0.0
 10
12297.4717631112
 20
-1784.689103838697
 30
0.0
 10
12297.1757622555
 20
-1784.658959373896
 30
0.0
 10
12297.0167687049
 20
-1784.636597252097
 30
0.0
 10
12296.9581225891
 20
-1784.621234913197
 30
0.0
1001
ACAD
1000
RTMaterial
1005
0
  0
SPLINE
  5
F9D
330
200
100
AcDbEntity
  8
0
  6
Continuous
 62
     7
100
AcDbSpline
210
0.0
220
0.0
230
1.0
 70
     8
 71
     3
 72
    10
 73
     6
 74
     0
 42
0.0000000001
 43
0.0000000001
 40
0.0
 40
0.0
 40
0.0
 40
0.0
 40
0.249995679
 40
0.6249945629
 40
1.0
 40
1.0
 40
1.0
 40
1.0
 10
12311.6066024241
 20
-1753.536289852696
 30
0.0
 10
12311.649132418
 20
-1756.160722145596
 30
0.0
 10
12311.7561309295
 20
-1762.721855480296
 30
0.0
 10
12311.96451591
 20
-1773.219088601997
 30
0.0
 10
12312.1035171018
 20
-1781.092379333296
 30
0.0
 10
12312.1693185155
 20
-1785.029119900696
 30
0.0
1001
ACAD
1000
RTMaterial
1005
0
  0
SPLINE
  5
F9E
330
200
100
AcDbEntity
  8
0
  6
Continuous
 62
     7
100
AcDbSpline
210
0.0
220
0.0
230
1.0
 70
     8
 71
     3
 72
     8
 73
     4
 74
     0
 42
0.0000000001
 43
0.0000000001
 40
0.0
 40
0.0
 40
0.0
 40
0.0
 40
1.0
 40
1.0
 40
1.0
 40
1.0
 10
12312.1693225005
 20
-1785.029117390196
 30
0.0
 10
12312.1795181873
 20
-1785.527450206896
 30
0.0
 10
12312.1792747756
 20
-1786.026009477397
 30
0.0
 10
12312.1742002947
 20
-1786.524420751196
 30
0.0
1001
ACAD
1000
RTMaterial
1005
0
  0
SPLINE
  5
F9F
330
200
100
AcDbEntity
  8
0
  6
Continuous
 62
     7
100
AcDbSpline
210
0.0
220
0.0
230
1.0
 70
     8
 71
     3
 72
    13
 73
     9
 74
     0
 42
0.0000000001
 43
0.0000000001
 40
0.0
 40
0.0
 40
0.0
 40
0.0
 40
0.1250407235
 40
0.2501815452
 40
0.3754114961
 40
0.5006595174
 40
0.7503311155
 40
1.0
 40
1.0
 40
1.0
 40
1.0
 10
12147.9395584802
 20
-1691.866965861596
 30
0.0
 10
12146.3312129293
 20
-1692.178317534796
 30
0.0
 10
12143.1587410757
 20
-1693.070694878196
 30
0.0
 10
12138.6891928533
 20
-1695.172821117896
 30
0.0
 10
12134.6147511798
 20
-1697.972543161696
 30
0.0
 10
12129.8615132663
 20
-1702.517832465096
 30
0.0
 10
12125.3823055611
 20
-1709.541237674297
 30
0.0
 10
12123.756964472
 20
-1716.011389145496
 30
0.0
 10
12123.4701769382
 20
-1719.269797401596
 30
0.0
1001
ACAD
1000
RTMaterial
1005
0
  0
LINE
  5
FA0
330
200
100
AcDbEntity
  8
0
  6
Continuous
 62
     7
100
AcDbLine
 10
12420.7730683758
 20
-1520.684042029096
 30
0.0
 11
12428.77309202
 21
-1520.686616555196
 31
0.0
1001
ACAD
1000
RTMaterial
1005
0
  0
LINE
  5
FA1
330
200
100
AcDbEntity
  8
0
  6
Continuous
 62
     7
100
AcDbLine
 10
12123.3951542274
 20
-1853.303736963096
 30
0.0
 11
12123.3642033707
 21
-1853.304787060396
 31
0.0
1001
ACAD
1000
RTMaterial
1005
0
  0
SPLINE
  5
FA2
330
200
100
AcDbEntity
  8
0
  6
Continuous
 62
     7
100
AcDbSpline
210
0.0
220
0.0
230
1.0
 70
     8
 71
     3
 72
    36
 73
    32
 74
     0
 42
0.0000000001
 43
0.0000000001
 40
0.0
 40
0.0
 40
0.0
 40
0.0
 40
0.0312644411
 40
0.0468999884
 40
0.0625350584
 40
0.0937984408
 40
0.1250610463
 40
0.1875093343
 40
0.2187704908
 40
0.2500309925
 40
0.2812916126
 40
0.3125527017
 40
0.3438148454999999
 40
0.3750777161
 40
0.4375390937
 40
0.4999993578
 40
0.5624556070000001
 40
0.6249072382000001
 40
0.6561687141000001
 40
0.6874294894
 40
0.7186892622
 40
0.7499498971
 40
0.8124024605999998
 40
0.8436663019
 40
0.8749302798999998
 40
0.9061939098999999
 40
0.9374572879
 40
0.9530927340999999
 40
0.9687277761
 40
0.9843653647
 40
1.0
 40
1.0
 40
1.0
 40
1.0
 10
12391.7075702168
 20
-1866.613668103896
 30
0.0
 10
12391.6355606946
 20
-1871.247676585996
 30
0.0
 10
12391.1729268526
 20
-1878.197332355497
 30
0.0
 10
12389.9857154888
 20
-1887.392800823196
 30
0.0
 10
12388.3726792858
 20
-1896.524348450397
 30
0.0
 10
12385.5493952369
 20
-1907.782182436596
 30
0.0
 10
12379.3551859114
 20
-1925.262867828496
 30
0.0
 10
12370.6439592653
 20
-1941.775544764096
 30
0.0
 10
12359.6152390729
 20
-1956.692285951596
 30
0.0
 10
12350.2061543093
 20
-1966.963417980396
 30
0.0
 10
12339.7699206519
 20
-1976.186191129096
 30
0.0
 10
12328.4274458101
 20
-1984.267505316496
 30
0.0
 10
12316.3287521902
 20
-1991.163374740096
 30
0.0
 10
12299.4046052795
 20
-1998.760090765496
 30
0.0
 10
12277.0348241694
 20
-2005.251040364697
 30
0.0
 10
12249.2458167317
 20
-2008.070739079196
 30
0.0
 10
12221.4142972362
 20
-2005.639706310697
 30
0.0
 10
12198.9928863347
 20
-1999.272810808396
 30
0.0
 10
12182.0944721565
 20
-1991.614691459096
 30
0.0
 10
12170.065945561
 20
-1984.592257932096
 30
0.0
 10
12158.8586738491
 20
-1976.318676459396
 30
0.0
 10
12145.2077362539
 20
-1963.752216514896
 30
0.0
 10
12133.5619441973
 20
-1949.167831019897
 30
0.0
 10
12124.0697527613
 20
-1933.238570062496
 30
0.0
 10
12118.0313685924
 20
-1920.692318582696
 30
0.0
 10
12113.1485645506
 20
-1907.655299687597
 30
0.0
 10
12110.0876148119
 20
-1896.461066781996
 30
0.0
 10
12108.2913371986
 20
-1887.363618753597
 30
0.0
 10
12107.2921063112
 20
-1880.479091336496
 30
0.0
 10
12106.6363657454
 20
-1873.553964056296
 30
0.0
 10
12106.4453901044
 20
-1868.919104137797
 30
0.0
 10
12106.4218636937
 20
-1866.601581621597
 30
0.0
1001
ACAD
1000
RTMaterial
1005
0
  0
ENDSEC
  0
SECTION
  2
OBJECTS
  0
DICTIONARY
  5
C
330
0
100
AcDbDictionary
281
     1
  3
ACAD_COLOR
350
31C
  3
ACAD_DETAILVIEWSTYLE
350
3E0
  3
ACAD_GROUP
350
D
  3
ACAD_LAYOUT
350
1A
  3
ACAD_MATERIAL
350
2F2
  3
ACAD_MLEADERSTYLE
350
341
  3
ACAD_MLINESTYLE
350
17
  3
ACAD_PLOTSETTINGS
350
19
  3
ACAD_PLOTSTYLENAME
350
E
  3
ACAD_SCALELIST
350
31F
  3
ACAD_SECTIONVIEWSTYLE
350
3E1
  3
ACAD_TABLESTYLE
350
31D
  3
ACAD_VISUALSTYLE
350
30B
  3
ACDB_RECOMPOSE_DATA
350
3DE
  3
ACDBHEADERROUNDTRIPXREC
350
104C
  3
AcDbVariableDictionary
350
347
  0
DICTIONARY
  5
38E
330
2
100
AcDbDictionary
280
     1
281
     1
  3
ACAD_LAYERSTATES
360
38F
  0
DICTIONARY
  5
381
330
380
100
AcDbDictionary
280
     1
281
     1
  3
ADSK_XREC_LAYER_RECONCILED
360
382
  0
DICTIONARY
  5
31C
102
{ACAD_REACTORS
330
C
102
}
330
C
100
AcDbDictionary
281
     1
  0
DICTIONARY
  5
3E0
102
{ACAD_REACTORS
330
C
102
}
330
C
100
AcDbDictionary
281
     1
  0
DICTIONARY
  5
D
102
{ACAD_REACTORS
330
C
102
}
330
C
100
AcDbDictionary
281
     1
  0
DICTIONARY
  5
1A
102
{ACAD_REACTORS
330
C
102
}
330
C
100
AcDbDictionary
281
     1
  3
Layout1
350
2EF
  3
Model
350
2EE
  0
DICTIONARY
  5
2F2
102
{ACAD_REACTORS
330
C
102
}
330
C
100
AcDbDictionary
281
     1
  3
ByBlock
350
2FB
  3
ByLayer
350
2F3
  3
Global
350
303
  0
DICTIONARY
  5
341
102
{ACAD_REACTORS
330
C
102
}
330
C
100
AcDbDictionary
281
     1
  3
Standard
350
342
  0
DICTIONARY
  5
17
102
{ACAD_REACTORS
330
C
102
}
330
C
100
AcDbDictionary
281
     1
  3
Standard
350
18
  0
DICTIONARY
  5
19
102
{ACAD_REACTORS
330
C
102
}
330
C
100
AcDbDictionary
281
     1
  0
ACDBDICTIONARYWDFLT
  5
E
102
{ACAD_REACTORS
330
C
102
}
330
C
100
AcDbDictionary
281
     1
  3
Normal
350
F
100
AcDbDictionaryWithDefault
340
F
  0
DICTIONARY
  5
31F
102
{ACAD_REACTORS
330
C
102
}
330
C
100
AcDbDictionary
281
     1
  3
A0
350
320
  3
A1
350
321
  3
A2
350
322
  3
A3
350
323
  3
A4
350
324
  3
A5
350
325
  3
A6
350
326
  3
A7
350
327
  3
A8
350
328
  3
A9
350
329
  3
B0
350
32A
  3
B1
350
32B
  3
B2
350
32C
  3
B3
350
32D
  3
B4
350
32E
  3
B5
350
32F
  3
B6
350
330
  3
B7
350
331
  3
B8
350
332
  3
B9
350
333
  3
C0
350
334
  3
C1
350
335
  3
C2
350
336
  3
C3
350
337
  3
C4
350
338
  3
C5
350
339
  3
C6
350
33A
  3
C7
350
33B
  3
C8
350
33C
  3
C9
350
33D
  3
D0
350
33E
  3
D1
350
33F
  3
D2
350
340
  0
DICTIONARY
  5
3E1
102
{ACAD_REACTORS
330
C
102
}
330
C
100
AcDbDictionary
281
     1
  0
DICTIONARY
  5
31D
102
{ACAD_REACTORS
330
C
102
}
330
C
100
AcDbDictionary
281
     1
  3
Standard
350
31E
  0
DICTIONARY
  5
30B
102
{ACAD_REACTORS
330
C
102
}
330
C
100
AcDbDictionary
281
     1
  3
2dWireframe
350
311
  3
3D Hidden
350
313
  3
3dWireframe
350
312
  3
Basic
350
310
  3
Brighten
350
317
  3
ColorChange
350
31B
  3
Conceptual
350
314
  3
Dim
350
316
  3
EdgeColorOff
350
39F
  3
Facepattern
350
31A
  3
Flat
350
30C
  3
FlatWithEdges
350
30D
  3
Gouraud
350
30E
  3
GouraudWithEdges
350
30F
  3
Hidden
350
39C
  3
JitterOff
350
39D
  3
Linepattern
350
319
  3
OverhangOff
350
39E
  3
Realistic
350
315
  3
Shaded
350
3A4
  3
Shaded with edges
350
3A3
  3
Shades of Gray
350
3A0
  3
Sketchy
350
3A1
  3
Thicken
350
318
  3
Wireframe
350
39B
  3
X-Ray
350
3A2
  0
XRECORD
  5
3DE
102
{ACAD_REACTORS
330
C
102
}
330
C
100
AcDbXrecord
280
     1
 90
        1
330
31E
  0
DICTIONARY
  5
104C
102
{ACAD_REACTORS
330
C
102
}
330
C
100
AcDbDictionary
281
     1
  0
DICTIONARY
  5
347
102
{ACAD_REACTORS
330
C
102
}
330
C
100
AcDbDictionary
281
     1
  3
CANNOSCALE
350
34A
  3
CMLEADERSTYLE
350
349
  3
CTABLESTYLE
350
348
  3
XCLIPFRAME
350
3DF
  0
DICTIONARY
  5
38F
102
{ACAD_REACTORS
330
38E
102
}
330
38E
100
AcDbDictionary
281
     1
  0
XRECORD
  5
382
102
{ACAD_REACTORS
330
381
102
}
330
381
100
AcDbXrecord
280
     1
290
     1
  0
LAYOUT
  5
2EF
102
{ACAD_REACTORS
330
1A
102
}
330
1A
100
AcDbPlotSettings
  1

  2
none_device
  4
ISO_A4_(297.00_x_210.00_MM)
  6

 40
0.0
 41
0.0
 42
0.0
 43
0.0
 44
297.0
 45
210.0
 46
0.0
 47
0.0
 48
0.0
 49
0.0
140
0.0
141
0.0
142
1.0
143
1.0
 70
     0
 72
     1
 73
     0
 74
     0
  7

 75
     0
147
1.0
 76
     0
 77
     2
 78
   300
148
0.0
149
0.0
100
AcDbLayout
  1
Layout1
 70
     1
 71
     1
 10
0.0
 20
0.0
 11
12.0
 21
9.0
 12
0.0
 22
0.0
 32
0.0
 14
1.000000000000000E+20
 24
1.000000000000000E+20
 34
1.000000000000000E+20
 15
-1.000000000000000E+20
 25
-1.000000000000000E+20
 35
-1.000000000000000E+20
146
0.0
 13
0.0
 23
0.0
 33
0.0
 16
1.0
 26
0.0
 36
0.0
 17
0.0
 27
1.0
 37
0.0
 76
     0
330
201
  0
LAYOUT
  5
2EE
102
{ACAD_REACTORS
330
1A
102
}
330
1A
100
AcDbPlotSettings
  1

  2
none_device
  4
ISO_A4_(297.00_x_210.00_MM)
  6

 40
0.0
 41
0.0
 42
0.0
 43
0.0
 44
297.0
 45
210.0
 46
0.0
 47
0.0
 48
0.0
 49
0.0
140
0.0
141
0.0
142
1.0
143
1.0
 70
  1024
 72
     1
 73
     0
 74
     0
  7

 75
     0
147
1.0
 76
     0
 77
     2
 78
   300
148
0.0
149
0.0
100
AcDbLayout
  1
Model
 70
     0
 71
     0
 10
0.0
 20
0.0
 11
297.0
 21
210.0
 12
0.0
 22
0.0
 32
0.0
 14
0.0
 24
0.0
 34
0.0
 15
0.0
 25
0.0
 35
0.0
146
0.0
 13
0.0
 23
0.0
 33
0.0
 16
1.0
 26
0.0
 36
0.0
 17
0.0
 27
1.0
 37
0.0
 76
     0
330
200
  0
MATERIAL
  5
2FB
102
{ACAD_REACTORS
330
2F2
102
}
330
2F2
100
AcDbMaterial
  1
ByBlock
  2

 72
     0
 73
     2
 43
0.0008202099737533
 43
0.0
 43
0.0
 43
0.0
 43
0.0
 43
0.0008202099737533
 43
0.0
 43
0.0
 43
0.0
 43
0.0
 43
1.0
 43
0.0
 43
0.0
 43
0.0
 43
0.0
 43
1.0
 77
     0
 78
     2
 47
0.0008202099737533
 47
0.0
 47
0.0
 47
0.0
 47
0.0
 47
0.0008202099737533
 47
0.0
 47
0.0
 47
0.0
 47
0.0
 47
1.0
 47
0.0
 47
0.0
 47
0.0
 47
0.0
 47
1.0
171
     0
172
     2
 49
0.0008202099737533
 49
0.0
 49
0.0
 49
0.0
 49
0.0
 49
0.0008202099737533
 49
0.0
 49
0.0
 49
0.0
 49
0.0
 49
1.0
 49
0.0
 49
0.0
 49
0.0
 49
0.0
 49
1.0
175
     0
176
     2
142
0.0008202099737533
142
0.0
142
0.0
142
0.0
142
0.0
142
0.0008202099737533
142
0.0
142
0.0
142
0.0
142
0.0
142
1.0
142
0.0
142
0.0
142
0.0
142
0.0
142
1.0
179
     0
270
     2
144
0.0008202099737533
144
0.0
144
0.0
144
0.0
144
0.0
144
0.0008202099737533
144
0.0
144
0.0
144
0.0
144
0.0
144
1.0
144
0.0
144
0.0
144
0.0
144
0.0
144
1.0
274
     2
147
0.0008202099737533
147
0.0
147
0.0
147
0.0
147
0.0
147
0.0008202099737533
147
0.0
147
0.0
147
0.0
147
0.0
147
1.0
147
0.0
147
0.0
147
0.0
147
0.0
147
1.0
  0
MATERIAL
  5
2F3
102
{ACAD_REACTORS
330
2F2
102
}
330
2F2
100
AcDbMaterial
  1
ByLayer
  2

 72
     0
 73
     2
 43
0.0008202099737533
 43
0.0
 43
0.0
 43
0.0
 43
0.0
 43
0.0008202099737533
 43
0.0
 43
0.0
 43
0.0
 43
0.0
 43
1.0
 43
0.0
 43
0.0
 43
0.0
 43
0.0
 43
1.0
 77
     0
 78
     2
 47
0.0008202099737533
 47
0.0
 47
0.0
 47
0.0
 47
0.0
 47
0.0008202099737533
 47
0.0
 47
0.0
 47
0.0
 47
0.0
 47
1.0
 47
0.0
 47
0.0
 47
0.0
 47
0.0
 47
1.0
171
     0
172
     2
 49
0.0008202099737533
 49
0.0
 49
0.0
 49
0.0
 49
0.0
 49
0.0008202099737533
 49
0.0
 49
0.0
 49
0.0
 49
0.0
 49
1.0
 49
0.0
 49
0.0
 49
0.0
 49
0.0
 49
1.0
175
     0
176
     2
142
0.0008202099737533
142
0.0
142
0.0
142
0.0
142
0.0
142
0.0008202099737533
142
0.0
142
0.0
142
0.0
142
0.0
142
1.0
142
0.0
142
0.0
142
0.0
142
0.0
142
1.0
179
     0
270
     2
144
0.0008202099737533
144
0.0
144
0.0
144
0.0
144
0.0
144
0.0008202099737533
144
0.0
144
0.0
144
0.0
144
0.0
144
1.0
144
0.0
144
0.0
144
0.0
144
0.0
144
1.0
274
     2
147
0.0008202099737533
147
0.0
147
0.0
147
0.0
147
0.0
147
0.0008202099737533
147
0.0
147
0.0
147
0.0
147
0.0
147
1.0
147
0.0
147
0.0
147
0.0
147
0.0
147
1.0
  0
MATERIAL
  5
303
102
{ACAD_REACTORS
330
2F2
102
}
330
2F2
100
AcDbMaterial
  1
Global
  2

 72
     0
 73
     2
 43
0.0008202099737533
 43
0.0
 43
0.0
 43
0.0
 43
0.0
 43
0.0008202099737533
 43
0.0
 43
0.0
 43
0.0
 43
0.0
 43
1.0
 43
0.0
 43
0.0
 43
0.0
 43
0.0
 43
1.0
 77
     0
 78
     2
 47
0.0008202099737533
 47
0.0
 47
0.0
 47
0.0
 47
0.0
 47
0.0008202099737533
 47
0.0
 47
0.0
 47
0.0
 47
0.0
 47
1.0
 47
0.0
 47
0.0
 47
0.0
 47
0.0
 47
1.0
171
     0
172
     2
 49
0.0008202099737533
 49
0.0
 49
0.0
 49
0.0
 49
0.0
 49
0.0008202099737533
 49
0.0
 49
0.0
 49
0.0
 49
0.0
 49
1.0
 49
0.0
 49
0.0
 49
0.0
 49
0.0
 49
1.0
175
     0
176
     2
142
0.0008202099737533
142
0.0
142
0.0
142
0.0
142
0.0
142
0.0008202099737533
142
0.0
142
0.0
142
0.0
142
0.0
142
1.0
142
0.0
142
0.0
142
0.0
142
0.0
142
1.0
179
     0
270
     2
144
0.0008202099737533
144
0.0
144
0.0
144
0.0
144
0.0
144
0.0008202099737533
144
0.0
144
0.0
144
0.0
144
0.0
144
1.0
144
0.0
144
0.0
144
0.0
144
0.0
144
1.0
274
     2
147
0.0008202099737533
147
0.0
147
0.0
147
0.0
147
0.0
147
0.0008202099737533
147
0.0
147
0.0
147
0.0
147
0.0
147
1.0
147
0.0
147
0.0
147
0.0
147
0.0
147
1.0
  0
MLEADERSTYLE
  5
342
102
{ACAD_REACTORS
330
341
102
}
330
341
100
AcDbMLeaderStyle
170
     2
171
     1
172
     0
 90
        2
 40
0.0
 41
0.0
173
     1
 91
-1056964608
340
14
 92
       -2
290
     1
 42
2.0
291
     1
 43
0.36
  3
Standard
341
0
 44
4.0
300

342
11
174
     1
178
     6
175
     1
176
     0
 93
-1056964608
 45
4.0
292
     0
297
     0
 46
4.0
343
0
 94
-1056964608
 47
1.0
 49
1.0
140
1.0
293
     1
141
0.0
294
     1
177
     0
142
1.0
295
     0
296
     0
143
0.125
1001
ACAD_MLEADERVER
1070
     2
  0
MLINESTYLE
  5
18
102
{ACAD_REACTORS
330
17
102
}
330
17
100
AcDbMlineStyle
  2
STANDARD
 70
     0
  3

 62
   256
 51
90.0
 52
90.0
 71
     2
 49
0.5
 62
   256
  6
BYLAYER
 49
-0.5
 62
   256
  6
BYLAYER
  0
ACDBPLACEHOLDER
  5
F
102
{ACAD_REACTORS
330
E
102
}
330
E
  0
SCALE
  5
320
102
{ACAD_REACTORS
330
31F
102
}
330
31F
100
AcDbScale
 70
     0
300
1:1
140
1.0
141
1.0
290
     1
  0
SCALE
  5
321
102
{ACAD_REACTORS
330
31F
102
}
330
31F
100
AcDbScale
 70
     0
300
1:2
140
1.0
141
2.0
290
     0
  0
SCALE
  5
322
102
{ACAD_REACTORS
330
31F
102
}
330
31F
100
AcDbScale
 70
     0
300
1:4
140
1.0
141
4.0
290
     0
  0
SCALE
  5
323
102
{ACAD_REACTORS
330
31F
102
}
330
31F
100
AcDbScale
 70
     0
300
1:5
140
1.0
141
5.0
290
     0
  0
SCALE
  5
324
102
{ACAD_REACTORS
330
31F
102
}
330
31F
100
AcDbScale
 70
     0
300
1:8
140
1.0
141
8.0
290
     0
  0
SCALE
  5
325
102
{ACAD_REACTORS
330
31F
102
}
330
31F
100
AcDbScale
 70
     0
300
1:10
140
1.0
141
10.0
290
     0
  0
SCALE
  5
326
102
{ACAD_REACTORS
330
31F
102
}
330
31F
100
AcDbScale
 70
     0
300
1:16
140
1.0
141
16.0
290
     0
  0
SCALE
  5
327
102
{ACAD_REACTORS
330
31F
102
}
330
31F
100
AcDbScale
 70
     0
300
1:20
140
1.0
141
20.0
290
     0
  0
SCALE
  5
328
102
{ACAD_REACTORS
330
31F
102
}
330
31F
100
AcDbScale
 70
     0
300
1:30
140
1.0
141
30.0
290
     0
  0
SCALE
  5
329
102
{ACAD_REACTORS
330
31F
102
}
330
31F
100
AcDbScale
 70
     0
300
1:40
140
1.0
141
40.0
290
     0
  0
SCALE
  5
32A
102
{ACAD_REACTORS
330
31F
102
}
330
31F
100
AcDbScale
 70
     0
300
1:50
140
1.0
141
50.0
290
     0
  0
SCALE
  5
32B
102
{ACAD_REACTORS
330
31F
102
}
330
31F
100
AcDbScale
 70
     0
300
1:100
140
1.0
141
100.0
290
     0
  0
SCALE
  5
32C
102
{ACAD_REACTORS
330
31F
102
}
330
31F
100
AcDbScale
 70
     0
300
2:1
140
2.0
141
1.0
290
     0
  0
SCALE
  5
32D
102
{ACAD_REACTORS
330
31F
102
}
330
31F
100
AcDbScale
 70
     0
300
4:1
140
4.0
141
1.0
290
     0
  0
SCALE
  5
32E
102
{ACAD_REACTORS
330
31F
102
}
330
31F
100
AcDbScale
 70
     0
300
8:1
140
8.0
141
1.0
290
     0
  0
SCALE
  5
32F
102
{ACAD_REACTORS
330
31F
102
}
330
31F
100
AcDbScale
 70
     0
300
10:1
140
10.0
141
1.0
290
     0
  0
SCALE
  5
330
102
{ACAD_REACTORS
330
31F
102
}
330
31F
100
AcDbScale
 70
     0
300
100:1
140
100.0
141
1.0
290
     0
  0
SCALE
  5
331
102
{ACAD_REACTORS
330
31F
102
}
330
31F
100
AcDbScale
 70
     0
300
1/128" = 1'-0"
140
0.0078125
141
12.0
290
     0
  0
SCALE
  5
332
102
{ACAD_REACTORS
330
31F
102
}
330
31F
100
AcDbScale
 70
     0
300
1/64" = 1'-0"
140
0.015625
141
12.0
290
     0
  0
SCALE
  5
333
102
{ACAD_REACTORS
330
31F
102
}
330
31F
100
AcDbScale
 70
     0
300
1/32" = 1'-0"
140
0.03125
141
12.0
290
     0
  0
SCALE
  5
334
102
{ACAD_REACTORS
330
31F
102
}
330
31F
100
AcDbScale
 70
     0
300
1/16" = 1'-0"
140
0.0625
141
12.0
290
     0
  0
SCALE
  5
335
102
{ACAD_REACTORS
330
31F
102
}
330
31F
100
AcDbScale
 70
     0
300
3/32" = 1'-0"
140
0.09375
141
12.0
290
     0
  0
SCALE
  5
336
102
{ACAD_REACTORS
330
31F
102
}
330
31F
100
AcDbScale
 70
     0
300
1/8" = 1'-0"
140
0.125
141
12.0
290
     0
  0
SCALE
  5
337
102
{ACAD_REACTORS
330
31F
102
}
330
31F
100
AcDbScale
 70
     0
300
3/16" = 1'-0"
140
0.1875
141
12.0
290
     0
  0
SCALE
  5
338
102
{ACAD_REACTORS
330
31F
102
}
330
31F
100
AcDbScale
 70
     0
300
1/4" = 1'-0"
140
0.25
141
12.0
290
     0
  0
SCALE
  5
339
102
{ACAD_REACTORS
330
31F
102
}
330
31F
100
AcDbScale
 70
     0
300
3/8" = 1'-0"
140
0.375
141
12.0
290
     0
  0
SCALE
  5
33A
102
{ACAD_REACTORS
330
31F
102
}
330
31F
100
AcDbScale
 70
     0
300
1/2" = 1'-0"
140
0.5
141
12.0
290
     0
  0
SCALE
  5
33B
102
{ACAD_REACTORS
330
31F
102
}
330
31F
100
AcDbScale
 70
     0
300
3/4" = 1'-0"
140
0.75
141
12.0
290
     0
  0
SCALE
  5
33C
102
{ACAD_REACTORS
330
31F
102
}
330
31F
100
AcDbScale
 70
     0
300
1" = 1'-0"
140
1.0
141
12.0
290
     0
  0
SCALE
  5
33D
102
{ACAD_REACTORS
330
31F
102
}
330
31F
100
AcDbScale
 70
     0
300
1-1/2" = 1'-0"
140
1.5
141
12.0
290
     0
  0
SCALE
  5
33E
102
{ACAD_REACTORS
330
31F
102
}
330
31F
100
AcDbScale
 70
     0
300
3" = 1'-0"
140
3.0
141
12.0
290
     0
  0
SCALE
  5
33F
102
{ACAD_REACTORS
330
31F
102
}
330
31F
100
AcDbScale
 70
     0
300
6" = 1'-0"
140
6.0
141
12.0
290
     0
  0
SCALE
  5
340
102
{ACAD_REACTORS
330
31F
102
}
330
31F
100
AcDbScale
 70
     0
300
1'-0" = 1'-0"
140
12.0
141
12.0
290
     0
  0
TABLESTYLE
  5
31E
102
{ACAD_XDICTIONARY
360
3A8
102
}
102
{ACAD_REACTORS
330
31D
102
}
330
31D
100
AcDbTableStyle
  3
Standard
 70
     0
 71
     0
 40
0.06
 41
0.06
280
     0
281
     0
  7
STANDARD
140
4.5
170
     2
 62
     0
 63
   257
283
     1
274
    -2
284
     1
 64
     0
275
    -2
285
     1
 65
     0
276
    -2
286
     1
 66
     0
277
    -2
287
     1
 67
     0
278
    -2
288
     1
 68
     0
279
    -2
289
     1
 69
     0
  7
STANDARD
140
6.0
170
     5
 62
     0
 63
   257
283
     1
274
    -2
284
     1
 64
     0
275
    -2
285
     1
 65
     0
276
    -2
286
     1
 66
     0
277
    -2
287
     1
 67
     0
278
    -2
288
     1
 68
     0
279
    -2
289
     1
 69
     0
  7
STANDARD
140
4.5
170
     5
 62
     0
 63
   257
283
     1
274
    -2
284
     1
 64
     0
275
    -2
285
     1
 65
     0
276
    -2
286
     1
 66
     0
277
    -2
287
     1
 67
     0
278
    -2
288
     1
 68
     0
279
    -2
289
     1
 69
     0
  0
VISUALSTYLE
  5
311
102
{ACAD_XDICTIONARY
360
1057
102
}
102
{ACAD_REACTORS
330
30B
102
}
330
30B
100
AcDbVisualStyle
  2
2dWireframe
 70
     4
 71
     0
 72
     2
 73
     0
 90
        0
 40
-0.6
 41
-30.0
 62
     5
 63
     7
421
 16777215
 74
     1
 91
        4
 64
     7
 65
     7
 75
     1
175
     1
 42
1.0
 92
        0
 66
     7
 43
1.0
 76
     1
 77
     6
 78
     2
 67
     7
 79
     5
170
     0
171
     0
290
     0
174
     0
 93
        1
 44
0.0
173
     0
291
     0
 45
0.0
1001
ACAD
1000
AcDbSavedByObjectVersion
1070
     0
  0
VISUALSTYLE
  5
313
102
{ACAD_XDICTIONARY
360
105B
102
}
102
{ACAD_REACTORS
330
30B
102
}
330
30B
100
AcDbVisualStyle
  2
3D Hidden
 70
     6
 71
     1
 72
     2
 73
     2
 90
        0
 40
-0.6
 41
-30.0
 62
     5
 63
     7
421
 16777215
 74
     2
 91
        2
 64
     7
 65
     7
 75
     2
175
     1
 42
40.0
 92
        0
 66
     7
 43
1.0
 76
     1
 77
     6
 78
     2
 67
     7
 79
     3
170
     0
171
     0
290
     0
174
     0
 93
        1
 44
0.0
173
     0
291
     0
 45
0.0
1001
ACAD
1000
AcDbSavedByObjectVersion
1070
     0
  0
VISUALSTYLE
  5
312
102
{ACAD_XDICTIONARY
360
1059
102
}
102
{ACAD_REACTORS
330
30B
102
}
330
30B
100
AcDbVisualStyle
  2
3dWireframe
 70
     5
 71
     0
 72
     2
 73
     0
 90
        0
 40
-0.6
 41
-30.0
 62
     5
 63
     7
421
 16777215
 74
     1
 91
        4
 64
     7
 65
     7
 75
     1
175
     1
 42
1.0
 92
        0
 66
     7
 43
1.0
 76
     1
 77
     6
 78
     2
 67
     7
 79
     5
170
     0
171
     0
290
     0
174
     0
 93
        1
 44
0.0
173
     0
291
     0
 45
0.0
1001
ACAD
1000
AcDbSavedByObjectVersion
1070
     0
  0
VISUALSTYLE
  5
310
102
{ACAD_XDICTIONARY
360
1055
102
}
102
{ACAD_REACTORS
330
30B
102
}
330
30B
100
AcDbVisualStyle
  2
Basic
 70
     7
 71
     1
 72
     0
 73
     1
 90
        0
 40
-0.6
 41
-30.0
 62
     5
 63
     7
421
 16777215
 74
     0
 91
        4
 64
     7
 65
     7
 75
     1
175
     1
 42
1.0
 92
        8
 66
     7
 43
1.0
 76
     1
 77
     6
 78
     2
 67
     7
 79
     5
170
     0
171
     0
290
     0
174
     0
 93
        1
 44
0.0
173
     0
291
     1
 45
0.0
1001
ACAD
1000
AcDbSavedByObjectVersion
1070
     0
  0
VISUALSTYLE
  5
317
102
{ACAD_XDICTIONARY
360
1063
102
}
102
{ACAD_REACTORS
330
30B
102
}
330
30B
100
AcDbVisualStyle
  2
Brighten
 70
    12
 71
     2
 72
     2
 73
     0
 90
        0
 40
-0.6
 41
-30.0
 62
     5
 63
     7
421
 16777215
 74
     1
 91
        4
 64
     7
 65
     7
 75
     1
175
     1
 42
1.0
 92
        8
 66
     7
 43
1.0
 76
     1
 77
     6
 78
     2
 67
     7
 79
     5
170
     0
171
     0
290
     0
174
     0
 93
        1
 44
50.0
173
     0
291
     1
 45
0.0
1001
ACAD
1000
AcDbSavedByObjectVersion
1070
     0
  0
VISUALSTYLE
  5
31B
102
{ACAD_XDICTIONARY
360
106B
102
}
102
{ACAD_REACTORS
330
30B
102
}
330
30B
100
AcDbVisualStyle
  2
ColorChange
 70
    16
 71
     2
 72
     2
 73
     3
 90
        0
 40
-0.6
 41
-30.0
 62
     5
 63
     8
421
  8421504
 74
     1
 91
        4
 64
     7
 65
     7
 75
     1
175
     1
 42
1.0
 92
        8
 66
     8
424
  8421504
 43
1.0
 76
     1
 77
     6
 78
     2
 67
     7
 79
     5
170
     0
171
     0
290
     0
174
     0
 93
        1
 44
0.0
173
     0
291
     1
 45
0.0
1001
ACAD
1000
AcDbSavedByObjectVersion
1070
     0
  0
VISUALSTYLE
  5
314
102
{ACAD_XDICTIONARY
360
105D
102
}
102
{ACAD_REACTORS
330
30B
102
}
330
30B
100
AcDbVisualStyle
  2
Conceptual
 70
     9
 71
     3
 72
     2
 73
     0
 90
        0
 40
-0.6
 41
-30.0
 62
     5
 63
     7
421
 16777215
 74
     2
 91
        2
 64
     7
 65
     7
 75
     1
175
     1
 42
40.0
 92
        8
 66
     7
 43
1.0
 76
     1
 77
     6
 78
     2
 67
     7
 79
     3
170
     0
171
     0
290
     0
174
     0
 93
        1
 44
0.0
173
     0
291
     0
 45
0.0
1001
ACAD
1000
AcDbSavedByObjectVersion
1070
     0
  0
VISUALSTYLE
  5
316
102
{ACAD_XDICTIONARY
360
1061
102
}
102
{ACAD_REACTORS
330
30B
102
}
330
30B
100
AcDbVisualStyle
  2
Dim
 70
    11
 71
     2
 72
     2
 73
     0
 90
        0
 40
-0.6
 41
-30.0
 62
     5
 63
     7
421
 16777215
 74
     1
 91
        4
 64
     7
 65
     7
 75
     1
175
     1
 42
1.0
 92
        8
 66
     7
 43
1.0
 76
     1
 77
     6
 78
     2
 67
     7
 79
     5
170
     0
171
     0
290
     0
174
     0
 93
        1
 44
-50.0
173
     0
291
     1
 45
0.0
1001
ACAD
1000
AcDbSavedByObjectVersion
1070
     0
  0
VISUALSTYLE
  5
39F
102
{ACAD_XDICTIONARY
360
1077
102
}
102
{ACAD_REACTORS
330
30B
102
}
330
30B
100
AcDbVisualStyle
  2
EdgeColorOff
 70
    22
 71
     2
 72
     2
 73
     0
 90
        0
 40
-0.6
 41
-30.0
 62
     5
 63
     7
421
 16777215
 74
     1
 91
        4
 64
     7
 65
     7
 75
     1
175
     1
 42
1.0
 92
        8
 66
     7
 43
1.0
 76
     1
 77
     6
 78
     2
 67
     7
 79
     5
170
     0
171
     0
290
     0
174
     0
 93
        1
 44
0.0
173
     0
291
     1
 45
0.0
1001
ACAD
1000
AcDbSavedByObjectVersion
1070
     0
  0
VISUALSTYLE
  5
31A
102
{ACAD_XDICTIONARY
360
1069
102
}
102
{ACAD_REACTORS
330
30B
102
}
330
30B
100
AcDbVisualStyle
  2
Facepattern
 70
    15
 71
     2
 72
     2
 73
     0
 90
        0
 40
-0.6
 41
-30.0
 62
     5
 63
     7
421
 16777215
 74
     1
 91
        4
 64
     7
 65
     7
 75
     1
175
     1
 42
1.0
 92
        8
 66
     7
 43
1.0
 76
     1
 77
     6
 78
     2
 67
     7
 79
     5
170
     0
171
     0
290
     0
174
     0
 93
        1
 44
0.0
173
     0
291
     1
 45
0.0
1001
ACAD
1000
AcDbSavedByObjectVersion
1070
     0
  0
VISUALSTYLE
  5
30C
102
{ACAD_XDICTIONARY
360
104D
102
}
102
{ACAD_REACTORS
330
30B
102
}
330
30B
100
AcDbVisualStyle
  2
Flat
 70
     0
 71
     2
 72
     1
 73
     1
 90
        2
 40
-0.6
 41
30.0
 62
     5
 63
     7
421
 16777215
 74
     0
 91
        4
 64
     7
 65
     7
 75
     1
175
     1
 42
1.0
 92
        8
 66
     7
 43
1.0
 76
     1
 77
     6
 78
     2
 67
     7
 79
     5
170
     0
171
     0
290
     0
174
     0
 93
       13
 44
0.0
173
     0
291
     1
 45
0.0
1001
ACAD
1000
AcDbSavedByObjectVersion
1070
     0
  0
VISUALSTYLE
  5
30D
102
{ACAD_XDICTIONARY
360
104F
102
}
102
{ACAD_REACTORS
330
30B
102
}
330
30B
100
AcDbVisualStyle
  2
FlatWithEdges
 70
     1
 71
     2
 72
     1
 73
     1
 90
        2
 40
-0.6
 41
30.0
 62
     5
 63
     7
421
 16777215
 74
     1
 91
        4
 64
     7
 65
     7
 75
     1
175
     1
 42
1.0
 92
        0
 66
     7
 43
1.0
 76
     1
 77
     6
 78
     2
 67
     7
 79
     5
170
     0
171
     0
290
     0
174
     0
 93
       13
 44
0.0
173
     0
291
     1
 45
0.0
1001
ACAD
1000
AcDbSavedByObjectVersion
1070
     0
  0
VISUALSTYLE
  5
30E
102
{ACAD_XDICTIONARY
360
1051
102
}
102
{ACAD_REACTORS
330
30B
102
}
330
30B
100
AcDbVisualStyle
  2
Gouraud
 70
     2
 71
     2
 72
     2
 73
     1
 90
        2
 40
-0.6
 41
30.0
 62
     5
 63
     7
421
 16777215
 74
     0
 91
        4
 64
     7
 65
     7
 75
     1
175
     1
 42
1.0
 92
        0
 66
     7
 43
1.0
 76
     1
 77
     6
 78
     2
 67
     7
 79
     5
170
     0
171
     0
290
     0
174
     0
 93
       13
 44
0.0
173
     0
291
     1
 45
0.0
1001
ACAD
1000
AcDbSavedByObjectVersion
1070
     0
  0
VISUALSTYLE
  5
30F
102
{ACAD_XDICTIONARY
360
1053
102
}
102
{ACAD_REACTORS
330
30B
102
}
330
30B
100
AcDbVisualStyle
  2
GouraudWithEdges
 70
     3
 71
     2
 72
     2
 73
     1
 90
        2
 40
-0.6
 41
30.0
 62
     5
 63
     7
421
 16777215
 74
     1
 91
        4
 64
     7
 65
     7
 75
     1
175
     1
 42
1.0
 92
        0
 66
     7
 43
1.0
 76
     1
 77
     6
 78
     2
 67
     7
 79
     5
170
     0
171
     0
290
     0
174
     0
 93
       13
 44
0.0
173
     0
291
     1
 45
0.0
1001
ACAD
1000
AcDbSavedByObjectVersion
1070
     0
  0
VISUALSTYLE
  5
39C
102
{ACAD_XDICTIONARY
360
1071
102
}
102
{ACAD_REACTORS
330
30B
102
}
330
30B
100
AcDbVisualStyle
  2
Hidden
 70
     6
 71
     1
 72
     2
 73
     2
 90
        0
 40
-0.6
 41
-30.0
 62
     5
 63
     7
421
 16777215
 74
     2
 91
        2
 64
     7
 65
     7
 75
     2
175
     1
 42
40.0
 92
        0
 66
     7
 43
1.0
 76
     1
 77
     6
 78
     2
 67
     7
 79
     3
170
     0
171
     0
290
     0
174
     0
 93
        1
 44
0.0
173
     0
291
     0
 45
0.0
1001
ACAD
1000
AcDbSavedByObjectVersion
1070
     0
  0
VISUALSTYLE
  5
39D
102
{ACAD_XDICTIONARY
360
1073
102
}
102
{ACAD_REACTORS
330
30B
102
}
330
30B
100
AcDbVisualStyle
  2
JitterOff
 70
    20
 71
     2
 72
     2
 73
     0
 90
        0
 40
-0.6
 41
-30.0
 62
     5
 63
     7
421
 16777215
 74
     1
 91
        4
 64
     7
 65
     7
 75
     1
175
     1
 42
1.0
 92
       10
 66
     7
 43
1.0
 76
     1
 77
     6
 78
     2
 67
     7
 79
     5
170
     0
171
     0
290
     0
174
     0
 93
        1
 44
0.0
173
     0
291
     1
 45
0.0
1001
ACAD
1000
AcDbSavedByObjectVersion
1070
     0
  0
VISUALSTYLE
  5
319
102
{ACAD_XDICTIONARY
360
1067
102
}
102
{ACAD_REACTORS
330
30B
102
}
330
30B
100
AcDbVisualStyle
  2
Linepattern
 70
    14
 71
     2
 72
     2
 73
     0
 90
        0
 40
-0.6
 41
-30.0
 62
     5
 63
     7
421
 16777215
 74
     1
 91
        4
 64
     7
 65
     7
 75
     7
175
     7
 42
1.0
 92
        8
 66
     7
 43
1.0
 76
     1
 77
     6
 78
     2
 67
     7
 79
     5
170
     0
171
     0
290
     0
174
     0
 93
        1
 44
0.0
173
     0
291
     1
 45
0.0
1001
ACAD
1000
AcDbSavedByObjectVersion
1070
     0
  0
VISUALSTYLE
  5
39E
102
{ACAD_XDICTIONARY
360
1075
102
}
102
{ACAD_REACTORS
330
30B
102
}
330
30B
100
AcDbVisualStyle
  2
OverhangOff
 70
    21
 71
     2
 72
     2
 73
     0
 90
        0
 40
-0.6
 41
-30.0
 62
     5
 63
     7
421
 16777215
 74
     1
 91
        4
 64
     7
 65
     7
 75
     1
175
     1
 42
1.0
 92
        9
 66
     7
 43
1.0
 76
     1
 77
     6
 78
     2
 67
     7
 79
     5
170
     0
171
     0
290
     0
174
     0
 93
        1
 44
0.0
173
     0
291
     1
 45
0.0
1001
ACAD
1000
AcDbSavedByObjectVersion
1070
     0
  0
VISUALSTYLE
  5
315
102
{ACAD_XDICTIONARY
360
105F
102
}
102
{ACAD_REACTORS
330
30B
102
}
330
30B
100
AcDbVisualStyle
  2
Realistic
 70
     8
 71
     2
 72
     2
 73
     0
 90
        0
 40
-0.6
 41
-30.0
 62
     5
 63
     7
421
 16777215
 74
     1
 91
        0
 64
     7
 65
     7
 75
     1
175
     1
 42
1.0
 92
        8
 66
     8
424
  7895160
 43
1.0
 76
     1
 77
     6
 78
     2
 67
     7
 79
     5
170
     0
171
     0
290
     0
174
     0
 93
       13
 44
0.0
173
     0
291
     0
 45
0.0
1001
ACAD
1000
AcDbSavedByObjectVersion
1070
     0
  0
VISUALSTYLE
  5
3A4
102
{ACAD_XDICTIONARY
360
1081
102
}
102
{ACAD_REACTORS
330
30B
102
}
330
30B
100
AcDbVisualStyle
  2
Shaded
 70
    27
 71
     2
 72
     2
 73
     1
 90
        2
 40
-0.6
 41
30.0
 62
     5
 63
     7
421
 16777215
 74
     0
 91
        4
 64
     7
 65
     7
 75
     1
175
     1
 42
1.0
 92
        8
 66
     7
 43
1.0
 76
     1
 77
     6
 78
     2
 67
     8
425
  7895160
 79
     3
170
     0
171
     0
290
     0
174
     0
 93
        5
 44
0.0
173
     0
291
     0
 45
0.0
1001
ACAD
1000
AcDbSavedByObjectVersion
1070
     0
  0
VISUALSTYLE
  5
3A3
102
{ACAD_XDICTIONARY
360
107F
102
}
102
{ACAD_REACTORS
330
30B
102
}
330
30B
100
AcDbVisualStyle
  2
Shaded with edges
 70
    26
 71
     2
 72
     2
 73
     1
 90
        2
 40
-0.6
 41
30.0
 62
     5
 63
     7
421
 16777215
 74
     1
 91
       10
 64
     7
 65
     7
 75
     2
175
     1
 42
1.0
 92
        8
 66
     7
 43
1.0
 76
     1
 77
     6
 78
     2
 67
     7
 79
     3
170
     0
171
     0
290
     0
174
     0
 93
        5
 44
0.0
173
     0
291
     0
 45
0.0
1001
ACAD
1000
AcDbSavedByObjectVersion
1070
     0
  0
VISUALSTYLE
  5
3A0
102
{ACAD_XDICTIONARY
360
1079
102
}
102
{ACAD_REACTORS
330
30B
102
}
330
30B
100
AcDbVisualStyle
  2
Shades of Gray
 70
    23
 71
     2
 72
     2
 73
     3
 90
        0
 40
-0.6
 41
-30.0
 62
     5
 63
     7
421
 16777215
 74
     2
 91
        2
 64
     7
 65
     7
 75
     1
175
     1
 42
40.0
 92
        8
 66
     7
 43
1.0
 76
     1
 77
     6
 78
     2
 67
     7
 79
     3
170
     0
171
     0
290
     0
174
     0
 93
        1
 44
0.0
173
     0
291
     0
 45
0.0
1001
ACAD
1000
AcDbSavedByObjectVersion
1070
     0
  0
VISUALSTYLE
  5
3A1
102
{ACAD_XDICTIONARY
360
107B
102
}
102
{ACAD_REACTORS
330
30B
102
}
330
30B
100
AcDbVisualStyle
  2
Sketchy
 70
    24
 71
     1
 72
     2
 73
     2
 90
        0
 40
-0.6
 41
-30.0
 62
     5
 63
     7
421
 16777215
 74
     2
 91
        2
 64
     7
 65
     7
 75
     1
175
     1
 42
40.0
 92
       11
 66
     7
 43
1.0
 76
     1
 77
     6
 78
     2
 67
     7
 79
     6
170
     0
171
     0
290
     0
174
     0
 93
        1
 44
0.0
173
     0
291
     0
 45
0.0
1001
ACAD
1000
AcDbSavedByObjectVersion
1070
     0
  0
VISUALSTYLE
  5
318
102
{ACAD_XDICTIONARY
360
1065
102
}
102
{ACAD_REACTORS
330
30B
102
}
330
30B
100
AcDbVisualStyle
  2
Thicken
 70
    13
 71
     2
 72
     2
 73
     0
 90
        0
 40
-0.6
 41
-30.0
 62
     5
 63
     7
421
 16777215
 74
     1
 91
        4
 64
     7
 65
     7
 75
     1
175
     1
 42
1.0
 92
       12
 66
     7
 43
1.0
 76
     1
 77
     6
 78
     2
 67
     7
 79
     5
170
     0
171
     0
290
     0
174
     0
 93
        1
 44
0.0
173
     0
291
     1
 45
0.0
1001
ACAD
1000
AcDbSavedByObjectVersion
1070
     0
  0
VISUALSTYLE
  5
39B
102
{ACAD_XDICTIONARY
360
106F
102
}
102
{ACAD_REACTORS
330
30B
102
}
330
30B
100
AcDbVisualStyle
  2
Wireframe
 70
     5
 71
     0
 72
     2
 73
     0
 90
        0
 40
-0.6
 41
-30.0
 62
     5
 63
     7
421
 16777215
 74
     1
 91
        4
 64
     7
 65
     7
 75
     1
175
     1
 42
1.0
 92
        0
 66
     7
 43
1.0
 76
     1
 77
     6
 78
     2
 67
     7
 79
     3
170
     0
171
     0
290
     0
174
     0
 93
        1
 44
0.0
173
     0
291
     0
 45
0.0
1001
ACAD
1000
AcDbSavedByObjectVersion
1070
     0
  0
VISUALSTYLE
  5
3A2
102
{ACAD_XDICTIONARY
360
107D
102
}
102
{ACAD_REACTORS
330
30B
102
}
330
30B
100
AcDbVisualStyle
  2
X-Ray
 70
    25
 71
     2
 72
     2
 73
     1
 90
        1
 40
0.5
 41
-30.0
 62
     5
 63
     7
421
 16777215
 74
     1
 91
        0
 64
     7
 65
     7
 75
     1
175
     1
 42
1.0
 92
        8
 66
     7
 43
1.0
 76
     1
 77
     6
 78
     2
 67
     7
 79
     3
170
     0
171
     0
290
     0
174
     0
 93
       13
 44
0.0
173
     0
291
     0
 45
0.0
1001
ACAD
1000
AcDbSavedByObjectVersion
1070
     0
  0
DICTIONARYVAR
  5
34A
102
{ACAD_REACTORS
330
347
102
}
330
347
100
DictionaryVariables
280
     0
  1
1:1
  0
DICTIONARYVAR
  5
349
102
{ACAD_REACTORS
330
347
102
}
330
347
100
DictionaryVariables
280
     0
  1
STANDARD
  0
DICTIONARYVAR
  5
348
102
{ACAD_REACTORS
330
347
102
}
330
347
100
DictionaryVariables
280
     0
  1
STANDARD
  0
DICTIONARYVAR
  5
3DF
102
{ACAD_REACTORS
330
347
102
}
330
347
100
DictionaryVariables
280
     0
  1
0
  0
DICTIONARY
  5
3A8
330
31E
100
AcDbDictionary
280
     1
281
     1
  3
ACAD_ROUNDTRIP_2008_TABLESTYLE_CELLSTYLEMAP
360
106E
  3
ACAD_XREC_ROUNDTRIP
360
106D
  0
DICTIONARY
  5
1057
330
311
100
AcDbDictionary
280
     1
281
     1
  3
ACAD_XREC_ROUNDTRIP
360
1058
  0
DICTIONARY
  5
105B
330
313
100
AcDbDictionary
280
     1
281
     1
  3
ACAD_XREC_ROUNDTRIP
360
105C
  0
DICTIONARY
  5
1059
330
312
100
AcDbDictionary
280
     1
281
     1
  3
ACAD_XREC_ROUNDTRIP
360
105A
  0
DICTIONARY
  5
1055
330
310
100
AcDbDictionary
280
     1
281
     1
  3
ACAD_XREC_ROUNDTRIP
360
1056
  0
DICTIONARY
  5
1063
330
317
100
AcDbDictionary
280
     1
281
     1
  3
ACAD_XREC_ROUNDTRIP
360
1064
  0
DICTIONARY
  5
106B
330
31B
100
AcDbDictionary
280
     1
281
     1
  3
ACAD_XREC_ROUNDTRIP
360
106C
  0
DICTIONARY
  5
105D
330
314
100
AcDbDictionary
280
     1
281
     1
  3
ACAD_XREC_ROUNDTRIP
360
105E
  0
DICTIONARY
  5
1061
330
316
100
AcDbDictionary
280
     1
281
     1
  3
ACAD_XREC_ROUNDTRIP
360
1062
  0
DICTIONARY
  5
1077
330
39F
100
AcDbDictionary
280
     1
281
     1
  3
ACAD_XREC_ROUNDTRIP
360
1078
  0
DICTIONARY
  5
1069
330
31A
100
AcDbDictionary
280
     1
281
     1
  3
ACAD_XREC_ROUNDTRIP
360
106A
  0
DICTIONARY
  5
104D
330
30C
100
AcDbDictionary
280
     1
281
     1
  3
ACAD_XREC_ROUNDTRIP
360
104E
  0
DICTIONARY
  5
104F
330
30D
100
AcDbDictionary
280
     1
281
     1
  3
ACAD_XREC_ROUNDTRIP
360
1050
  0
DICTIONARY
  5
1051
330
30E
100
AcDbDictionary
280
     1
281
     1
  3
ACAD_XREC_ROUNDTRIP
360
1052
  0
DICTIONARY
  5
1053
330
30F
100
AcDbDictionary
280
     1
281
     1
  3
ACAD_XREC_ROUNDTRIP
360
1054
  0
DICTIONARY
  5
1071
330
39C
100
AcDbDictionary
280
     1
281
     1
  3
ACAD_XREC_ROUNDTRIP
360
1072
  0
DICTIONARY
  5
1073
330
39D
100
AcDbDictionary
280
     1
281
     1
  3
ACAD_XREC_ROUNDTRIP
360
1074
  0
DICTIONARY
  5
1067
330
319
100
AcDbDictionary
280
     1
281
     1
  3
ACAD_XREC_ROUNDTRIP
360
1068
  0
DICTIONARY
  5
1075
330
39E
100
AcDbDictionary
280
     1
281
     1
  3
ACAD_XREC_ROUNDTRIP
360
1076
  0
DICTIONARY
  5
105F
330
315
100
AcDbDictionary
280
     1
281
     1
  3
ACAD_XREC_ROUNDTRIP
360
1060
  0
DICTIONARY
  5
1081
330
3A4
100
AcDbDictionary
280
     1
281
     1
  3
ACAD_XREC_ROUNDTRIP
360
1082
  0
DICTIONARY
  5
107F
330
3A3
100
AcDbDictionary
280
     1
281
     1
  3
ACAD_XREC_ROUNDTRIP
360
1080
  0
DICTIONARY
  5
1079
330
3A0
100
AcDbDictionary
280
     1
281
     1
  3
ACAD_XREC_ROUNDTRIP
360
107A
  0
DICTIONARY
  5
107B
330
3A1
100
AcDbDictionary
280
     1
281
     1
  3
ACAD_XREC_ROUNDTRIP
360
107C
  0
DICTIONARY
  5
1065
330
318
100
AcDbDictionary
280
     1
281
     1
  3
ACAD_XREC_ROUNDTRIP
360
1066
  0
DICTIONARY
  5
106F
330
39B
100
AcDbDictionary
280
     1
281
     1
  3
ACAD_XREC_ROUNDTRIP
360
1070
  0
DICTIONARY
  5
107D
330
3A2
100
AcDbDictionary
280
     1
281
     1
  3
ACAD_XREC_ROUNDTRIP
360
107E
  0
CELLSTYLEMAP
  5
106E
102
{ACAD_REACTORS
330
3A8
102
}
330
3A8
100
AcDbCellStyleMap
 90
        3
300
CELLSTYLE
  1
TABLEFORMAT_BEGIN
 90
        5
170
     1
 91
        0
 92
        0
 62
   257
 93
        1
300
CONTENTFORMAT
  1
CONTENTFORMAT_BEGIN
 90
        0
 91
        0
 92
        4
 93
        0
300

 40
0.0
140
1.0
 94
        5
 62
     0
340
11
144
6.0
309
CONTENTFORMAT_END
171
     1
301
MARGIN
  1
CELLMARGIN_BEGIN
 40
1.5
 40
1.5
 40
1.5
 40
1.5
 40
4.5
 40
4.5
309
CELLMARGIN_END
 94
        6
 95
        1
302
GRIDFORMAT
  1
GRIDFORMAT_BEGIN
 90
        0
 91
        1
 62
     0
 92
       -2
340
0
 93
        0
 40
0.045
309
GRIDFORMAT_END
 95
        2
302
GRIDFORMAT
  1
GRIDFORMAT_BEGIN
 90
        0
 91
        1
 62
     0
 92
       -2
340
0
 93
        0
 40
0.045
309
GRIDFORMAT_END
 95
        4
302
GRIDFORMAT
  1
GRIDFORMAT_BEGIN
 90
        0
 91
        1
 62
     0
 92
       -2
340
0
 93
        0
 40
0.045
309
GRIDFORMAT_END
 95
        8
302
GRIDFORMAT
  1
GRIDFORMAT_BEGIN
 90
        0
 91
        1
 62
     0
 92
       -2
340
0
 93
        0
 40
0.045
309
GRIDFORMAT_END
 95
       16
302
GRIDFORMAT
  1
GRIDFORMAT_BEGIN
 90
        0
 91
        1
 62
     0
 92
       -2
340
0
 93
        0
 40
0.045
309
GRIDFORMAT_END
 95
       32
302
GRIDFORMAT
  1
GRIDFORMAT_BEGIN
 90
        0
 91
        1
 62
     0
 92
       -2
340
0
 93
        0
 40
0.045
309
GRIDFORMAT_END
309
TABLEFORMAT_END
  1
CELLSTYLE_BEGIN
 90
        1
 91
        1
300
_TITLE
309
CELLSTYLE_END
300
CELLSTYLE
  1
TABLEFORMAT_BEGIN
 90
        5
170
     1
 91
        0
 92
        0
 62
   257
 93
        1
300
CONTENTFORMAT
  1
CONTENTFORMAT_BEGIN
 90
        0
 91
        0
 92
        4
 93
        0
300

 40
0.0
140
1.0
 94
        5
 62
     0
340
11
144
4.5
309
CONTENTFORMAT_END
171
     1
301
MARGIN
  1
CELLMARGIN_BEGIN
 40
1.5
 40
1.5
 40
1.5
 40
1.5
 40
4.5
 40
4.5
309
CELLMARGIN_END
 94
        6
 95
        1
302
GRIDFORMAT
  1
GRIDFORMAT_BEGIN
 90
        0
 91
        1
 62
     0
 92
       -2
340
0
 93
        0
 40
0.045
309
GRIDFORMAT_END
 95
        2
302
GRIDFORMAT
  1
GRIDFORMAT_BEGIN
 90
        0
 91
        1
 62
     0
 92
       -2
340
0
 93
        0
 40
0.045
309
GRIDFORMAT_END
 95
        4
302
GRIDFORMAT
  1
GRIDFORMAT_BEGIN
 90
        0
 91
        1
 62
     0
 92
       -2
340
0
 93
        0
 40
0.045
309
GRIDFORMAT_END
 95
        8
302
GRIDFORMAT
  1
GRIDFORMAT_BEGIN
 90
        0
 91
        1
 62
     0
 92
       -2
340
0
 93
        0
 40
0.045
309
GRIDFORMAT_END
 95
       16
302
GRIDFORMAT
  1
GRIDFORMAT_BEGIN
 90
        0
 91
        1
 62
     0
 92
       -2
340
0
 93
        0
 40
0.045
309
GRIDFORMAT_END
 95
       32
302
GRIDFORMAT
  1
GRIDFORMAT_BEGIN
 90
        0
 91
        1
 62
     0
 92
       -2
340
0
 93
        0
 40
0.045
309
GRIDFORMAT_END
309
TABLEFORMAT_END
  1
CELLSTYLE_BEGIN
 90
        2
 91
        1
300
_HEADER
309
CELLSTYLE_END
300
CELLSTYLE
  1
TABLEFORMAT_BEGIN
 90
        5
170
     1
 91
        0
 92
        0
 62
   257
 93
        1
300
CONTENTFORMAT
  1
CONTENTFORMAT_BEGIN
 90
        0
 91
        0
 92
        4
 93
        0
300

 40
0.0
140
1.0
 94
        2
 62
     0
340
11
144
4.5
309
CONTENTFORMAT_END
171
     1
301
MARGIN
  1
CELLMARGIN_BEGIN
 40
1.5
 40
1.5
 40
1.5
 40
1.5
 40
4.5
 40
4.5
309
CELLMARGIN_END
 94
        6
 95
        1
302
GRIDFORMAT
  1
GRIDFORMAT_BEGIN
 90
        0
 91
        1
 62
     0
 92
       -2
340
0
 93
        0
 40
0.045
309
GRIDFORMAT_END
 95
        2
302
GRIDFORMAT
  1
GRIDFORMAT_BEGIN
 90
        0
 91
        1
 62
     0
 92
       -2
340
0
 93
        0
 40
0.045
309
GRIDFORMAT_END
 95
        4
302
GRIDFORMAT
  1
GRIDFORMAT_BEGIN
 90
        0
 91
        1
 62
     0
 92
       -2
340
0
 93
        0
 40
0.045
309
GRIDFORMAT_END
 95
        8
302
GRIDFORMAT
  1
GRIDFORMAT_BEGIN
 90
        0
 91
        1
 62
     0
 92
       -2
340
0
 93
        0
 40
0.045
309
GRIDFORMAT_END
 95
       16
302
GRIDFORMAT
  1
GRIDFORMAT_BEGIN
 90
        0
 91
        1
 62
     0
 92
       -2
340
0
 93
        0
 40
0.045
309
GRIDFORMAT_END
 95
       32
302
GRIDFORMAT
  1
GRIDFORMAT_BEGIN
 90
        0
 91
        1
 62
     0
 92
       -2
340
0
 93
        0
 40
0.045
309
GRIDFORMAT_END
309
TABLEFORMAT_END
  1
CELLSTYLE_BEGIN
 90
        3
 91
        2
300
_DATA
309
CELLSTYLE_END
  0
XRECORD
  5
106D
102
{ACAD_REACTORS
330
3A8
102
}
330
3A8
100
AcDbXrecord
280
     1
102
ACAD_ROUNDTRIP_PRE2007_TABLESTYLE
 90
        4
 91
        0
  1

 92
        4
 93
        0
  2

 94
        4
 95
        0
  3

  0
XRECORD
  5
1058
102
{ACAD_REACTORS
330
1057
102
}
330
1057
100
AcDbXrecord
280
     1
102
RTVSPropertyOp0
 70
     1
102
RTVSPropertyOp1
 70
     1
102
RTVSPropertyOp2
 70
     1
102
RTVSPropertyOp3
 70
     1
102
RTVSPropertyOp4
 70
     1
102
RTVSPropertyOp5
 70
     1
102
RTVSPropertyOp6
 70
     1
102
RTVSPropertyOp7
 70
     1
102
RTVSPropertyOp8
 70
     1
102
RTVSPropertyOp9
 70
     1
102
RTVSPropertyOp10
 70
     1
102
RTVSPropertyOp11
 70
     1
102
RTVSPropertyOp12
 70
     1
102
RTVSPropertyOp13
 70
     1
102
RTVSPropertyOp14
 70
     1
102
RTVSPropertyOp15
 70
     1
102
RTVSPropertyOp16
 70
     1
102
RTVSPropertyOp17
 70
     1
102
RTVSPropertyOp18
 70
     1
102
RTVSPropertyOp19
 70
     1
102
RTVSPropertyOp20
 70
     1
102
RTVSPropertyOp21
 70
     1
102
RTVSPropertyOp22
 70
     1
102
RTVSPropertyOp23
 70
     1
102
RTVSPropertyOp24
 70
     1
102
RTVSPropertyOp25
 70
     1
102
RTVSPropertyOp26
 70
     1
102
RTVSPropertyOp27
 70
     1
  0
XRECORD
  5
105C
102
{ACAD_REACTORS
330
105B
102
}
330
105B
100
AcDbXrecord
280
     1
102
RTVSPropertyOp0
 70
     1
102
RTVSPropertyOp1
 70
     1
102
RTVSPropertyOp2
 70
     1
102
RTVSPropertyOp3
 70
     1
102
RTVSPropertyOp4
 70
     1
102
RTVSPropertyOp5
 70
     1
102
RTVSPropertyOp6
 70
     1
102
RTVSPropertyOp7
 70
     1
102
RTVSPropertyOp8
 70
     1
102
RTVSPropertyOp9
 70
     1
102
RTVSPropertyOp10
 70
     1
102
RTVSPropertyOp11
 70
     1
102
RTVSPropertyOp12
 70
     1
102
RTVSPropertyOp13
 70
     1
102
RTVSPropertyOp14
 70
     1
102
RTVSPropertyOp15
 70
     1
102
RTVSPropertyOp16
 70
     1
102
RTVSPropertyOp17
 70
     1
102
RTVSPropertyOp18
 70
     1
102
RTVSPropertyOp19
 70
     1
102
RTVSPropertyOp20
 70
     1
102
RTVSPropertyOp21
 70
     1
102
RTVSPropertyOp22
 70
     1
102
RTVSPropertyOp23
 70
     1
102
RTVSPropertyOp24
 70
     1
102
RTVSPropertyOp25
 70
     1
102
RTVSPropertyOp26
 70
     1
102
RTVSPropertyOp27
 70
     1
  0
XRECORD
  5
105A
102
{ACAD_REACTORS
330
1059
102
}
330
1059
100
AcDbXrecord
280
     1
102
RTVSPropertyOp0
 70
     1
102
RTVSPropertyOp1
 70
     1
102
RTVSPropertyOp2
 70
     1
102
RTVSPropertyOp3
 70
     1
102
RTVSPropertyOp4
 70
     1
102
RTVSPropertyOp5
 70
     1
102
RTVSPropertyOp6
 70
     1
102
RTVSPropertyOp7
 70
     1
102
RTVSPropertyOp8
 70
     1
102
RTVSPropertyOp9
 70
     1
102
RTVSPropertyOp10
 70
     1
102
RTVSPropertyOp11
 70
     1
102
RTVSPropertyOp12
 70
     1
102
RTVSPropertyOp13
 70
     1
102
RTVSPropertyOp14
 70
     1
102
RTVSPropertyOp15
 70
     1
102
RTVSPropertyOp16
 70
     1
102
RTVSPropertyOp17
 70
     1
102
RTVSPropertyOp18
 70
     1
102
RTVSPropertyOp19
 70
     1
102
RTVSPropertyOp20
 70
     1
102
RTVSPropertyOp21
 70
     1
102
RTVSPropertyOp22
 70
     1
102
RTVSPropertyOp23
 70
     1
102
RTVSPropertyOp24
 70
     1
102
RTVSPropertyOp25
 70
     1
102
RTVSPropertyOp26
 70
     1
102
RTVSPropertyOp27
 70
     1
  0
XRECORD
  5
1056
102
{ACAD_REACTORS
330
1055
102
}
330
1055
100
AcDbXrecord
280
     1
102
RTVSPropertyOp0
 70
     1
102
RTVSPropertyOp1
 70
     1
102
RTVSPropertyOp2
 70
     1
102
RTVSPropertyOp3
 70
     1
102
RTVSPropertyOp4
 70
     1
102
RTVSPropertyOp5
 70
     1
102
RTVSPropertyOp6
 70
     1
102
RTVSPropertyOp7
 70
     1
102
RTVSPropertyOp8
 70
     1
102
RTVSPropertyOp9
 70
     1
102
RTVSPropertyOp10
 70
     1
102
RTVSPropertyOp11
 70
     1
102
RTVSPropertyOp12
 70
     1
102
RTVSPropertyOp13
 70
     1
102
RTVSPropertyOp14
 70
     1
102
RTVSPropertyOp15
 70
     1
102
RTVSPropertyOp16
 70
     1
102
RTVSPropertyOp17
 70
     1
102
RTVSPropertyOp18
 70
     1
102
RTVSPropertyOp19
 70
     1
102
RTVSPropertyOp20
 70
     1
102
RTVSPropertyOp21
 70
     1
102
RTVSPropertyOp22
 70
     1
102
RTVSPropertyOp23
 70
     1
102
RTVSPropertyOp24
 70
     1
102
RTVSPropertyOp25
 70
     1
102
RTVSPropertyOp26
 70
     1
102
RTVSPropertyOp27
 70
     1
  0
XRECORD
  5
1064
102
{ACAD_REACTORS
330
1063
102
}
330
1063
100
AcDbXrecord
280
     1
102
RTVSPropertyOp0
 70
     1
102
RTVSPropertyOp1
 70
     1
102
RTVSPropertyOp2
 70
     1
102
RTVSPropertyOp3
 70
     1
102
RTVSPropertyOp4
 70
     1
102
RTVSPropertyOp5
 70
     1
102
RTVSPropertyOp6
 70
     1
102
RTVSPropertyOp7
 70
     1
102
RTVSPropertyOp8
 70
     1
102
RTVSPropertyOp9
 70
     1
102
RTVSPropertyOp10
 70
     1
102
RTVSPropertyOp11
 70
     1
102
RTVSPropertyOp12
 70
     1
102
RTVSPropertyOp13
 70
     1
102
RTVSPropertyOp14
 70
     1
102
RTVSPropertyOp15
 70
     1
102
RTVSPropertyOp16
 70
     1
102
RTVSPropertyOp17
 70
     1
102
RTVSPropertyOp18
 70
     1
102
RTVSPropertyOp19
 70
     1
102
RTVSPropertyOp20
 70
     1
102
RTVSPropertyOp21
 70
     1
102
RTVSPropertyOp22
 70
     1
102
RTVSPropertyOp23
 70
     1
102
RTVSPropertyOp24
 70
     1
102
RTVSPropertyOp25
 70
     1
102
RTVSPropertyOp26
 70
     1
102
RTVSPropertyOp27
 70
     1
  0
XRECORD
  5
106C
102
{ACAD_REACTORS
330
106B
102
}
330
106B
100
AcDbXrecord
280
     1
102
RTVSPropertyOp0
 70
     1
102
RTVSPropertyOp1
 70
     1
102
RTVSPropertyOp2
 70
     1
102
RTVSPropertyOp3
 70
     1
102
RTVSPropertyOp4
 70
     1
102
RTVSPropertyOp5
 70
     1
102
RTVSPropertyOp6
 70
     1
102
RTVSPropertyOp7
 70
     1
102
RTVSPropertyOp8
 70
     1
102
RTVSPropertyOp9
 70
     1
102
RTVSPropertyOp10
 70
     1
102
RTVSPropertyOp11
 70
     1
102
RTVSPropertyOp12
 70
     1
102
RTVSPropertyOp13
 70
     1
102
RTVSPropertyOp14
 70
     1
102
RTVSPropertyOp15
 70
     1
102
RTVSPropertyOp16
 70
     1
102
RTVSPropertyOp17
 70
     1
102
RTVSPropertyOp18
 70
     1
102
RTVSPropertyOp19
 70
     1
102
RTVSPropertyOp20
 70
     1
102
RTVSPropertyOp21
 70
     1
102
RTVSPropertyOp22
 70
     1
102
RTVSPropertyOp23
 70
     1
102
RTVSPropertyOp24
 70
     1
102
RTVSPropertyOp25
 70
     1
102
RTVSPropertyOp26
 70
     1
102
RTVSPropertyOp27
 70
     1
  0
XRECORD
  5
105E
102
{ACAD_REACTORS
330
105D
102
}
330
105D
100
AcDbXrecord
280
     1
102
RTVSPropertyOp0
 70
     1
102
RTVSPropertyOp1
 70
     1
102
RTVSPropertyOp2
 70
     1
102
RTVSPropertyOp3
 70
     1
102
RTVSPropertyOp4
 70
     1
102
RTVSPropertyOp5
 70
     1
102
RTVSPropertyOp6
 70
     1
102
RTVSPropertyOp7
 70
     1
102
RTVSPropertyOp8
 70
     1
102
RTVSPropertyOp9
 70
     1
102
RTVSPropertyOp10
 70
     1
102
RTVSPropertyOp11
 70
     1
102
RTVSPropertyOp12
 70
     1
102
RTVSPropertyOp13
 70
     1
102
RTVSPropertyOp14
 70
     1
102
RTVSPropertyOp15
 70
     1
102
RTVSPropertyOp16
 70
     1
102
RTVSPropertyOp17
 70
     1
102
RTVSPropertyOp18
 70
     1
102
RTVSPropertyOp19
 70
     1
102
RTVSPropertyOp20
 70
     1
102
RTVSPropertyOp21
 70
     1
102
RTVSPropertyOp22
 70
     1
102
RTVSPropertyOp23
 70
     1
102
RTVSPropertyOp24
 70
     1
102
RTVSPropertyOp25
 70
     1
102
RTVSPropertyOp26
 70
     1
102
RTVSPropertyOp27
 70
     1
  0
XRECORD
  5
1062
102
{ACAD_REACTORS
330
1061
102
}
330
1061
100
AcDbXrecord
280
     1
102
RTVSPropertyOp0
 70
     1
102
RTVSPropertyOp1
 70
     1
102
RTVSPropertyOp2
 70
     1
102
RTVSPropertyOp3
 70
     1
102
RTVSPropertyOp4
 70
     1
102
RTVSPropertyOp5
 70
     1
102
RTVSPropertyOp6
 70
     1
102
RTVSPropertyOp7
 70
     1
102
RTVSPropertyOp8
 70
     1
102
RTVSPropertyOp9
 70
     1
102
RTVSPropertyOp10
 70
     1
102
RTVSPropertyOp11
 70
     1
102
RTVSPropertyOp12
 70
     1
102
RTVSPropertyOp13
 70
     1
102
RTVSPropertyOp14
 70
     1
102
RTVSPropertyOp15
 70
     1
102
RTVSPropertyOp16
 70
     1
102
RTVSPropertyOp17
 70
     1
102
RTVSPropertyOp18
 70
     1
102
RTVSPropertyOp19
 70
     1
102
RTVSPropertyOp20
 70
     1
102
RTVSPropertyOp21
 70
     1
102
RTVSPropertyOp22
 70
     1
102
RTVSPropertyOp23
 70
     1
102
RTVSPropertyOp24
 70
     1
102
RTVSPropertyOp25
 70
     1
102
RTVSPropertyOp26
 70
     1
102
RTVSPropertyOp27
 70
     1
  0
XRECORD
  5
1078
102
{ACAD_REACTORS
330
1077
102
}
330
1077
100
AcDbXrecord
280
     1
102
RTVSPropertyOp0
 70
     0
102
RTVSPropertyOp1
 70
     0
102
RTVSPropertyOp2
 70
     0
102
RTVSPropertyOp3
 70
     0
102
RTVSPropertyOp4
 70
     0
102
RTVSPropertyOp5
 70
     0
102
RTVSPropertyOp6
 70
     0
102
RTVSPropertyOp7
 70
     0
102
RTVSPropertyOp8
 70
     0
102
RTVSPropertyOp9
 70
     0
102
RTVSPropertyOp10
 70
     0
102
RTVSPropertyOp11
 70
     0
102
RTVSPropertyOp12
 70
     0
102
RTVSPropertyOp13
 70
     0
102
RTVSPropertyOp14
 70
     2
102
RTVSPropertyOp15
 70
     0
102
RTVSPropertyOp16
 70
     0
102
RTVSPropertyOp17
 70
     0
102
RTVSPropertyOp18
 70
     0
102
RTVSPropertyOp19
 70
     0
102
RTVSPropertyOp20
 70
     0
102
RTVSPropertyOp21
 70
     0
102
RTVSPropertyOp22
 70
     0
102
RTVSPropertyOp23
 70
     0
102
RTVSPropertyOp24
 70
     0
102
RTVSPropertyOp25
 70
     0
102
RTVSPropertyOp26
 70
     0
102
RTVSPropertyOp27
 70
     0
  0
XRECORD
  5
106A
102
{ACAD_REACTORS
330
1069
102
}
330
1069
100
AcDbXrecord
280
     1
102
RTVSPropertyOp0
 70
     1
102
RTVSPropertyOp1
 70
     1
102
RTVSPropertyOp2
 70
     1
102
RTVSPropertyOp3
 70
     1
102
RTVSPropertyOp4
 70
     1
102
RTVSPropertyOp5
 70
     1
102
RTVSPropertyOp6
 70
     1
102
RTVSPropertyOp7
 70
     1
102
RTVSPropertyOp8
 70
     1
102
RTVSPropertyOp9
 70
     1
102
RTVSPropertyOp10
 70
     1
102
RTVSPropertyOp11
 70
     1
102
RTVSPropertyOp12
 70
     1
102
RTVSPropertyOp13
 70
     1
102
RTVSPropertyOp14
 70
     1
102
RTVSPropertyOp15
 70
     1
102
RTVSPropertyOp16
 70
     1
102
RTVSPropertyOp17
 70
     1
102
RTVSPropertyOp18
 70
     1
102
RTVSPropertyOp19
 70
     1
102
RTVSPropertyOp20
 70
     1
102
RTVSPropertyOp21
 70
     1
102
RTVSPropertyOp22
 70
     1
102
RTVSPropertyOp23
 70
     1
102
RTVSPropertyOp24
 70
     1
102
RTVSPropertyOp25
 70
     1
102
RTVSPropertyOp26
 70
     1
102
RTVSPropertyOp27
 70
     1
  0
XRECORD
  5
104E
102
{ACAD_REACTORS
330
104D
102
}
330
104D
100
AcDbXrecord
280
     1
102
RTVSPropertyOp0
 70
     1
102
RTVSPropertyOp1
 70
     1
102
RTVSPropertyOp2
 70
     1
102
RTVSPropertyOp3
 70
     1
102
RTVSPropertyOp4
 70
     1
102
RTVSPropertyOp5
 70
     1
102
RTVSPropertyOp6
 70
     1
102
RTVSPropertyOp7
 70
     1
102
RTVSPropertyOp8
 70
     1
102
RTVSPropertyOp9
 70
     1
102
RTVSPropertyOp10
 70
     1
102
RTVSPropertyOp11
 70
     1
102
RTVSPropertyOp12
 70
     1
102
RTVSPropertyOp13
 70
     1
102
RTVSPropertyOp14
 70
     1
102
RTVSPropertyOp15
 70
     1
102
RTVSPropertyOp16
 70
     1
102
RTVSPropertyOp17
 70
     1
102
RTVSPropertyOp18
 70
     1
102
RTVSPropertyOp19
 70
     1
102
RTVSPropertyOp20
 70
     1
102
RTVSPropertyOp21
 70
     1
102
RTVSPropertyOp22
 70
     1
102
RTVSPropertyOp23
 70
     1
102
RTVSPropertyOp24
 70
     1
102
RTVSPropertyOp25
 70
     1
102
RTVSPropertyOp26
 70
     1
102
RTVSPropertyOp27
 70
     1
  0
XRECORD
  5
1050
102
{ACAD_REACTORS
330
104F
102
}
330
104F
100
AcDbXrecord
280
     1
102
RTVSPropertyOp0
 70
     1
102
RTVSPropertyOp1
 70
     1
102
RTVSPropertyOp2
 70
     1
102
RTVSPropertyOp3
 70
     1
102
RTVSPropertyOp4
 70
     1
102
RTVSPropertyOp5
 70
     1
102
RTVSPropertyOp6
 70
     1
102
RTVSPropertyOp7
 70
     1
102
RTVSPropertyOp8
 70
     1
102
RTVSPropertyOp9
 70
     1
102
RTVSPropertyOp10
 70
     1
102
RTVSPropertyOp11
 70
     1
102
RTVSPropertyOp12
 70
     1
102
RTVSPropertyOp13
 70
     1
102
RTVSPropertyOp14
 70
     1
102
RTVSPropertyOp15
 70
     1
102
RTVSPropertyOp16
 70
     1
102
RTVSPropertyOp17
 70
     1
102
RTVSPropertyOp18
 70
     1
102
RTVSPropertyOp19
 70
     1
102
RTVSPropertyOp20
 70
     1
102
RTVSPropertyOp21
 70
     1
102
RTVSPropertyOp22
 70
     1
102
RTVSPropertyOp23
 70
     1
102
RTVSPropertyOp24
 70
     1
102
RTVSPropertyOp25
 70
     1
102
RTVSPropertyOp26
 70
     1
102
RTVSPropertyOp27
 70
     1
  0
XRECORD
  5
1052
102
{ACAD_REACTORS
330
1051
102
}
330
1051
100
AcDbXrecord
280
     1
102
RTVSPropertyOp0
 70
     1
102
RTVSPropertyOp1
 70
     1
102
RTVSPropertyOp2
 70
     1
102
RTVSPropertyOp3
 70
     1
102
RTVSPropertyOp4
 70
     1
102
RTVSPropertyOp5
 70
     1
102
RTVSPropertyOp6
 70
     1
102
RTVSPropertyOp7
 70
     1
102
RTVSPropertyOp8
 70
     1
102
RTVSPropertyOp9
 70
     1
102
RTVSPropertyOp10
 70
     1
102
RTVSPropertyOp11
 70
     1
102
RTVSPropertyOp12
 70
     1
102
RTVSPropertyOp13
 70
     1
102
RTVSPropertyOp14
 70
     1
102
RTVSPropertyOp15
 70
     1
102
RTVSPropertyOp16
 70
     1
102
RTVSPropertyOp17
 70
     1
102
RTVSPropertyOp18
 70
     1
102
RTVSPropertyOp19
 70
     1
102
RTVSPropertyOp20
 70
     1
102
RTVSPropertyOp21
 70
     1
102
RTVSPropertyOp22
 70
     1
102
RTVSPropertyOp23
 70
     1
102
RTVSPropertyOp24
 70
     1
102
RTVSPropertyOp25
 70
     1
102
RTVSPropertyOp26
 70
     1
102
RTVSPropertyOp27
 70
     1
  0
XRECORD
  5
1054
102
{ACAD_REACTORS
330
1053
102
}
330
1053
100
AcDbXrecord
280
     1
102
RTVSPropertyOp0
 70
     1
102
RTVSPropertyOp1
 70
     1
102
RTVSPropertyOp2
 70
     1
102
RTVSPropertyOp3
 70
     1
102
RTVSPropertyOp4
 70
     1
102
RTVSPropertyOp5
 70
     1
102
RTVSPropertyOp6
 70
     1
102
RTVSPropertyOp7
 70
     1
102
RTVSPropertyOp8
 70
     1
102
RTVSPropertyOp9
 70
     1
102
RTVSPropertyOp10
 70
     1
102
RTVSPropertyOp11
 70
     1
102
RTVSPropertyOp12
 70
     1
102
RTVSPropertyOp13
 70
     1
102
RTVSPropertyOp14
 70
     1
102
RTVSPropertyOp15
 70
     1
102
RTVSPropertyOp16
 70
     1
102
RTVSPropertyOp17
 70
     1
102
RTVSPropertyOp18
 70
     1
102
RTVSPropertyOp19
 70
     1
102
RTVSPropertyOp20
 70
     1
102
RTVSPropertyOp21
 70
     1
102
RTVSPropertyOp22
 70
     1
102
RTVSPropertyOp23
 70
     1
102
RTVSPropertyOp24
 70
     1
102
RTVSPropertyOp25
 70
     1
102
RTVSPropertyOp26
 70
     1
102
RTVSPropertyOp27
 70
     1
  0
XRECORD
  5
1072
102
{ACAD_REACTORS
330
1071
102
}
330
1071
100
AcDbXrecord
280
     1
102
RTVSPropertyOp0
 70
     1
102
RTVSPropertyOp1
 70
     1
102
RTVSPropertyOp2
 70
     1
102
RTVSPropertyOp3
 70
     1
102
RTVSPropertyOp4
 70
     1
102
RTVSPropertyOp5
 70
     1
102
RTVSPropertyOp6
 70
     1
102
RTVSPropertyOp7
 70
     1
102
RTVSPropertyOp8
 70
     1
102
RTVSPropertyOp9
 70
     1
102
RTVSPropertyOp10
 70
     1
102
RTVSPropertyOp11
 70
     1
102
RTVSPropertyOp12
 70
     1
102
RTVSPropertyOp13
 70
     1
102
RTVSPropertyOp14
 70
     1
102
RTVSPropertyOp15
 70
     1
102
RTVSPropertyOp16
 70
     1
102
RTVSPropertyOp17
 70
     1
102
RTVSPropertyOp18
 70
     1
102
RTVSPropertyOp19
 70
     1
102
RTVSPropertyOp20
 70
     1
102
RTVSPropertyOp21
 70
     1
102
RTVSPropertyOp22
 70
     1
102
RTVSPropertyOp23
 70
     1
102
RTVSPropertyOp24
 70
     1
102
RTVSPropertyOp25
 70
     1
102
RTVSPropertyOp26
 70
     1
102
RTVSPropertyOp27
 70
     1
  0
XRECORD
  5
1074
102
{ACAD_REACTORS
330
1073
102
}
330
1073
100
AcDbXrecord
280
     1
102
RTVSPropertyOp0
 70
     0
102
RTVSPropertyOp1
 70
     0
102
RTVSPropertyOp2
 70
     0
102
RTVSPropertyOp3
 70
     0
102
RTVSPropertyOp4
 70
     0
102
RTVSPropertyOp5
 70
     0
102
RTVSPropertyOp6
 70
     0
102
RTVSPropertyOp7
 70
     0
102
RTVSPropertyOp8
 70
     0
102
RTVSPropertyOp9
 70
     0
102
RTVSPropertyOp10
 70
     0
102
RTVSPropertyOp11
 70
     0
102
RTVSPropertyOp12
 70
     0
102
RTVSPropertyOp13
 70
     0
102
RTVSPropertyOp14
 70
     2
102
RTVSPropertyOp15
 70
     0
102
RTVSPropertyOp16
 70
     0
102
RTVSPropertyOp17
 70
     0
102
RTVSPropertyOp18
 70
     0
102
RTVSPropertyOp19
 70
     0
102
RTVSPropertyOp20
 70
     0
102
RTVSPropertyOp21
 70
     0
102
RTVSPropertyOp22
 70
     0
102
RTVSPropertyOp23
 70
     0
102
RTVSPropertyOp24
 70
     0
102
RTVSPropertyOp25
 70
     0
102
RTVSPropertyOp26
 70
     0
102
RTVSPropertyOp27
 70
     0
  0
XRECORD
  5
1068
102
{ACAD_REACTORS
330
1067
102
}
330
1067
100
AcDbXrecord
280
     1
102
RTVSPropertyOp0
 70
     1
102
RTVSPropertyOp1
 70
     1
102
RTVSPropertyOp2
 70
     1
102
RTVSPropertyOp3
 70
     1
102
RTVSPropertyOp4
 70
     1
102
RTVSPropertyOp5
 70
     1
102
RTVSPropertyOp6
 70
     1
102
RTVSPropertyOp7
 70
     1
102
RTVSPropertyOp8
 70
     1
102
RTVSPropertyOp9
 70
     1
102
RTVSPropertyOp10
 70
     1
102
RTVSPropertyOp11
 70
     1
102
RTVSPropertyOp12
 70
     1
102
RTVSPropertyOp13
 70
     1
102
RTVSPropertyOp14
 70
     1
102
RTVSPropertyOp15
 70
     1
102
RTVSPropertyOp16
 70
     1
102
RTVSPropertyOp17
 70
     1
102
RTVSPropertyOp18
 70
     1
102
RTVSPropertyOp19
 70
     1
102
RTVSPropertyOp20
 70
     1
102
RTVSPropertyOp21
 70
     1
102
RTVSPropertyOp22
 70
     1
102
RTVSPropertyOp23
 70
     1
102
RTVSPropertyOp24
 70
     1
102
RTVSPropertyOp25
 70
     1
102
RTVSPropertyOp26
 70
     1
102
RTVSPropertyOp27
 70
     1
  0
XRECORD
  5
1076
102
{ACAD_REACTORS
330
1075
102
}
330
1075
100
AcDbXrecord
280
     1
102
RTVSPropertyOp0
 70
     0
102
RTVSPropertyOp1
 70
     0
102
RTVSPropertyOp2
 70
     0
102
RTVSPropertyOp3
 70
     0
102
RTVSPropertyOp4
 70
     0
102
RTVSPropertyOp5
 70
     0
102
RTVSPropertyOp6
 70
     0
102
RTVSPropertyOp7
 70
     0
102
RTVSPropertyOp8
 70
     0
102
RTVSPropertyOp9
 70
     0
102
RTVSPropertyOp10
 70
     0
102
RTVSPropertyOp11
 70
     0
102
RTVSPropertyOp12
 70
     0
102
RTVSPropertyOp13
 70
     0
102
RTVSPropertyOp14
 70
     2
102
RTVSPropertyOp15
 70
     0
102
RTVSPropertyOp16
 70
     0
102
RTVSPropertyOp17
 70
     0
102
RTVSPropertyOp18
 70
     0
102
RTVSPropertyOp19
 70
     0
102
RTVSPropertyOp20
 70
     0
102
RTVSPropertyOp21
 70
     0
102
RTVSPropertyOp22
 70
     0
102
RTVSPropertyOp23
 70
     0
102
RTVSPropertyOp24
 70
     0
102
RTVSPropertyOp25
 70
     0
102
RTVSPropertyOp26
 70
     0
102
RTVSPropertyOp27
 70
     0
  0
XRECORD
  5
1060
102
{ACAD_REACTORS
330
105F
102
}
330
105F
100
AcDbXrecord
280
     1
102
RTVSPropertyOp0
 70
     1
102
RTVSPropertyOp1
 70
     1
102
RTVSPropertyOp2
 70
     1
102
RTVSPropertyOp3
 70
     1
102
RTVSPropertyOp4
 70
     1
102
RTVSPropertyOp5
 70
     1
102
RTVSPropertyOp6
 70
     1
102
RTVSPropertyOp7
 70
     1
102
RTVSPropertyOp8
 70
     1
102
RTVSPropertyOp9
 70
     1
102
RTVSPropertyOp10
 70
     1
102
RTVSPropertyOp11
 70
     1
102
RTVSPropertyOp12
 70
     1
102
RTVSPropertyOp13
 70
     1
102
RTVSPropertyOp14
 70
     1
102
RTVSPropertyOp15
 70
     1
102
RTVSPropertyOp16
 70
     1
102
RTVSPropertyOp17
 70
     1
102
RTVSPropertyOp18
 70
     1
102
RTVSPropertyOp19
 70
     1
102
RTVSPropertyOp20
 70
     1
102
RTVSPropertyOp21
 70
     1
102
RTVSPropertyOp22
 70
     1
102
RTVSPropertyOp23
 70
     1
102
RTVSPropertyOp24
 70
     1
102
RTVSPropertyOp25
 70
     1
102
RTVSPropertyOp26
 70
     1
102
RTVSPropertyOp27
 70
     1
  0
XRECORD
  5
1082
102
{ACAD_REACTORS
330
1081
102
}
330
1081
100
AcDbXrecord
280
     1
102
RTVSPropertyOp0
 70
     1
102
RTVSPropertyOp1
 70
     1
102
RTVSPropertyOp2
 70
     1
102
RTVSPropertyOp3
 70
     1
102
RTVSPropertyOp4
 70
     1
102
RTVSPropertyOp5
 70
     1
102
RTVSPropertyOp6
 70
     1
102
RTVSPropertyOp7
 70
     1
102
RTVSPropertyOp8
 70
     1
102
RTVSPropertyOp9
 70
     1
102
RTVSPropertyOp10
 70
     1
102
RTVSPropertyOp11
 70
     1
102
RTVSPropertyOp12
 70
     1
102
RTVSPropertyOp13
 70
     1
102
RTVSPropertyOp14
 70
     1
102
RTVSPropertyOp15
 70
     1
102
RTVSPropertyOp16
 70
     1
102
RTVSPropertyOp17
 70
     1
102
RTVSPropertyOp18
 70
     1
102
RTVSPropertyOp19
 70
     1
102
RTVSPropertyOp20
 70
     1
102
RTVSPropertyOp21
 70
     1
102
RTVSPropertyOp22
 70
     1
102
RTVSPropertyOp23
 70
     1
102
RTVSPropertyOp24
 70
     1
102
RTVSPropertyOp25
 70
     1
102
RTVSPropertyOp26
 70
     1
102
RTVSPropertyOp27
 70
     1
  0
XRECORD
  5
1080
102
{ACAD_REACTORS
330
107F
102
}
330
107F
100
AcDbXrecord
280
     1
102
RTVSPropertyOp0
 70
     1
102
RTVSPropertyOp1
 70
     1
102
RTVSPropertyOp2
 70
     1
102
RTVSPropertyOp3
 70
     1
102
RTVSPropertyOp4
 70
     1
102
RTVSPropertyOp5
 70
     1
102
RTVSPropertyOp6
 70
     1
102
RTVSPropertyOp7
 70
     1
102
RTVSPropertyOp8
 70
     1
102
RTVSPropertyOp9
 70
     1
102
RTVSPropertyOp10
 70
     1
102
RTVSPropertyOp11
 70
     1
102
RTVSPropertyOp12
 70
     1
102
RTVSPropertyOp13
 70
     1
102
RTVSPropertyOp14
 70
     1
102
RTVSPropertyOp15
 70
     1
102
RTVSPropertyOp16
 70
     1
102
RTVSPropertyOp17
 70
     1
102
RTVSPropertyOp18
 70
     1
102
RTVSPropertyOp19
 70
     1
102
RTVSPropertyOp20
 70
     1
102
RTVSPropertyOp21
 70
     1
102
RTVSPropertyOp22
 70
     1
102
RTVSPropertyOp23
 70
     1
102
RTVSPropertyOp24
 70
     1
102
RTVSPropertyOp25
 70
     1
102
RTVSPropertyOp26
 70
     1
102
RTVSPropertyOp27
 70
     1
  0
XRECORD
  5
107A
102
{ACAD_REACTORS
330
1079
102
}
330
1079
100
AcDbXrecord
280
     1
102
RTVSPropertyOp0
 70
     1
102
RTVSPropertyOp1
 70
     1
102
RTVSPropertyOp2
 70
     1
102
RTVSPropertyOp3
 70
     1
102
RTVSPropertyOp4
 70
     1
102
RTVSPropertyOp5
 70
     1
102
RTVSPropertyOp6
 70
     1
102
RTVSPropertyOp7
 70
     1
102
RTVSPropertyOp8
 70
     1
102
RTVSPropertyOp9
 70
     1
102
RTVSPropertyOp10
 70
     1
102
RTVSPropertyOp11
 70
     1
102
RTVSPropertyOp12
 70
     1
102
RTVSPropertyOp13
 70
     1
102
RTVSPropertyOp14
 70
     1
102
RTVSPropertyOp15
 70
     1
102
RTVSPropertyOp16
 70
     1
102
RTVSPropertyOp17
 70
     1
102
RTVSPropertyOp18
 70
     1
102
RTVSPropertyOp19
 70
     1
102
RTVSPropertyOp20
 70
     1
102
RTVSPropertyOp21
 70
     1
102
RTVSPropertyOp22
 70
     1
102
RTVSPropertyOp23
 70
     1
102
RTVSPropertyOp24
 70
     1
102
RTVSPropertyOp25
 70
     1
102
RTVSPropertyOp26
 70
     1
102
RTVSPropertyOp27
 70
     1
  0
XRECORD
  5
107C
102
{ACAD_REACTORS
330
107B
102
}
330
107B
100
AcDbXrecord
280
     1
102
RTVSPropertyOp0
 70
     1
102
RTVSPropertyOp1
 70
     1
102
RTVSPropertyOp2
 70
     1
102
RTVSPropertyOp3
 70
     1
102
RTVSPropertyOp4
 70
     1
102
RTVSPropertyOp5
 70
     1
102
RTVSPropertyOp6
 70
     1
102
RTVSPropertyOp7
 70
     1
102
RTVSPropertyOp8
 70
     1
102
RTVSPropertyOp9
 70
     1
102
RTVSPropertyOp10
 70
     1
102
RTVSPropertyOp11
 70
     1
102
RTVSPropertyOp12
 70
     1
102
RTVSPropertyOp13
 70
     1
102
RTVSPropertyOp14
 70
     1
102
RTVSPropertyOp15
 70
     1
102
RTVSPropertyOp16
 70
     1
102
RTVSPropertyOp17
 70
     1
102
RTVSPropertyOp18
 70
     1
102
RTVSPropertyOp19
 70
     1
102
RTVSPropertyOp20
 70
     1
102
RTVSPropertyOp21
 70
     1
102
RTVSPropertyOp22
 70
     1
102
RTVSPropertyOp23
 70
     1
102
RTVSPropertyOp24
 70
     1
102
RTVSPropertyOp25
 70
     1
102
RTVSPropertyOp26
 70
     1
102
RTVSPropertyOp27
 70
     1
  0
XRECORD
  5
1066
102
{ACAD_REACTORS
330
1065
102
}
330
1065
100
AcDbXrecord
280
     1
102
RTVSPropertyOp0
 70
     1
102
RTVSPropertyOp1
 70
     1
102
RTVSPropertyOp2
 70
     1
102
RTVSPropertyOp3
 70
     1
102
RTVSPropertyOp4
 70
     1
102
RTVSPropertyOp5
 70
     1
102
RTVSPropertyOp6
 70
     1
102
RTVSPropertyOp7
 70
     1
102
RTVSPropertyOp8
 70
     1
102
RTVSPropertyOp9
 70
     1
102
RTVSPropertyOp10
 70
     1
102
RTVSPropertyOp11
 70
     1
102
RTVSPropertyOp12
 70
     1
102
RTVSPropertyOp13
 70
     1
102
RTVSPropertyOp14
 70
     1
102
RTVSPropertyOp15
 70
     1
102
RTVSPropertyOp16
 70
     1
102
RTVSPropertyOp17
 70
     1
102
RTVSPropertyOp18
 70
     1
102
RTVSPropertyOp19
 70
     1
102
RTVSPropertyOp20
 70
     1
102
RTVSPropertyOp21
 70
     1
102
RTVSPropertyOp22
 70
     1
102
RTVSPropertyOp23
 70
     1
102
RTVSPropertyOp24
 70
     1
102
RTVSPropertyOp25
 70
     1
102
RTVSPropertyOp26
 70
     1
102
RTVSPropertyOp27
 70
     1
  0
XRECORD
  5
1070
102
{ACAD_REACTORS
330
106F
102
}
330
106F
100
AcDbXrecord
280
     1
102
RTVSPropertyOp0
 70
     1
102
RTVSPropertyOp1
 70
     1
102
RTVSPropertyOp2
 70
     1
102
RTVSPropertyOp3
 70
     1
102
RTVSPropertyOp4
 70
     1
102
RTVSPropertyOp5
 70
     1
102
RTVSPropertyOp6
 70
     1
102
RTVSPropertyOp7
 70
     1
102
RTVSPropertyOp8
 70
     1
102
RTVSPropertyOp9
 70
     1
102
RTVSPropertyOp10
 70
     1
102
RTVSPropertyOp11
 70
     1
102
RTVSPropertyOp12
 70
     1
102
RTVSPropertyOp13
 70
     1
102
RTVSPropertyOp14
 70
     1
102
RTVSPropertyOp15
 70
     1
102
RTVSPropertyOp16
 70
     1
102
RTVSPropertyOp17
 70
     1
102
RTVSPropertyOp18
 70
     1
102
RTVSPropertyOp19
 70
     1
102
RTVSPropertyOp20
 70
     1
102
RTVSPropertyOp21
 70
     1
102
RTVSPropertyOp22
 70
     1
102
RTVSPropertyOp23
 70
     1
102
RTVSPropertyOp24
 70
     1
102
RTVSPropertyOp25
 70
     1
102
RTVSPropertyOp26
 70
     1
102
RTVSPropertyOp27
 70
     1
  0
XRECORD
  5
107E
102
{ACAD_REACTORS
330
107D
102
}
330
107D
100
AcDbXrecord
280
     1
102
RTVSPropertyOp0
 70
     1
102
RTVSPropertyOp1
 70
     1
102
RTVSPropertyOp2
 70
     1
102
RTVSPropertyOp3
 70
     1
102
RTVSPropertyOp4
 70
     1
102
RTVSPropertyOp5
 70
     1
102
RTVSPropertyOp6
 70
     1
102
RTVSPropertyOp7
 70
     1
102
RTVSPropertyOp8
 70
     1
102
RTVSPropertyOp9
 70
     1
102
RTVSPropertyOp10
 70
     1
102
RTVSPropertyOp11
 70
     1
102
RTVSPropertyOp12
 70
     1
102
RTVSPropertyOp13
 70
     1
102
RTVSPropertyOp14
 70
     1
102
RTVSPropertyOp15
 70
     1
102
RTVSPropertyOp16
 70
     1
102
RTVSPropertyOp17
 70
     1
102
RTVSPropertyOp18
 70
     1
102
RTVSPropertyOp19
 70
     1
102
RTVSPropertyOp20
 70
     1
102
RTVSPropertyOp21
 70
     1
102
RTVSPropertyOp22
 70
     1
102
RTVSPropertyOp23
 70
     1
102
RTVSPropertyOp24
 70
     1
102
RTVSPropertyOp25
 70
     1
102
RTVSPropertyOp26
 70
     1
102
RTVSPropertyOp27
 70
     1
  0
ENDSEC
  0
EOF
