  0
SECTION
  2
HEADER
  9
$ACADVER
  1
AC1018
  9
$ACADMAINTVER
 70
   104
  9
$DWGCODEPAGE
  3
ANSI_936
  9
$LASTSAVEDBY
  1
yuqin.cai
  9
$INSBASE
 10
0.0
 20
0.0
 30
0.0
  9
$EXTMIN
 10
2658.404905276203
 20
-769.8279482787
 30
-0.00000001
  9
$EXTMAX
 10
3678.0119494237
 20
118.6019600522648
 30
0.00000001
  9
$LIMMIN
 10
0.0
 20
0.0
  9
$LIMMAX
 10
558.8
 20
431.8
  9
$ORTHOMODE
 70
     0
  9
$REGENMODE
 70
     1
  9
$FILLMODE
 70
     1
  9
$QTEXTMODE
 70
     0
  9
$MIRRTEXT
 70
     0
  9
$LTSCALE
 40
30.734
  9
$ATTMODE
 70
     1
  9
$TEXTSIZE
 40
0.2
  9
$TRACEWID
 40
0.05
  9
$TEXTSTYLE
  7
STANDARD
  9
$CLAYER
  8
0
  9
$CELTYPE
  6
BYLAYER
  9
$CECOLOR
 62
   256
  9
$CELTSCALE
 40
1.0
  9
$DISPSILH
 70
     0
  9
$DIMSCALE
 40
1.0
  9
$DIMASZ
 40
3.5
  9
$DIMEXO
 40
3.4925
  9
$DIMDLI
 40
21.2344
  9
$DIMRND
 40
0.0
  9
$DIMDLE
 40
0.0
  9
$DIMEXE
 40
10.0584
  9
$DIMTP
 40
0.01
  9
$DIMTM
 40
0.01
  9
$DIMTXT
 40
3.5
  9
$DIMCEN
 40
5.0292
  9
$DIMTSZ
 40
0.0
  9
$DIMTOL
 70
     1
  9
$DIMLIM
 70
     0
  9
$DIMTIH
 70
     1
  9
$DIMTOH
 70
     1
  9
$DIMSE1
 70
     0
  9
$DIMSE2
 70
     0
  9
$DIMTAD
 70
     0
  9
$DIMZIN
 70
     0
  9
$DIMBLK
  1

  9
$DIMASO
 70
     1
  9
$DIMSHO
 70
     1
  9
$DIMPOST
  1

  9
$DIMAPOST
  1

  9
$DIMALT
 70
     0
  9
$DIMALTD
 70
     2
  9
$DIMALTF
 40
25.4
  9
$DIMLFAC
 40
1.0
  9
$DIMTOFL
 70
     0
  9
$DIMTVP
 40
0.0
  9
$DIMTIX
 70
     0
  9
$DIMSOXD
 70
     0
  9
$DIMSAH
 70
     0
  9
$DIMBLK1
  1

  9
$DIMBLK2
  1

  9
$DIMSTYLE
  2
STANDARD
  9
$DIMCLRD
 70
     0
  9
$DIMCLRE
 70
     0
  9
$DIMCLRT
 70
     0
  9
$DIMTFAC
 40
1.0
  9
$DIMGAP
 40
0.09
  9
$DIMJUST
 70
     0
  9
$DIMSD1
 70
     0
  9
$DIMSD2
 70
     0
  9
$DIMTOLJ
 70
     1
  9
$DIMTZIN
 70
     0
  9
$DIMALTZ
 70
     0
  9
$DIMALTTZ
 70
     0
  9
$DIMUPT
 70
     0
  9
$DIMDEC
 70
     4
  9
$DIMTDEC
 70
     4
  9
$DIMALTU
 70
     2
  9
$DIMALTTD
 70
     2
  9
$DIMTXSTY
  7
STANDARD
  9
$DIMAUNIT
 70
     0
  9
$DIMADEC
 70
     0
  9
$DIMALTRND
 40
0.0
  9
$DIMAZIN
 70
     0
  9
$DIMDSEP
 70
    46
  9
$DIMATFIT
 70
     3
  9
$DIMFRAC
 70
     0
  9
$DIMLDRBLK
  1

  9
$DIMLUNIT
 70
     2
  9
$DIMLWD
 70
    -2
  9
$DIMLWE
 70
    -2
  9
$DIMTMOVE
 70
     0
  9
$LUNITS
 70
     2
  9
$LUPREC
 70
     4
  9
$SKETCHINC
 40
0.1
  9
$FILLETRAD
 40
0.0
  9
$AUNITS
 70
     0
  9
$AUPREC
 70
     0
  9
$MENU
  1
.
  9
$ELEVATION
 40
0.0
  9
$PELEVATION
 40
0.0
  9
$THICKNESS
 40
0.0
  9
$LIMCHECK
 70
     0
  9
$CHAMFERA
 40
0.0
  9
$CHAMFERB
 40
0.0
  9
$CHAMFERC
 40
0.0
  9
$CHAMFERD
 40
0.0
  9
$SKPOLY
 70
     0
  9
$TDCREATE
 40
2458311.583487523
  9
$TDUCREATE
 40
2458311.250154190
  9
$TDUPDATE
 40
2458507.479285428
  9
$TDUUPDATE
 40
2458507.145952095
  9
$TDINDWG
 40
0.0005284838
  9
$TDUSRTIMER
 40
0.0005284838
  9
$USRTIMER
 70
     1
  9
$ANGBASE
 50
0.0
  9
$ANGDIR
 70
     0
  9
$PDMODE
 70
     3
  9
$PDSIZE
 40
8.0
  9
$PLINEWID
 40
0.0
  9
$SPLFRAME
 70
     0
  9
$SPLINETYPE
 70
     6
  9
$SPLINESEGS
 70
     8
  9
$HANDSEED
  5
A21
  9
$SURFTAB1
 70
     6
  9
$SURFTAB2
 70
     6
  9
$SURFTYPE
 70
     6
  9
$SURFU
 70
     6
  9
$SURFV
 70
     6
  9
$UCSBASE
  2

  9
$UCSNAME
  2

  9
$UCSORG
 10
0.0
 20
0.0
 30
0.0
  9
$UCSXDIR
 10
1.0
 20
0.0
 30
0.0
  9
$UCSYDIR
 10
0.0
 20
1.0
 30
0.0
  9
$UCSORTHOREF
  2

  9
$UCSORTHOVIEW
 70
     0
  9
$UCSORGTOP
 10
0.0
 20
0.0
 30
0.0
  9
$UCSORGBOTTOM
 10
0.0
 20
0.0
 30
0.0
  9
$UCSORGLEFT
 10
0.0
 20
0.0
 30
0.0
  9
$UCSORGRIGHT
 10
0.0
 20
0.0
 30
0.0
  9
$UCSORGFRONT
 10
0.0
 20
0.0
 30
0.0
  9
$UCSORGBACK
 10
0.0
 20
0.0
 30
0.0
  9
$PUCSBASE
  2

  9
$PUCSNAME
  2

  9
$PUCSORG
 10
0.0
 20
0.0
 30
0.0
  9
$PUCSXDIR
 10
1.0
 20
0.0
 30
0.0
  9
$PUCSYDIR
 10
0.0
 20
1.0
 30
0.0
  9
$PUCSORTHOREF
  2

  9
$PUCSORTHOVIEW
 70
     0
  9
$PUCSORGTOP
 10
0.0
 20
0.0
 30
0.0
  9
$PUCSORGBOTTOM
 10
0.0
 20
0.0
 30
0.0
  9
$PUCSORGLEFT
 10
0.0
 20
0.0
 30
0.0
  9
$PUCSORGRIGHT
 10
0.0
 20
0.0
 30
0.0
  9
$PUCSORGFRONT
 10
0.0
 20
0.0
 30
0.0
  9
$PUCSORGBACK
 10
0.0
 20
0.0
 30
0.0
  9
$USERI1
 70
     0
  9
$USERI2
 70
     0
  9
$USERI3
 70
     0
  9
$USERI4
 70
     0
  9
$USERI5
 70
     0
  9
$USERR1
 40
0.0
  9
$USERR2
 40
0.0
  9
$USERR3
 40
0.0
  9
$USERR4
 40
0.0
  9
$USERR5
 40
0.0
  9
$WORLDVIEW
 70
     1
  9
$SHADEDGE
 70
     3
  9
$SHADEDIF
 70
    70
  9
$TILEMODE
 70
     1
  9
$MAXACTVP
 70
    64
  9
$PINSBASE
 10
0.0
 20
0.0
 30
0.0
  9
$PLIMCHECK
 70
     0
  9
$PEXTMIN
 10
1.000000000000000E+20
 20
1.000000000000000E+20
 30
1.000000000000000E+20
  9
$PEXTMAX
 10
-1.000000000000000E+20
 20
-1.000000000000000E+20
 30
-1.000000000000000E+20
  9
$PLIMMIN
 10
0.0
 20
0.0
  9
$PLIMMAX
 10
12.0
 20
9.0
  9
$UNITMODE
 70
     0
  9
$VISRETAIN
 70
     1
  9
$PLINEGEN
 70
     0
  9
$PSLTSCALE
 70
     1
  9
$TREEDEPTH
 70
  3020
  9
$CMLSTYLE
  2
Standard
  9
$CMLJUST
 70
     0
  9
$CMLSCALE
 40
1.0
  9
$PROXYGRAPHICS
 70
     1
  9
$MEASUREMENT
 70
     1
  9
$CELWEIGHT
370
    -1
  9
$ENDCAPS
280
     0
  9
$JOINSTYLE
280
     0
  9
$LWDISPLAY
290
     0
  9
$INSUNITS
 70
     4
  9
$HYPERLINKBASE
  1

  9
$STYLESHEET
  1

  9
$XEDIT
290
     1
  9
$CEPSNTYPE
380
     0
  9
$PSTYLEMODE
290
     1
  9
$FINGERPRINTGUID
  2
{633C0AB3-8D0C-4992-84EE-58F307240C15}
  9
$VERSIONGUID
  2
{A1374455-42F1-4EA8-B0AA-740C955B09F3}
  9
$EXTNAMES
290
     1
  9
$PSVPSCALE
 40
0.0
  9
$OLESTARTUP
290
     0
  9
$SORTENTS
280
   127
  9
$INDEXCTL
280
     0
  9
$HIDETEXT
280
     1
  9
$XCLIPFRAME
290
     0
  9
$HALOGAP
280
     0
  9
$OBSCOLOR
 70
   257
  9
$OBSLTYPE
280
     0
  9
$INTERSECTIONDISPLAY
280
     0
  9
$INTERSECTIONCOLOR
 70
   257
  9
$DIMASSOC
280
     2
  9
$PROJECTNAME
  1

  0
ENDSEC
  0
SECTION
  2
CLASSES
  0
CLASS
  1
ACDBDICTIONARYWDFLT
  2
AcDbDictionaryWithDefault
  3
ObjectDBX Classes
 90
        0
 91
        1
280
     0
281
     0
  0
CLASS
  1
MATERIAL
  2
AcDbMaterial
  3
ObjectDBX Classes
 90
        0
 91
        3
280
     0
281
     0
  0
CLASS
  1
VISUALSTYLE
  2
AcDbVisualStyle
  3
ObjectDBX Classes
 90
     4095
 91
       16
280
     0
281
     0
  0
CLASS
  1
TABLESTYLE
  2
AcDbTableStyle
  3
ObjectDBX Classes
 90
     4095
 91
        1
280
     0
281
     0
  0
CLASS
  1
SCALE
  2
AcDbScale
  3
ObjectDBX Classes
 90
     1153
 91
       33
280
     0
281
     0
  0
CLASS
  1
MLEADERSTYLE
  2
AcDbMLeaderStyle
  3
ACDB_MLEADERSTYLE_CLASS
 90
     4095
 91
        1
280
     0
281
     0
  0
CLASS
  1
CELLSTYLEMAP
  2
AcDbCellStyleMap
  3
ObjectDBX Classes
 90
     1152
 91
        2
280
     0
281
     0
  0
CLASS
  1
DICTIONARYVAR
  2
AcDbDictionaryVar
  3
ObjectDBX Classes
 90
        0
 91
        3
280
     0
281
     0
  0
ENDSEC
  0
SECTION
  2
TABLES
  0
TABLE
  2
VPORT
  5
8
330
0
100
AcDbSymbolTable
 70
     3
  0
VPORT
  5
9FD
330
8
100
AcDbSymbolTableRecord
100
AcDbViewportTableRecord
  2
*Active
 70
     0
 10
0.0
 20
0.0
 11
1.0
 21
1.0
 12
3706.601885939621
 22
-325.6002279381511
 13
0.0
 23
0.0
 14
1.0
 24
1.0
 15
0.0
 25
0.0
 16
0.0
 26
0.0
 36
1.0
 17
0.0
 27
0.0
 37
0.0
 40
1272.703389105269
 41
3.584
 42
50.0
 43
0.0
 44
0.0
 50
0.0
 51
0.0
 71
     0
 72
   100
 73
     1
 74
     1
 75
     0
 76
     0
 77
     0
 78
     0
281
     0
 65
     1
110
0.0
120
0.0
130
0.0
111
1.0
121
0.0
131
0.0
112
0.0
122
1.0
132
0.0
 79
     0
146
0.0
  0
ENDTAB
  0
TABLE
  2
LTYPE
  5
5
330
0
100
AcDbSymbolTable
 70
     6
  0
LTYPE
  5
14
330
5
100
AcDbSymbolTableRecord
100
AcDbLinetypeTableRecord
  2
BYBLOCK
 70
     0
  3

 72
    65
 73
     0
 40
0.0
  0
LTYPE
  5
15
330
5
100
AcDbSymbolTableRecord
100
AcDbLinetypeTableRecord
  2
BYLAYER
 70
     0
  3

 72
    65
 73
     0
 40
0.0
  0
LTYPE
  5
16
330
5
100
AcDbSymbolTableRecord
100
AcDbLinetypeTableRecord
  2
CONTINUOUS
 70
     0
  3
Solid line
 72
    65
 73
     0
 40
0.0
  0
LTYPE
  5
1F5
330
5
100
AcDbSymbolTableRecord
100
AcDbLinetypeTableRecord
  2
CENTER
 70
     0
  3
____ _ ____ _ ____ _ ____ _ ____ _ ____ _ ____
 72
    65
 73
     4
 40
0.6
 49
0.375
 74
     0
 49
-0.075
 74
     0
 49
0.075
 74
     0
 49
-0.075
 74
     0
  0
LTYPE
  5
1F6
330
5
100
AcDbSymbolTableRecord
100
AcDbLinetypeTableRecord
  2
HIDDEN
 70
     0
  3
- - - - - - - - - - - - - - - - - - - -
 72
    65
 73
     2
 40
0.2
 49
0.1
 74
     0
 49
-0.1
 74
     0
  0
LTYPE
  5
1F7
330
5
100
AcDbSymbolTableRecord
100
AcDbLinetypeTableRecord
  2
PHANTOM
 70
     0
  3
_____ _ _ _____ _ _ _____ _ _ _____
 72
    65
 73
     6
 40
0.8
 49
0.45
 74
     0
 49
-0.05
 74
     0
 49
0.1
 74
     0
 49
-0.05
 74
     0
 49
0.1
 74
     0
 49
-0.05
 74
     0
  0
LTYPE
  5
1F8
330
5
100
AcDbSymbolTableRecord
100
AcDbLinetypeTableRecord
  2
DOT
 70
     0
  3
. . . . . . . . . . . . . . . . . . . .
 72
    65
 73
     2
 40
0.2
 49
0.1
 74
     0
 49
-0.1
 74
     0
  0
LTYPE
  5
1F9
330
5
100
AcDbSymbolTableRecord
100
AcDbLinetypeTableRecord
  2
DASHED
 70
     0
  3
- - - - - - - - - - - - - - - - - - - -
 72
    65
 73
     2
 40
0.2
 49
0.1
 74
     0
 49
-0.1
 74
     0
  0
ENDTAB
  0
TABLE
  2
LAYER
  5
2
330
0
100
AcDbSymbolTable
 70
    84
  0
LAYER
  5
10
330
2
100
AcDbSymbolTableRecord
100
AcDbLayerTableRecord
  2
0
 70
     0
 62
     7
  6
CONTINUOUS
370
    -3
390
F
  0
LAYER
  5
1FA
330
2
100
AcDbSymbolTableRecord
100
AcDbLayerTableRecord
  2
DEFAULT_1
 70
     0
 62
     7
  6
CENTER
370
    -3
390
F
  0
LAYER
  5
1FB
330
2
100
AcDbSymbolTableRecord
100
AcDbLayerTableRecord
  2
DEFAULT_2
 70
     0
 62
     8
  6
HIDDEN
370
    -3
390
F
  0
LAYER
  5
1FC
330
2
100
AcDbSymbolTableRecord
100
AcDbLayerTableRecord
  2
DEFAULT_3
 70
     0
 62
     7
  6
PHANTOM
370
    -3
390
F
  0
LAYER
  5
1FD
330
2
100
AcDbSymbolTableRecord
100
AcDbLayerTableRecord
  2
01_ALL_DTM_PLN
 70
     0
 62
     7
  6
CONTINUOUS
370
    -3
390
F
  0
LAYER
  5
1FE
330
2
100
AcDbSymbolTableRecord
100
AcDbLayerTableRecord
  2
01__ASM_ALL_DTM_PLN
 70
     0
 62
     7
  6
CONTINUOUS
370
    -3
390
F
  0
LAYER
  5
1FF
330
2
100
AcDbSymbolTableRecord
100
AcDbLayerTableRecord
  2
01__ASM_DEF_DTM_PLN
 70
     0
 62
     7
  6
CONTINUOUS
370
    -3
390
F
  0
LAYER
  5
200
330
2
100
AcDbSymbolTableRecord
100
AcDbLayerTableRecord
  2
01___PRT_ALL_DTM_PLN
 70
     0
 62
     7
  6
CONTINUOUS
370
    -3
390
F
  0
LAYER
  5
201
330
2
100
AcDbSymbolTableRecord
100
AcDbLayerTableRecord
  2
01___PRT_DEF_DTM_PLN
 70
     0
 62
     7
  6
CONTINUOUS
370
    -3
390
F
  0
LAYER
  5
202
330
2
100
AcDbSymbolTableRecord
100
AcDbLayerTableRecord
  2
02_ALL_AXES
 70
     0
 62
     7
  6
CONTINUOUS
370
    -3
390
F
  0
LAYER
  5
203
330
2
100
AcDbSymbolTableRecord
100
AcDbLayerTableRecord
  2
02__ASM_ALL_AXES
 70
     0
 62
     7
  6
CONTINUOUS
370
    -3
390
F
  0
LAYER
  5
204
330
2
100
AcDbSymbolTableRecord
100
AcDbLayerTableRecord
  2
02___PRT_ALL_AXES
 70
     0
 62
     7
  6
CONTINUOUS
370
    -3
390
F
  0
LAYER
  5
205
330
2
100
AcDbSymbolTableRecord
100
AcDbLayerTableRecord
  2
03_ALL_CURVES
 70
     0
 62
     7
  6
CONTINUOUS
370
    -3
390
F
  0
LAYER
  5
206
330
2
100
AcDbSymbolTableRecord
100
AcDbLayerTableRecord
  2
03__ASM_ALL_CURVES
 70
     0
 62
     7
  6
CONTINUOUS
370
    -3
390
F
  0
LAYER
  5
207
330
2
100
AcDbSymbolTableRecord
100
AcDbLayerTableRecord
  2
03___PRT_ALL_CURVES
 70
     0
 62
     7
  6
CONTINUOUS
370
    -3
390
F
  0
LAYER
  5
208
330
2
100
AcDbSymbolTableRecord
100
AcDbLayerTableRecord
  2
04_ALL_DTM_PNT
 70
     0
 62
     7
  6
CONTINUOUS
370
    -3
390
F
  0
LAYER
  5
209
330
2
100
AcDbSymbolTableRecord
100
AcDbLayerTableRecord
  2
04__ASM_ALL_DTM_PNT
 70
     0
 62
     7
  6
CONTINUOUS
370
    -3
390
F
  0
LAYER
  5
20A
330
2
100
AcDbSymbolTableRecord
100
AcDbLayerTableRecord
  2
04___PRT_ALL_DTM_PNT
 70
     0
 62
     7
  6
CONTINUOUS
370
    -3
390
F
  0
LAYER
  5
20B
330
2
100
AcDbSymbolTableRecord
100
AcDbLayerTableRecord
  2
05_ALL_DTM_CSYS
 70
     0
 62
     7
  6
CONTINUOUS
370
    -3
390
F
  0
LAYER
  5
20C
330
2
100
AcDbSymbolTableRecord
100
AcDbLayerTableRecord
  2
05__ASM_ALL_DTM_CSYS
 70
     0
 62
     7
  6
CONTINUOUS
370
    -3
390
F
  0
LAYER
  5
20D
330
2
100
AcDbSymbolTableRecord
100
AcDbLayerTableRecord
  2
05__ASM_DEF_DTM_CSYS
 70
     0
 62
     7
  6
CONTINUOUS
370
    -3
390
F
  0
LAYER
  5
20E
330
2
100
AcDbSymbolTableRecord
100
AcDbLayerTableRecord
  2
05___PRT_ALL_DTM_CSYS
 70
     0
 62
     7
  6
CONTINUOUS
370
    -3
390
F
  0
LAYER
  5
20F
330
2
100
AcDbSymbolTableRecord
100
AcDbLayerTableRecord
  2
05___PRT_DEF_DTM_CSYS
 70
     0
 62
     7
  6
CONTINUOUS
370
    -3
390
F
  0
LAYER
  5
210
330
2
100
AcDbSymbolTableRecord
100
AcDbLayerTableRecord
  2
06_ALL_SURFS
 70
     0
 62
     7
  6
CONTINUOUS
370
    -3
390
F
  0
LAYER
  5
211
330
2
100
AcDbSymbolTableRecord
100
AcDbLayerTableRecord
  2
06__ASM_ALL_SURFS
 70
     0
 62
     7
  6
CONTINUOUS
370
    -3
390
F
  0
LAYER
  5
212
330
2
100
AcDbSymbolTableRecord
100
AcDbLayerTableRecord
  2
06___PRT_ALL_SURFS
 70
     0
 62
     7
  6
CONTINUOUS
370
    -3
390
F
  0
LAYER
  5
213
330
2
100
AcDbSymbolTableRecord
100
AcDbLayerTableRecord
  2
06___PRT_ALL_SURFS_1
 70
     0
 62
     7
  6
CONTINUOUS
370
    -3
390
F
  0
LAYER
  5
214
330
2
100
AcDbSymbolTableRecord
100
AcDbLayerTableRecord
  2
07__ASM_ALL_SKELETONS
 70
     0
 62
     7
  6
CONTINUOUS
370
    -3
390
F
  0
LAYER
  5
215
330
2
100
AcDbSymbolTableRecord
100
AcDbLayerTableRecord
  2
1I1002
 70
     0
 62
     7
  6
CONTINUOUS
370
    -3
390
F
  0
LAYER
  5
216
330
2
100
AcDbSymbolTableRecord
100
AcDbLayerTableRecord
  2
1I1002_1
 70
     0
 62
     7
  6
CONTINUOUS
370
    -3
390
F
  0
LAYER
  5
217
330
2
100
AcDbSymbolTableRecord
100
AcDbLayerTableRecord
  2
1I1004-A0
 70
     0
 62
     7
  6
CONTINUOUS
370
    -3
390
F
  0
LAYER
  5
218
330
2
100
AcDbSymbolTableRecord
100
AcDbLayerTableRecord
  2
1I1004-B0
 70
     0
 62
     7
  6
CONTINUOUS
370
    -3
390
F
  0
LAYER
  5
219
330
2
100
AcDbSymbolTableRecord
100
AcDbLayerTableRecord
  2
1I1005-A0
 70
     0
 62
     7
  6
CONTINUOUS
370
    -3
390
F
  0
LAYER
  5
21A
330
2
100
AcDbSymbolTableRecord
100
AcDbLayerTableRecord
  2
1I1005-B0
 70
     0
 62
     7
  6
CONTINUOUS
370
    -3
390
F
  0
LAYER
  5
21B
330
2
100
AcDbSymbolTableRecord
100
AcDbLayerTableRecord
  2
1I1006
 70
     0
 62
     7
  6
CONTINUOUS
370
    -3
390
F
  0
LAYER
  5
21C
330
2
100
AcDbSymbolTableRecord
100
AcDbLayerTableRecord
  2
1I1007
 70
     0
 62
     7
  6
CONTINUOUS
370
    -3
390
F
  0
LAYER
  5
21D
330
2
100
AcDbSymbolTableRecord
100
AcDbLayerTableRecord
  2
1I1008
 70
     0
 62
     7
  6
CONTINUOUS
370
    -3
390
F
  0
LAYER
  5
21E
330
2
100
AcDbSymbolTableRecord
100
AcDbLayerTableRecord
  2
1I1009
 70
     0
 62
     7
  6
CONTINUOUS
370
    -3
390
F
  0
LAYER
  5
21F
330
2
100
AcDbSymbolTableRecord
100
AcDbLayerTableRecord
  2
1I1010
 70
     0
 62
     7
  6
CONTINUOUS
370
    -3
390
F
  0
LAYER
  5
220
330
2
100
AcDbSymbolTableRecord
100
AcDbLayerTableRecord
  2
1I430
 70
     0
 62
     7
  6
CONTINUOUS
370
    -3
390
F
  0
LAYER
  5
221
330
2
100
AcDbSymbolTableRecord
100
AcDbLayerTableRecord
  2
1I430_1
 70
     0
 62
     7
  6
CONTINUOUS
370
    -3
390
F
  0
LAYER
  5
222
330
2
100
AcDbSymbolTableRecord
100
AcDbLayerTableRecord
  2
1I967
 70
     0
 62
     7
  6
CONTINUOUS
370
    -3
390
F
  0
LAYER
  5
223
330
2
100
AcDbSymbolTableRecord
100
AcDbLayerTableRecord
  2
211159-1
 70
     0
 62
     7
  6
CONTINUOUS
370
    -3
390
F
  0
LAYER
  5
224
330
2
100
AcDbSymbolTableRecord
100
AcDbLayerTableRecord
  2
250108
 70
     0
 62
     7
  6
CONTINUOUS
370
    -3
390
F
  0
LAYER
  5
225
330
2
100
AcDbSymbolTableRecord
100
AcDbLayerTableRecord
  2
270127
 70
     0
 62
     7
  6
CONTINUOUS
370
    -3
390
F
  0
LAYER
  5
226
330
2
100
AcDbSymbolTableRecord
100
AcDbLayerTableRecord
  2
280347
 70
     0
 62
     7
  6
CONTINUOUS
370
    -3
390
F
  0
LAYER
  5
227
330
2
100
AcDbSymbolTableRecord
100
AcDbLayerTableRecord
  2
30416
 70
     0
 62
     7
  6
CONTINUOUS
370
    -3
390
F
  0
LAYER
  5
228
330
2
100
AcDbSymbolTableRecord
100
AcDbLayerTableRecord
  2
30459
 70
     0
 62
     7
  6
CONTINUOUS
370
    -3
390
F
  0
LAYER
  5
229
330
2
100
AcDbSymbolTableRecord
100
AcDbLayerTableRecord
  2
30728
 70
     0
 62
     7
  6
CONTINUOUS
370
    -3
390
F
  0
LAYER
  5
22A
330
2
100
AcDbSymbolTableRecord
100
AcDbLayerTableRecord
  2
BASE
 70
     0
 62
     7
  6
CONTINUOUS
370
    -3
390
F
  0
LAYER
  5
22B
330
2
100
AcDbSymbolTableRecord
100
AcDbLayerTableRecord
  2
C1
 70
     0
 62
     7
  6
CONTINUOUS
370
    -3
390
F
  0
LAYER
  5
22C
330
2
100
AcDbSymbolTableRecord
100
AcDbLayerTableRecord
  2
C10
 70
     0
 62
     7
  6
CONTINUOUS
370
    -3
390
F
  0
LAYER
  5
22D
330
2
100
AcDbSymbolTableRecord
100
AcDbLayerTableRecord
  2
C11
 70
     0
 62
     7
  6
CONTINUOUS
370
    -3
390
F
  0
LAYER
  5
22E
330
2
100
AcDbSymbolTableRecord
100
AcDbLayerTableRecord
  2
COLOR10
 70
     0
 62
     7
  6
CONTINUOUS
370
    -3
390
F
  0
LAYER
  5
22F
330
2
100
AcDbSymbolTableRecord
100
AcDbLayerTableRecord
  2
COLOR11
 70
     0
 62
     7
  6
CONTINUOUS
370
    -3
390
F
  0
LAYER
  5
230
330
2
100
AcDbSymbolTableRecord
100
AcDbLayerTableRecord
  2
COLOR12
 70
     0
 62
     7
  6
CONTINUOUS
370
    -3
390
F
  0
LAYER
  5
231
330
2
100
AcDbSymbolTableRecord
100
AcDbLayerTableRecord
  2
COLOR13
 70
     0
 62
     7
  6
CONTINUOUS
370
    -3
390
F
  0
LAYER
  5
232
330
2
100
AcDbSymbolTableRecord
100
AcDbLayerTableRecord
  2
COLOR14
 70
     0
 62
     7
  6
CONTINUOUS
370
    -3
390
F
  0
LAYER
  5
233
330
2
100
AcDbSymbolTableRecord
100
AcDbLayerTableRecord
  2
COLOR15
 70
     0
 62
     7
  6
CONTINUOUS
370
    -3
390
F
  0
LAYER
  5
234
330
2
100
AcDbSymbolTableRecord
100
AcDbLayerTableRecord
  2
COLOR2
 70
     0
 62
     7
  6
CONTINUOUS
370
    -3
390
F
  0
LAYER
  5
235
330
2
100
AcDbSymbolTableRecord
100
AcDbLayerTableRecord
  2
COLOR3
 70
     0
 62
     7
  6
CONTINUOUS
370
    -3
390
F
  0
LAYER
  5
236
330
2
100
AcDbSymbolTableRecord
100
AcDbLayerTableRecord
  2
COLOR4
 70
     0
 62
     7
  6
CONTINUOUS
370
    -3
390
F
  0
LAYER
  5
237
330
2
100
AcDbSymbolTableRecord
100
AcDbLayerTableRecord
  2
COLOR5
 70
     0
 62
     7
  6
CONTINUOUS
370
    -3
390
F
  0
LAYER
  5
238
330
2
100
AcDbSymbolTableRecord
100
AcDbLayerTableRecord
  2
COLOR6
 70
     0
 62
     7
  6
CONTINUOUS
370
    -3
390
F
  0
LAYER
  5
239
330
2
100
AcDbSymbolTableRecord
100
AcDbLayerTableRecord
  2
COLOR7
 70
     0
 62
     7
  6
CONTINUOUS
370
    -3
390
F
  0
LAYER
  5
23A
330
2
100
AcDbSymbolTableRecord
100
AcDbLayerTableRecord
  2
COLOR8
 70
     0
 62
     7
  6
CONTINUOUS
370
    -3
390
F
  0
LAYER
  5
23B
330
2
100
AcDbSymbolTableRecord
100
AcDbLayerTableRecord
  2
COLOR9
 70
     0
 62
     7
  6
CONTINUOUS
370
    -3
390
F
  0
LAYER
  5
23C
330
2
100
AcDbSymbolTableRecord
100
AcDbLayerTableRecord
  2
DTM-H
 70
     0
 62
     7
  6
CONTINUOUS
370
    -3
390
F
  0
LAYER
  5
23D
330
2
100
AcDbSymbolTableRecord
100
AcDbLayerTableRecord
  2
INTF_1
 70
     0
 62
     7
  6
CONTINUOUS
370
    -3
390
F
  0
LAYER
  5
23E
330
2
100
AcDbSymbolTableRecord
100
AcDbLayerTableRecord
  2
INTF_250108
 70
     0
 62
     7
  6
CONTINUOUS
370
    -3
390
F
  0
LAYER
  5
23F
330
2
100
AcDbSymbolTableRecord
100
AcDbLayerTableRecord
  2
INTF_270127
 70
     0
 62
     7
  6
CONTINUOUS
370
    -3
390
F
  0
LAYER
  5
240
330
2
100
AcDbSymbolTableRecord
100
AcDbLayerTableRecord
  2
INTF_280347
 70
     0
 62
     7
  6
CONTINUOUS
370
    -3
390
F
  0
LAYER
  5
241
330
2
100
AcDbSymbolTableRecord
100
AcDbLayerTableRecord
  2
INTF_30416
 70
     0
 62
     7
  6
CONTINUOUS
370
    -3
390
F
  0
LAYER
  5
242
330
2
100
AcDbSymbolTableRecord
100
AcDbLayerTableRecord
  2
INTF_30459
 70
     0
 62
     7
  6
CONTINUOUS
370
    -3
390
F
  0
LAYER
  5
243
330
2
100
AcDbSymbolTableRecord
100
AcDbLayerTableRecord
  2
INTF_30728
 70
     0
 62
     7
  6
CONTINUOUS
370
    -3
390
F
  0
LAYER
  5
244
330
2
100
AcDbSymbolTableRecord
100
AcDbLayerTableRecord
  2
INTF_BLANK
 70
     0
 62
     7
  6
CONTINUOUS
370
    -3
390
F
  0
LAYER
  5
245
330
2
100
AcDbSymbolTableRecord
100
AcDbLayerTableRecord
  2
INTF_MAGENTA
 70
     0
 62
     7
  6
CONTINUOUS
370
    -3
390
F
  0
LAYER
  5
246
330
2
100
AcDbSymbolTableRecord
100
AcDbLayerTableRecord
  2
P1-H
 70
     0
 62
     7
  6
CONTINUOUS
370
    -3
390
F
  0
LAYER
  5
247
330
2
100
AcDbSymbolTableRecord
100
AcDbLayerTableRecord
  2
QUILT
 70
     0
 62
     7
  6
CONTINUOUS
370
    -3
390
F
  0
LAYER
  5
248
330
2
100
AcDbSymbolTableRecord
100
AcDbLayerTableRecord
  2
QUILT_1
 70
     0
 62
     7
  6
CONTINUOUS
370
    -3
390
F
  0
LAYER
  5
249
330
2
100
AcDbSymbolTableRecord
100
AcDbLayerTableRecord
  2
QUILT_2
 70
     0
 62
     7
  6
CONTINUOUS
370
    -3
390
F
  0
LAYER
  5
24A
330
2
100
AcDbSymbolTableRecord
100
AcDbLayerTableRecord
  2
SF1-H
 70
     0
 62
     7
  6
CONTINUOUS
370
    -3
390
F
  0
LAYER
  5
24B
330
2
100
AcDbSymbolTableRecord
100
AcDbLayerTableRecord
  2
XSEC_DATUMS
 70
     0
 62
     7
  6
CONTINUOUS
370
    -3
390
F
  0
LAYER
  5
24C
330
2
100
AcDbSymbolTableRecord
100
AcDbLayerTableRecord
  2
___SHELL
 70
     0
 62
     7
  6
CONTINUOUS
370
    -3
390
F
  0
ENDTAB
  0
TABLE
  2
STYLE
  5
3
330
0
100
AcDbSymbolTable
 70
     2
  0
STYLE
  5
11
330
3
100
AcDbSymbolTableRecord
100
AcDbTextStyleTableRecord
  2
STANDARD
 70
     0
 40
0.0
 41
0.85
 50
0.0
 71
     0
 42
0.2
  3
txt
  4

  0
STYLE
  5
24D
330
3
100
AcDbSymbolTableRecord
100
AcDbTextStyleTableRecord
  2
TEXTSTYLE_1
 70
     0
 40
0.0
 41
0.8
 50
0.0
 71
     0
 42
0.2
  3
gdt
  4

  0
ENDTAB
  0
TABLE
  2
VIEW
  5
6
330
0
100
AcDbSymbolTable
 70
     0
  0
ENDTAB
  0
TABLE
  2
UCS
  5
7
330
0
100
AcDbSymbolTable
 70
     0
  0
ENDTAB
  0
TABLE
  2
APPID
  5
9
330
0
100
AcDbSymbolTable
 70
     2
  0
APPID
  5
24E
330
9
100
AcDbSymbolTableRecord
100
AcDbRegAppTableRecord
  2
ACAD
 70
     0
  0
APPID
  5
90E
330
9
100
AcDbSymbolTableRecord
100
AcDbRegAppTableRecord
  2
ACAD_MLEADERVER
 70
     0
  0
ENDTAB
  0
TABLE
  2
DIMSTYLE
  5
A
330
0
100
AcDbSymbolTable
 70
     1
100
AcDbDimStyleTable
 71
     0
  0
DIMSTYLE
105
251
330
A
100
AcDbSymbolTableRecord
100
AcDbDimStyleTableRecord
  2
STANDARD
 70
     0
 41
3.5
 47
0.01
 48
0.01
 71
     1
 73
     0
 74
     0
 77
     1
 78
     8
140
3.5
271
     2
272
     2
284
     8
340
11
  0
ENDTAB
  0
TABLE
  2
BLOCK_RECORD
  5
1
330
0
100
AcDbSymbolTable
 70
     0
  0
BLOCK_RECORD
  5
24F
330
1
100
AcDbSymbolTableRecord
100
AcDbBlockTableRecord
  2
*Model_Space
340
8B9
  0
BLOCK_RECORD
  5
250
330
1
100
AcDbSymbolTableRecord
100
AcDbBlockTableRecord
  2
*Paper_Space
340
8BA
  0
ENDTAB
  0
ENDSEC
  0
SECTION
  2
BLOCKS
  0
BLOCK
  5
20
330
24F
100
AcDbEntity
  8
0
100
AcDbBlockBegin
  2
*Model_Space
 70
     0
 10
0.0
 20
0.0
 30
0.0
  3
*Model_Space
  1

  0
ENDBLK
  5
21
330
24F
100
AcDbEntity
  8
0
100
AcDbBlockEnd
  0
BLOCK
  5
1C
330
250
100
AcDbEntity
 67
     1
  8
0
100
AcDbBlockBegin
  2
*Paper_Space
 70
     0
 10
0.0
 20
0.0
 30
0.0
  3
*Paper_Space
  1

  0
ENDBLK
  5
1D
330
250
100
AcDbEntity
 67
     1
  8
0
100
AcDbBlockEnd
  0
ENDSEC
  0
SECTION
  2
ENTITIES
  0
LINE
  5
356
330
24F
100
AcDbEntity
  8
06___PRT_ALL_SURFS
  6
Continuous
 62
     7
100
AcDbLine
 10
2658.4053534075
 20
-105.3441297078
 30
0.0
 11
2659.6473594806
 21
-75.2462969766
 31
0.0
  0
LINE
  5
357
330
24F
100
AcDbEntity
  8
06___PRT_ALL_SURFS
  6
Continuous
 62
     7
100
AcDbLine
 10
2665.9506251372
 20
-105.3441297078
 30
0.0
 11
2665.9099401177
 21
-105.6441297078
 31
0.0
  0
LWPOLYLINE
  5
358
330
24F
100
AcDbEntity
  8
06___PRT_ALL_SURFS
  6
Continuous
 62
     7
100
AcDbPolyline
 90
        8
 70
     0
 43
0.0
 10
2677.7902435644
 20
-105.6441297078
 10
2678.5384802781
 20
-106.6436307316
 10
2679.708033804101
 20
-107.8819695257
 10
2680.9667304698
 20
-108.9030610122
 10
2682.3024338416
 20
-109.6908663821
 10
2683.7015981031
 20
-110.2399075117
 10
2685.1409721579
 20
-110.5525624252
 10
2686.5084428509
 20
-110.6441297076
  0
LWPOLYLINE
  5
359
330
24F
100
AcDbEntity
  8
0
  6
Continuous
 62
     7
100
AcDbPolyline
 90
        9
 70
     0
 43
0.0
 10
2682.140900675201
 20
-105.6441297078
 10
2682.2261182126
 20
-105.7875573055
 10
2683.346067505401
 20
-107.2783777442
 10
2684.5463466676
 20
-108.5163874365
 10
2685.7973811582
 20
-109.4929434258
 10
2687.0848836113
 20
-110.2245869255
 10
2688.4217315473
 20
-110.7379704157
 10
2689.832921056
 20
-111.0462266637
 10
2691.2497670541
 20
-111.1441297028
  0
LWPOLYLINE
  5
35A
330
24F
100
AcDbEntity
  8
0
  6
Continuous
 62
     7
100
AcDbPolyline
 90
        5
 70
     0
 43
0.0
 10
2725.1643183496
 20
-113.5646496564
 10
2725.6827371617
 20
-115.04505562
 10
2727.2628065116
 20
-116.9135062096
 10
2728.9023358278
 20
-117.8236628437
 10
2730.2813480553
 20
-118.2661588144
  0
LINE
  5
35B
330
24F
100
AcDbEntity
  8
0
  6
Continuous
 62
     7
100
AcDbLine
 10
2725.1710361649
 20
-113.608424789
 30
0.0
 11
2725.1679673881
 21
-113.5868232386
 31
0.0
  0
LINE
  5
35C
330
24F
100
AcDbEntity
  8
0
  6
Continuous
 62
     7
100
AcDbLine
 10
2742.6342530993
 20
-120.0416685159
 30
0.0
 11
2742.6342530993
 21
-124.5441297078
 31
0.0
  0
LINE
  5
35D
330
24F
100
AcDbEntity
  8
0
  6
Continuous
 62
     7
100
AcDbLine
 10
2743.2116061225
 20
-120.096734065
 30
0.0
 11
2743.2116061225
 21
-124.0441297078
 31
0.0
  0
LINE
  5
35E
330
24F
100
AcDbEntity
  8
02___PRT_ALL_AXES
  6
Continuous
 62
     7
100
AcDbLine
 10
2743.4053534075
 20
-136.1441297078
 30
0.0
 11
2743.4053534075
 21
-153.1441297078
 31
0.0
  0
LINE
  5
35F
330
24F
100
AcDbEntity
  8
0
  6
Continuous
 62
     7
100
AcDbLine
 10
2743.4771501772
 20
-138.1441297078
 30
0.0
 11
2743.4771501772
 21
-148.6441297078
 31
0.0
  0
LINE
  5
360
330
24F
100
AcDbEntity
  8
0
  6
Continuous
 62
     7
100
AcDbLine
 10
2744.978337653
 20
-137.1441297078
 30
0.0
 11
2744.978337653
 21
-136.9441297078
 31
0.0
  0
LINE
  5
361
330
24F
100
AcDbEntity
  8
0
  6
Continuous
 62
     7
100
AcDbLine
 10
2744.978337653
 20
-126.1642075443
 30
0.0
 11
2744.978337653
 21
-127.2441297078
 31
0.0
  0
LINE
  5
362
330
24F
100
AcDbEntity
  8
0
  6
Continuous
 62
     7
100
AcDbLine
 10
2745.5063739219
 20
-148.6441297078
 30
0.0
 11
2745.5063739219
 21
-153.1441297078
 31
0.0
  0
LINE
  5
363
330
24F
100
AcDbEntity
  8
0
  6
Continuous
 62
     7
100
AcDbLine
 10
2746.274675497
 20
-120.363413919
 30
0.0
 11
2746.274675497
 21
-127.0441297078
 31
0.0
  0
LINE
  5
364
330
24F
100
AcDbEntity
  8
0
  6
Continuous
 62
     7
100
AcDbLine
 10
2747.471073257301
 20
-138.1441297078
 30
0.0
 11
2747.471073257301
 21
-142.1441297078
 31
0.0
  0
LWPOLYLINE
  5
365
330
24F
100
AcDbEntity
  8
06___PRT_ALL_SURFS
  6
Continuous
 62
     7
100
AcDbPolyline
 90
        5
 70
     0
 43
0.0
 10
2723.4280636929
 20
-109.1691980878
 10
2723.9226979912
 20
-110.023271144
 10
2724.4829073549
 20
-111.2561500141
 10
2724.9433260698
 20
-112.642486052
 10
2725.1706818031
 20
-113.606646241
  0
LINE
  5
366
330
24F
100
AcDbEntity
  8
0
  6
Continuous
 62
     7
100
AcDbLine
 10
2749.155353407501
 20
-136.8262097969
 30
0.0
 11
2749.155353407501
 21
-153.6441297078
 31
0.0
  0
LINE
  5
367
330
24F
100
AcDbEntity
  8
0
  6
Continuous
 62
     7
100
AcDbLine
 10
2750.1553534075
 20
-120.6430688977
 30
0.0
 11
2750.1553534075
 21
-127.0441297078
 31
0.0
  0
LINE
  5
368
330
24F
100
AcDbEntity
  8
0
  6
Continuous
 62
     7
100
AcDbLine
 10
2750.655353407501
 20
-120.6820370859
 30
0.0
 11
2750.655353407501
 21
-127.0441297078
 31
0.0
  0
LINE
  5
369
330
24F
100
AcDbEntity
  8
0
  6
Continuous
 62
     7
100
AcDbLine
 10
2751.6553534075
 20
-136.8262097969
 30
0.0
 11
2751.6553534075
 21
-153.6441297078
 31
0.0
  0
LINE
  5
36A
330
24F
100
AcDbEntity
  8
0
  6
Continuous
 62
     7
100
AcDbLine
 10
2753.2448075804
 20
-120.8838497615
 30
0.0
 11
2753.2448075804
 21
-127.0441297078
 31
0.0
  0
LINE
  5
36B
330
24F
100
AcDbEntity
  8
0
  6
Continuous
 62
     7
100
AcDbLine
 10
2753.339633557701
 20
-138.1441297078
 30
0.0
 11
2753.339633557701
 21
-142.1441297078
 31
0.0
  0
LINE
  5
36C
330
24F
100
AcDbEntity
  8
0
  6
Continuous
 62
     7
100
AcDbLine
 10
2755.3043328931
 20
-148.6441297078
 30
0.0
 11
2755.3043328931
 21
-153.1441297078
 31
0.0
  0
LINE
  5
36D
330
24F
100
AcDbEntity
  8
0
  6
Continuous
 62
     7
100
AcDbLine
 10
2755.6305328302
 20
-125.4884061667
 30
0.0
 11
2755.6305328302
 21
-127.0441297078
 31
0.0
  0
LINE
  5
36E
330
24F
100
AcDbEntity
  8
0
  6
Continuous
 62
     7
100
AcDbLine
 10
2755.832369162
 20
-137.1441297078
 30
0.0
 11
2755.832369162
 21
-136.9441297078
 31
0.0
  0
LINE
  5
36F
330
24F
100
AcDbEntity
  8
0
  6
Continuous
 62
     7
100
AcDbLine
 10
2755.832369162
 20
-127.0441297078
 30
0.0
 11
2755.832369162
 21
-127.2441297078
 31
0.0
  0
LINE
  5
370
330
24F
100
AcDbEntity
  8
0
  6
Continuous
 62
     7
100
AcDbLine
 10
2756.6503514059
 20
-121.1285787016
 30
0.0
 11
2756.6503514059
 21
-124.5441297078
 31
0.0
  0
LINE
  5
371
330
24F
100
AcDbEntity
  8
0
  6
Continuous
 62
     7
100
AcDbLine
 10
2757.333556637801
 20
-138.1441297078
 30
0.0
 11
2757.333556637801
 21
-148.6441297078
 31
0.0
  0
LINE
  5
372
330
24F
100
AcDbEntity
  8
02___PRT_ALL_AXES
  6
Continuous
 62
     7
100
AcDbLine
 10
2757.4053534075
 20
-136.1441297078
 30
0.0
 11
2757.4053534075
 21
-153.1441297078
 31
0.0
  0
LINE
  5
373
330
24F
100
AcDbEntity
  8
0
  6
Continuous
 62
     7
100
AcDbLine
 10
2758.1764537157
 20
-121.2338367362
 30
0.0
 11
2758.1764537157
 21
-124.5441297078
 31
0.0
  0
LINE
  5
374
330
24F
100
AcDbEntity
  8
0
  6
Continuous
 62
     7
100
AcDbLine
 10
2744.7342530993
 20
-127.0441297078
 30
0.0
 11
2742.6342530993
 21
-124.5441297078
 31
0.0
  0
LINE
  5
375
330
24F
100
AcDbEntity
  8
0
  6
Continuous
 62
     7
100
AcDbLine
 10
2745.7116061225
 20
-127.0441297078
 30
0.0
 11
2743.2116061225
 21
-124.0441297078
 31
0.0
  0
LINE
  5
376
330
24F
100
AcDbEntity
  8
0
  6
Continuous
 62
     7
100
AcDbLine
 10
2756.0764537157
 20
-127.0441297078
 30
0.0
 11
2758.1764537157
 21
-124.5441297078
 31
0.0
  0
LINE
  5
377
330
24F
100
AcDbEntity
  8
0
  6
Continuous
 62
     7
100
AcDbLine
 10
2743.9053534075
 20
-153.6441297078
 30
0.0
 11
2756.9053534075
 21
-153.6441297078
 31
0.0
  0
LINE
  5
378
330
24F
100
AcDbEntity
  8
0
  6
Continuous
 62
     7
100
AcDbLine
 10
2919.9053534075
 20
-153.6441297078
 30
0.0
 11
2932.9053534075
 21
-153.6441297078
 31
0.0
  0
LINE
  5
379
330
24F
100
AcDbEntity
  8
0
  6
Continuous
 62
     7
100
AcDbLine
 10
2743.4053534075
 20
-153.1441297078
 30
0.0
 11
2749.155353407501
 21
-153.1441297078
 31
0.0
  0
LINE
  5
37A
330
24F
100
AcDbEntity
  8
0
  6
Continuous
 62
     7
100
AcDbLine
 10
2751.6553534075
 20
-153.1441297078
 30
0.0
 11
2757.4053534075
 21
-153.1441297078
 31
0.0
  0
LINE
  5
37B
330
24F
100
AcDbEntity
  8
0
  6
Continuous
 62
     7
100
AcDbLine
 10
2919.4053534075
 20
-153.1441297078
 30
0.0
 11
2925.1553534075
 21
-153.1441297078
 31
0.0
  0
LINE
  5
37C
330
24F
100
AcDbEntity
  8
0
  6
Continuous
 62
     7
100
AcDbLine
 10
2927.6553534075
 20
-153.1441297078
 30
0.0
 11
2933.4053534075
 21
-153.1441297078
 31
0.0
  0
LINE
  5
37D
330
24F
100
AcDbEntity
  8
0
  6
Continuous
 62
     7
100
AcDbLine
 10
2749.155353407501
 20
-151.8738625966
 30
0.0
 11
2751.6553534075
 21
-151.8738625966
 31
0.0
  0
LINE
  5
37E
330
24F
100
AcDbEntity
  8
0
  6
Continuous
 62
     7
100
AcDbLine
 10
2925.1553534075
 20
-151.8738625966
 30
0.0
 11
2927.6553534075
 21
-151.8738625966
 31
0.0
  0
LINE
  5
37F
330
24F
100
AcDbEntity
  8
0
  6
Continuous
 62
     7
100
AcDbLine
 10
2753.9503514059
 20
-127.0441297078
 30
0.0
 11
2756.6503514059
 21
-124.5441297078
 31
0.0
  0
LINE
  5
380
330
24F
100
AcDbEntity
  8
0
  6
Continuous
 62
     7
100
AcDbLine
 10
2944.8578091397
 20
-118.6426043957
 30
0.0
 11
2946.3495084167
 21
-118.3126656732
 31
0.0
  0
LINE
  5
381
330
24F
100
AcDbEntity
  8
0
  6
Continuous
 62
     7
100
AcDbLine
 10
2933.3335566378
 20
-148.6441297078
 30
0.0
 11
2931.3043328931
 21
-148.6441297078
 31
0.0
  0
LINE
  5
382
330
24F
100
AcDbEntity
  8
0
  6
Continuous
 62
     7
100
AcDbLine
 10
2757.333556637801
 20
-148.6441297078
 30
0.0
 11
2755.3043328931
 21
-148.6441297078
 31
0.0
  0
LINE
  5
383
330
24F
100
AcDbEntity
  8
0
  6
Continuous
 62
     7
100
AcDbLine
 10
2743.4771501772
 20
-148.6441297078
 30
0.0
 11
2745.5063739219
 21
-148.6441297078
 31
0.0
  0
LINE
  5
384
330
24F
100
AcDbEntity
  8
0
  6
Continuous
 62
     7
100
AcDbLine
 10
2919.4771501772
 20
-148.6441297078
 30
0.0
 11
2921.5063739219
 21
-148.6441297078
 31
0.0
  0
LINE
  5
385
330
24F
100
AcDbEntity
  8
0
  6
Continuous
 62
     7
100
AcDbLine
 10
2749.155353407501
 20
-145.7927941522
 30
0.0
 11
2751.6553534075
 21
-145.7927941522
 31
0.0
  0
LINE
  5
386
330
24F
100
AcDbEntity
  8
0
  6
Continuous
 62
     7
100
AcDbLine
 10
2925.1553534075
 20
-145.7927941522
 30
0.0
 11
2927.6553534075
 21
-145.7927941522
 31
0.0
  0
LINE
  5
387
330
24F
100
AcDbEntity
  8
0
  6
Continuous
 62
     7
100
AcDbLine
 10
2747.471073257301
 20
-142.1441297078
 30
0.0
 11
2749.155353407501
 21
-142.1441297078
 31
0.0
  0
LINE
  5
388
330
24F
100
AcDbEntity
  8
0
  6
Continuous
 62
     7
100
AcDbLine
 10
2751.6553534075
 20
-142.1441297078
 30
0.0
 11
2753.339633557701
 21
-142.1441297078
 31
0.0
  0
LINE
  5
389
330
24F
100
AcDbEntity
  8
0
  6
Continuous
 62
     7
100
AcDbLine
 10
2923.4710732573
 20
-142.1441297078
 30
0.0
 11
2925.1553534075
 21
-142.1441297078
 31
0.0
  0
LINE
  5
38A
330
24F
100
AcDbEntity
  8
0
  6
Continuous
 62
     7
100
AcDbLine
 10
2927.6553534075
 20
-142.1441297078
 30
0.0
 11
2929.339633557701
 21
-142.1441297078
 31
0.0
  0
LINE
  5
38B
330
24F
100
AcDbEntity
  8
0
  6
Continuous
 62
     7
100
AcDbLine
 10
2749.155353407501
 20
-141.4869639603
 30
0.0
 11
2751.6553534075
 21
-141.4869639603
 31
0.0
  0
LINE
  5
38C
330
24F
100
AcDbEntity
  8
0
  6
Continuous
 62
     7
100
AcDbLine
 10
2925.1553534075
 20
-141.4869639603
 30
0.0
 11
2927.6553534075
 21
-141.4869639603
 31
0.0
  0
LINE
  5
38D
330
24F
100
AcDbEntity
  8
0
  6
Continuous
 62
     7
100
AcDbLine
 10
2933.3335566378
 20
-138.1441297078
 30
0.0
 11
2929.339633557701
 21
-138.1441297078
 31
0.0
  0
LINE
  5
38E
330
24F
100
AcDbEntity
  8
0
  6
Continuous
 62
     7
100
AcDbLine
 10
2923.4710732573
 20
-138.1441297078
 30
0.0
 11
2919.4771501772
 21
-138.1441297078
 31
0.0
  0
LINE
  5
38F
330
24F
100
AcDbEntity
  8
0
  6
Continuous
 62
     7
100
AcDbLine
 10
2757.333556637801
 20
-138.1441297078
 30
0.0
 11
2753.339633557701
 21
-138.1441297078
 31
0.0
  0
LINE
  5
390
330
24F
100
AcDbEntity
  8
0
  6
Continuous
 62
     7
100
AcDbLine
 10
2747.471073257301
 20
-138.1441297078
 30
0.0
 11
2743.4771501772
 21
-138.1441297078
 31
0.0
  0
LINE
  5
391
330
24F
100
AcDbEntity
  8
0
  6
Continuous
 62
     7
100
AcDbLine
 10
2931.832369162
 20
-137.1441297078
 30
0.0
 11
2927.6553534075
 21
-137.1441297078
 31
0.0
  0
LINE
  5
392
330
24F
100
AcDbEntity
  8
0
  6
Continuous
 62
     7
100
AcDbLine
 10
2925.1553534075
 20
-137.1441297078
 30
0.0
 11
2920.978337653
 21
-137.1441297078
 31
0.0
  0
LINE
  5
393
330
24F
100
AcDbEntity
  8
0
  6
Continuous
 62
     7
100
AcDbLine
 10
2755.832369162
 20
-137.1441297078
 30
0.0
 11
2751.6553534075
 21
-137.1441297078
 31
0.0
  0
LINE
  5
394
330
24F
100
AcDbEntity
  8
0
  6
Continuous
 62
     7
100
AcDbLine
 10
2749.155353407501
 20
-137.1441297078
 30
0.0
 11
2744.978337653
 21
-137.1441297078
 31
0.0
  0
LINE
  5
395
330
24F
100
AcDbEntity
  8
0
  6
Continuous
 62
     7
100
AcDbLine
 10
2931.832369162
 20
-136.9441297078
 30
0.0
 11
2927.6553534075
 21
-136.9441297078
 31
0.0
  0
LINE
  5
396
330
24F
100
AcDbEntity
  8
0
  6
Continuous
 62
     7
100
AcDbLine
 10
2926.8459600296
 20
-136.9441297078
 30
0.0
 11
2925.9647467853
 21
-136.9441297078
 31
0.0
  0
LINE
  5
397
330
24F
100
AcDbEntity
  8
0
  6
Continuous
 62
     7
100
AcDbLine
 10
2925.1553534075
 20
-136.9441297078
 30
0.0
 11
2920.978337653
 21
-136.9441297078
 31
0.0
  0
LINE
  5
398
330
24F
100
AcDbEntity
  8
0
  6
Continuous
 62
     7
100
AcDbLine
 10
2755.832369162
 20
-136.9441297078
 30
0.0
 11
2751.6553534075
 21
-136.9441297078
 31
0.0
  0
LINE
  5
399
330
24F
100
AcDbEntity
  8
0
  6
Continuous
 62
     7
100
AcDbLine
 10
2750.8459600296
 20
-136.9441297078
 30
0.0
 11
2749.964746785301
 21
-136.9441297078
 31
0.0
  0
LINE
  5
39A
330
24F
100
AcDbEntity
  8
0
  6
Continuous
 62
     7
100
AcDbLine
 10
2749.155353407501
 20
-136.9441297078
 30
0.0
 11
2744.978337653
 21
-136.9441297078
 31
0.0
  0
LINE
  5
39B
330
24F
100
AcDbEntity
  8
0
  6
Continuous
 62
     7
100
AcDbLine
 10
2933.4053507997
 20
-136.1441297078
 30
0.0
 11
2932.4004007456
 21
-136.1441297078
 31
0.0
  0
LINE
  5
39C
330
24F
100
AcDbEntity
  8
0
  6
Continuous
 62
     7
100
AcDbLine
 10
2920.410306161599
 20
-136.1441297078
 30
0.0
 11
2919.4053560153
 21
-136.1441297078
 31
0.0
  0
LINE
  5
39D
330
24F
100
AcDbEntity
  8
0
  6
Continuous
 62
     7
100
AcDbLine
 10
2757.4053507997
 20
-136.1441297078
 30
0.0
 11
2756.4004007456
 21
-136.1441297078
 31
0.0
  0
LINE
  5
39E
330
24F
100
AcDbEntity
  8
0
  6
Continuous
 62
     7
100
AcDbLine
 10
2744.4103061616
 20
-136.1441297078
 30
0.0
 11
2743.4053560153
 21
-136.1441297078
 31
0.0
  0
LINE
  5
39F
330
24F
100
AcDbEntity
  8
0
  6
Continuous
 62
     7
100
AcDbLine
 10
2932.5334281837
 20
-135.9558857029
 30
0.0
 11
2920.2772786312
 21
-135.9558857029
 31
0.0
  0
LINE
  5
3A0
330
24F
100
AcDbEntity
  8
0
  6
Continuous
 62
     7
100
AcDbLine
 10
2756.5334281837
 20
-135.9558857029
 30
0.0
 11
2744.2772786312
 21
-135.9558857029
 31
0.0
  0
LINE
  5
3A1
330
24F
100
AcDbEntity
  8
0
  6
Continuous
 62
     7
100
AcDbLine
 10
2932.3595536057
 20
-135.6441297078
 30
0.0
 11
2920.4511532093
 21
-135.6441297078
 31
0.0
  0
LINE
  5
3A2
330
24F
100
AcDbEntity
  8
0
  6
Continuous
 62
     7
100
AcDbLine
 10
2756.3595536057
 20
-135.6441297078
 30
0.0
 11
2744.4511532093
 21
-135.6441297078
 31
0.0
  0
LINE
  5
3A3
330
24F
100
AcDbEntity
  8
0
  6
Continuous
 62
     7
100
AcDbLine
 10
2932.1254905415
 20
-135.3323737126
 30
0.0
 11
2920.6852162735
 21
-135.3323737126
 31
0.0
  0
LINE
  5
3A4
330
24F
100
AcDbEntity
  8
0
  6
Continuous
 62
     7
100
AcDbLine
 10
2756.125490541501
 20
-135.3323737126
 30
0.0
 11
2744.6852162735
 21
-135.3323737126
 31
0.0
  0
LINE
  5
3A5
330
24F
100
AcDbEntity
  8
0
  6
Continuous
 62
     7
100
AcDbLine
 10
2730.2813480553
 20
-118.2661588144
 30
0.0
 11
2731.7748350951
 21
-118.6073561086
 31
0.0
  0
LWPOLYLINE
  5
3A6
330
24F
100
AcDbEntity
  8
06___PRT_ALL_SURFS
  6
Continuous
 62
     7
100
AcDbPolyline
 90
        9
 70
     0
 43
0.0
 10
2985.5609397609
 20
-111.1441297028
 10
2986.977785759
 20
-111.0462266637
 10
2988.3889752676
 20
-110.7379704157
 10
2989.7258232037
 20
-110.2245869255
 10
2991.0133256568
 20
-109.4929434258
 10
2992.2643601473
 20
-108.5163874365
 10
2993.464639309601
 20
-107.2783777442
 10
2994.5845886024
 20
-105.7875573055
 10
2994.6698061398
 20
-105.6441297078
  0
LWPOLYLINE
  5
3A7
330
24F
100
AcDbEntity
  8
06___PRT_ALL_SURFS
  6
Continuous
 62
     7
100
AcDbPolyline
 90
        8
 70
     0
 43
0.0
 10
2990.4018834339
 20
-110.6441297076
 10
2991.7693541269
 20
-110.5525624252
 10
2993.2087281817
 20
-110.2399075117
 10
2994.6078924432
 20
-109.6908663821
 10
2995.943595815001
 20
-108.9030610122
 10
2997.202292480701
 20
-107.8819695257
 10
2998.3718460067
 20
-106.6436307316
 10
2999.1200827204
 20
-105.6441297078
  0
LWPOLYLINE
  5
3A8
330
24F
100
AcDbEntity
  8
0
  6
Continuous
 62
     7
100
AcDbPolyline
 90
       13
 70
     0
 43
0.0
 10
2838.405353403
 20
-122.9264254677
 10
2846.7655446126
 20
-122.918735165
 10
2856.0088557403
 20
-122.8862085784
 10
2864.907012671901
 20
-122.823021879
 10
2873.4259318179
 20
-122.7308003247
 10
2881.5247171592
 20
-122.6093500195
 10
2889.1700506557
 20
-122.4553888194
 10
2896.3521718602
 20
-122.2697533903
 10
2903.0447871029
 20
-122.0454797481
 10
2909.2236282233
 20
-121.7795931183
 10
2914.87802798
 20
-121.4769733089
 10
2919.9945632797
 20
-121.1475337829
 10
2924.5789898111
 20
-120.8093631153
  0
LINE
  5
3A9
330
24F
100
AcDbEntity
  8
0
  6
Continuous
 62
     7
100
AcDbLine
 10
2932.5334281837
 20
-134.7558857029
 30
0.0
 11
2920.2772786312
 21
-134.7558857029
 31
0.0
  0
LINE
  5
3AA
330
24F
100
AcDbEntity
  8
0
  6
Continuous
 62
     7
100
AcDbLine
 10
2756.5334281837
 20
-134.7558857029
 30
0.0
 11
2744.2772786312
 21
-134.7558857029
 31
0.0
  0
LINE
  5
3AB
330
24F
100
AcDbEntity
  8
0
  6
Continuous
 62
     7
100
AcDbLine
 10
2932.3595536057
 20
-134.4441297078
 30
0.0
 11
2920.4511532093
 21
-134.4441297078
 31
0.0
  0
LINE
  5
3AC
330
24F
100
AcDbEntity
  8
0
  6
Continuous
 62
     7
100
AcDbLine
 10
2756.3595536057
 20
-134.4441297078
 30
0.0
 11
2744.4511532093
 21
-134.4441297078
 31
0.0
  0
LINE
  5
3AD
330
24F
100
AcDbEntity
  8
0
  6
Continuous
 62
     7
100
AcDbLine
 10
2744.6852162735
 20
-134.1323737126
 30
0.0
 11
2756.125490541501
 21
-134.1323737126
 31
0.0
  0
LINE
  5
3AE
330
24F
100
AcDbEntity
  8
0
  6
Continuous
 62
     7
100
AcDbLine
 10
2920.6852162735
 20
-134.1323737126
 30
0.0
 11
2932.1254905415
 21
-134.1323737126
 31
0.0
  0
LINE
  5
3AF
330
24F
100
AcDbEntity
  8
0
  6
Continuous
 62
     7
100
AcDbLine
 10
2932.5334281837
 20
-133.5558857029
 30
0.0
 11
2920.2772786312
 21
-133.5558857029
 31
0.0
  0
LINE
  5
3B0
330
24F
100
AcDbEntity
  8
0
  6
Continuous
 62
     7
100
AcDbLine
 10
2756.5334281837
 20
-133.5558857029
 30
0.0
 11
2744.2772786312
 21
-133.5558857029
 31
0.0
  0
LINE
  5
3B1
330
24F
100
AcDbEntity
  8
0
  6
Continuous
 62
     7
100
AcDbLine
 10
2932.3595536057
 20
-133.2441297078
 30
0.0
 11
2920.4511532093
 21
-133.2441297078
 31
0.0
  0
LINE
  5
3B2
330
24F
100
AcDbEntity
  8
0
  6
Continuous
 62
     7
100
AcDbLine
 10
2756.3595536057
 20
-133.2441297078
 30
0.0
 11
2744.4511532093
 21
-133.2441297078
 31
0.0
  0
LINE
  5
3B3
330
24F
100
AcDbEntity
  8
0
  6
Continuous
 62
     7
100
AcDbLine
 10
2744.6852162735
 20
-132.9323737126
 30
0.0
 11
2756.125490541501
 21
-132.9323737126
 31
0.0
  0
LINE
  5
3B4
330
24F
100
AcDbEntity
  8
0
  6
Continuous
 62
     7
100
AcDbLine
 10
2920.6852162735
 20
-132.9323737126
 30
0.0
 11
2932.1254905415
 21
-132.9323737126
 31
0.0
  0
LINE
  5
3B5
330
24F
100
AcDbEntity
  8
0
  6
Continuous
 62
     7
100
AcDbLine
 10
2932.5334281837
 20
-132.3558857029
 30
0.0
 11
2920.2772786312
 21
-132.3558857029
 31
0.0
  0
LINE
  5
3B6
330
24F
100
AcDbEntity
  8
0
  6
Continuous
 62
     7
100
AcDbLine
 10
2756.5334281837
 20
-132.3558857029
 30
0.0
 11
2744.2772786312
 21
-132.3558857029
 31
0.0
  0
LINE
  5
3B7
330
24F
100
AcDbEntity
  8
0
  6
Continuous
 62
     7
100
AcDbLine
 10
2932.3595536057
 20
-132.0441297078
 30
0.0
 11
2920.4511532093
 21
-132.0441297078
 31
0.0
  0
LINE
  5
3B8
330
24F
100
AcDbEntity
  8
0
  6
Continuous
 62
     7
100
AcDbLine
 10
2756.3595536057
 20
-132.0441297078
 30
0.0
 11
2744.4511532093
 21
-132.0441297078
 31
0.0
  0
LINE
  5
3B9
330
24F
100
AcDbEntity
  8
0
  6
Continuous
 62
     7
100
AcDbLine
 10
2744.6852162735
 20
-131.7323737126
 30
0.0
 11
2756.125490541501
 21
-131.7323737126
 31
0.0
  0
LINE
  5
3BA
330
24F
100
AcDbEntity
  8
0
  6
Continuous
 62
     7
100
AcDbLine
 10
2920.6852162735
 20
-131.7323737126
 30
0.0
 11
2932.1254905415
 21
-131.7323737126
 31
0.0
  0
LINE
  5
3BB
330
24F
100
AcDbEntity
  8
0
  6
Continuous
 62
     7
100
AcDbLine
 10
2932.5334281837
 20
-131.1558857029
 30
0.0
 11
2920.2772786312
 21
-131.1558857029
 31
0.0
  0
LINE
  5
3BC
330
24F
100
AcDbEntity
  8
0
  6
Continuous
 62
     7
100
AcDbLine
 10
2756.5334281837
 20
-131.1558857029
 30
0.0
 11
2744.2772786312
 21
-131.1558857029
 31
0.0
  0
LINE
  5
3BD
330
24F
100
AcDbEntity
  8
0
  6
Continuous
 62
     7
100
AcDbLine
 10
2932.3595536057
 20
-130.8441297078
 30
0.0
 11
2920.4511532093
 21
-130.8441297078
 31
0.0
  0
LINE
  5
3BE
330
24F
100
AcDbEntity
  8
0
  6
Continuous
 62
     7
100
AcDbLine
 10
2756.3595536057
 20
-130.8441297078
 30
0.0
 11
2744.4511532093
 21
-130.8441297078
 31
0.0
  0
LINE
  5
3BF
330
24F
100
AcDbEntity
  8
0
  6
Continuous
 62
     7
100
AcDbLine
 10
2744.6852162735
 20
-130.5323737126
 30
0.0
 11
2756.125490541501
 21
-130.5323737126
 31
0.0
  0
LINE
  5
3C0
330
24F
100
AcDbEntity
  8
0
  6
Continuous
 62
     7
100
AcDbLine
 10
2920.6852162735
 20
-130.5323737126
 30
0.0
 11
2932.1254905415
 21
-130.5323737126
 31
0.0
  0
LINE
  5
3C1
330
24F
100
AcDbEntity
  8
0
  6
Continuous
 62
     7
100
AcDbLine
 10
2932.5334281837
 20
-129.9558857029
 30
0.0
 11
2920.2772786312
 21
-129.9558857029
 31
0.0
  0
LINE
  5
3C2
330
24F
100
AcDbEntity
  8
0
  6
Continuous
 62
     7
100
AcDbLine
 10
2756.5334281837
 20
-129.9558857029
 30
0.0
 11
2744.2772786312
 21
-129.9558857029
 31
0.0
  0
LINE
  5
3C3
330
24F
100
AcDbEntity
  8
0
  6
Continuous
 62
     7
100
AcDbLine
 10
2932.3595536057
 20
-129.6441297078
 30
0.0
 11
2920.4511532093
 21
-129.6441297078
 31
0.0
  0
LINE
  5
3C4
330
24F
100
AcDbEntity
  8
0
  6
Continuous
 62
     7
100
AcDbLine
 10
2756.3595536057
 20
-129.6441297078
 30
0.0
 11
2744.4511532093
 21
-129.6441297078
 31
0.0
  0
LINE
  5
3C5
330
24F
100
AcDbEntity
  8
0
  6
Continuous
 62
     7
100
AcDbLine
 10
2744.6852162735
 20
-129.3323737126
 30
0.0
 11
2756.125490541501
 21
-129.3323737126
 31
0.0
  0
LINE
  5
3C6
330
24F
100
AcDbEntity
  8
0
  6
Continuous
 62
     7
100
AcDbLine
 10
2920.6852162735
 20
-129.3323737126
 30
0.0
 11
2932.1254905415
 21
-129.3323737126
 31
0.0
  0
LINE
  5
3C7
330
24F
100
AcDbEntity
  8
0
  6
Continuous
 62
     7
100
AcDbLine
 10
2932.5334281837
 20
-128.7558857029
 30
0.0
 11
2920.2772786312
 21
-128.7558857029
 31
0.0
  0
LINE
  5
3C8
330
24F
100
AcDbEntity
  8
0
  6
Continuous
 62
     7
100
AcDbLine
 10
2756.5334281837
 20
-128.7558857029
 30
0.0
 11
2744.2772786312
 21
-128.7558857029
 31
0.0
  0
LINE
  5
3C9
330
24F
100
AcDbEntity
  8
0
  6
Continuous
 62
     7
100
AcDbLine
 10
2932.3595536057
 20
-128.4441297078
 30
0.0
 11
2920.4511532093
 21
-128.4441297078
 31
0.0
  0
LINE
  5
3CA
330
24F
100
AcDbEntity
  8
0
  6
Continuous
 62
     7
100
AcDbLine
 10
2756.3595536057
 20
-128.4441297078
 30
0.0
 11
2744.4511532093
 21
-128.4441297078
 31
0.0
  0
LINE
  5
3CB
330
24F
100
AcDbEntity
  8
0
  6
Continuous
 62
     7
100
AcDbLine
 10
2744.6852162735
 20
-128.1323737126
 30
0.0
 11
2756.125490541501
 21
-128.1323737126
 31
0.0
  0
LINE
  5
3CC
330
24F
100
AcDbEntity
  8
0
  6
Continuous
 62
     7
100
AcDbLine
 10
2920.6852162735
 20
-128.1323737126
 30
0.0
 11
2932.1254905415
 21
-128.1323737126
 31
0.0
  0
LINE
  5
3CD
330
24F
100
AcDbEntity
  8
0
  6
Continuous
 62
     7
100
AcDbLine
 10
2932.5334281837
 20
-127.5558857029
 30
0.0
 11
2920.2772786312
 21
-127.5558857029
 31
0.0
  0
LINE
  5
3CE
330
24F
100
AcDbEntity
  8
0
  6
Continuous
 62
     7
100
AcDbLine
 10
2756.5334281837
 20
-127.5558857029
 30
0.0
 11
2744.2772786312
 21
-127.5558857029
 31
0.0
  0
LINE
  5
3CF
330
24F
100
AcDbEntity
  8
0
  6
Continuous
 62
     7
100
AcDbLine
 10
2932.3595536057
 20
-127.2441297078
 30
0.0
 11
2920.4511532093
 21
-127.2441297078
 31
0.0
  0
LINE
  5
3D0
330
24F
100
AcDbEntity
  8
0
  6
Continuous
 62
     7
100
AcDbLine
 10
2756.3595536057
 20
-127.2441297078
 30
0.0
 11
2744.4511532093
 21
-127.2441297078
 31
0.0
  0
LINE
  5
3D1
330
24F
100
AcDbEntity
  8
0
  6
Continuous
 62
     7
100
AcDbLine
 10
2932.0764537157
 20
-127.0441297078
 30
0.0
 11
2931.6305328302
 21
-127.0441297078
 31
0.0
  0
LINE
  5
3D2
330
24F
100
AcDbEntity
  8
0
  6
Continuous
 62
     7
100
AcDbLine
 10
2929.9503514059
 20
-127.0441297078
 30
0.0
 11
2929.2448075804
 21
-127.0441297078
 31
0.0
  0
LINE
  5
3D3
330
24F
100
AcDbEntity
  8
0
  6
Continuous
 62
     7
100
AcDbLine
 10
2922.274675497
 20
-127.0441297078
 30
0.0
 11
2921.7116061225
 21
-127.0441297078
 31
0.0
  0
LINE
  5
3D4
330
24F
100
AcDbEntity
  8
0
  6
Continuous
 62
     7
100
AcDbLine
 10
2920.978337653
 20
-127.0441297078
 30
0.0
 11
2920.734253099301
 21
-127.0441297078
 31
0.0
  0
LINE
  5
3D5
330
24F
100
AcDbEntity
  8
0
  6
Continuous
 62
     7
100
AcDbLine
 10
2756.0764537157
 20
-127.0441297078
 30
0.0
 11
2755.6305328302
 21
-127.0441297078
 31
0.0
  0
LINE
  5
3D6
330
24F
100
AcDbEntity
  8
0
  6
Continuous
 62
     7
100
AcDbLine
 10
2753.9503514059
 20
-127.0441297078
 30
0.0
 11
2753.2448075804
 21
-127.0441297078
 31
0.0
  0
LINE
  5
3D7
330
24F
100
AcDbEntity
  8
0
  6
Continuous
 62
     7
100
AcDbLine
 10
2746.274675497
 20
-127.0441297078
 30
0.0
 11
2745.7116061225
 21
-127.0441297078
 31
0.0
  0
LINE
  5
3D8
330
24F
100
AcDbEntity
  8
0
  6
Continuous
 62
     7
100
AcDbLine
 10
2744.978337653
 20
-127.0441297078
 30
0.0
 11
2744.7342530993
 21
-127.0441297078
 31
0.0
  0
LINE
  5
3D9
330
24F
100
AcDbEntity
  8
0
  6
Continuous
 62
     7
100
AcDbLine
 10
2750.1553534075
 20
-127.0441297078
 30
0.0
 11
2750.655353407501
 21
-127.0441297078
 31
0.0
  0
LINE
  5
3DA
330
24F
100
AcDbEntity
  8
0
  6
Continuous
 62
     7
100
AcDbLine
 10
2926.1553534075
 20
-127.0441297078
 30
0.0
 11
2926.6553534075
 21
-127.0441297078
 31
0.0
  0
LINE
  5
3DB
330
24F
100
AcDbEntity
  8
0
  6
Continuous
 62
     7
100
AcDbLine
 10
2750.1553534075
 20
-124.5441297078
 30
0.0
 11
2750.655353407501
 21
-124.5441297078
 31
0.0
  0
LINE
  5
3DC
330
24F
100
AcDbEntity
  8
0
  6
Continuous
 62
     7
100
AcDbLine
 10
2926.1553534075
 20
-124.5441297078
 30
0.0
 11
2926.6553534075
 21
-124.5441297078
 31
0.0
  0
LWPOLYLINE
  5
3DD
330
24F
100
AcDbEntity
  8
0
  6
Continuous
 62
     7
100
AcDbPolyline
 90
       12
 70
     0
 43
0.0
 10
2751.737376297701
 20
-120.7663660294
 10
2754.3427328888
 20
-120.9694180817
 10
2759.9052750242
 20
-121.3530766664
 10
2766.2218209648
 20
-121.7120541968
 10
2773.274553583
 20
-122.0265581229
 10
2781.038968114001
 20
-122.2865810305
 10
2789.4663937511
 20
-122.4959027632
 10
2798.507481763901
 20
-122.6623123774
 10
2808.1188077639
 20
-122.7860090825
 10
2818.2205604098
 20
-122.8712944742
 10
2828.7375292071
 20
-122.9158801293
 10
2838.4053534111
 20
-122.9264253978
  0
LINE
  5
3DE
330
24F
100
AcDbEntity
  8
0
  6
Continuous
 62
     7
100
AcDbLine
 10
2838.4053534076
 20
-122.9073997268
 30
0.0
 11
2838.4053534111
 21
-122.9264254677
 31
0.0
  0
LINE
  5
3DF
330
24F
100
AcDbEntity
  8
0
  6
Continuous
 62
     7
100
AcDbLine
 10
2838.405353587801
 20
-68.4214694681
 30
0.0
 11
2838.4053534073
 21
-75.97553850989999
 31
0.0
  0
LINE
  5
3E0
330
24F
100
AcDbEntity
  8
0
  6
Continuous
 62
     7
100
AcDbLine
 10
2838.4053534075
 20
-105.3441297078
 30
0.0
 11
2838.4053534075
 21
-122.7952924985
 31
0.0
  0
LINE
  5
3E1
330
24F
100
AcDbEntity
  8
0
  6
Continuous
 62
     7
100
AcDbLine
 10
2751.066262354
 20
-111.652573272
 30
0.0
 11
2751.087934833
 21
-111.6510457553
 31
0.0
  0
LWPOLYLINE
  5
3E2
330
24F
100
AcDbEntity
  8
0
  6
Continuous
 62
     7
100
AcDbPolyline
 90
        9
 70
     0
 43
0.0
 10
2751.0640070006
 20
-111.6527967037
 10
2757.2686731539
 20
-111.2626631499
 10
2765.1974838036
 20
-110.8702021989
 10
2774.453025441501
 20
-110.5152575942
 10
2785.09190111
 20
-110.2017358229
 10
2797.0919776498
 20
-109.9392789966
 10
2810.3190336617
 20
-109.7454730191
 10
2824.5205837032
 20
-109.6383334226
 10
2838.4053533881
 20
-109.6135034905
  0
LINE
  5
3E3
330
24F
100
AcDbEntity
  8
0
  6
Continuous
 62
     7
100
AcDbLine
 10
2959.2497678965
 20
-111.1441297028
 30
0.0
 11
2959.249656716501
 21
-111.1441297078
 31
0.0
  0
LINE
  5
3E4
330
24F
100
AcDbEntity
  8
0
  6
Continuous
 62
     7
100
AcDbLine
 10
2717.5609389184
 20
-111.1441297028
 30
0.0
 11
2717.5610500985
 21
-111.1441297078
 31
0.0
  0
LINE
  5
3E5
330
24F
100
AcDbEntity
  8
0
  6
Continuous
 62
     7
100
AcDbLine
 10
2691.2496567165
 20
-111.1441297078
 30
0.0
 11
2717.5610500985
 21
-111.1441297078
 31
0.0
  0
LINE
  5
3E6
330
24F
100
AcDbEntity
  8
0
  6
Continuous
 62
     7
100
AcDbLine
 10
2959.249656716501
 20
-111.1441297078
 30
0.0
 11
2985.5610500985
 21
-111.1441297078
 31
0.0
  0
LINE
  5
3E7
330
24F
100
AcDbEntity
  8
0
  6
Continuous
 62
     7
100
AcDbLine
 10
2985.5610500985
 20
-111.1441297078
 30
0.0
 11
2985.5609388972
 21
-111.1441297028
 31
0.0
  0
LINE
  5
3E8
330
24F
100
AcDbEntity
  8
0
  6
Continuous
 62
     7
100
AcDbLine
 10
2691.2496567165
 20
-111.1441297078
 30
0.0
 11
2691.2497679177
 21
-111.1441297028
 31
0.0
  0
LINE
  5
3E9
330
24F
100
AcDbEntity
  8
0
  6
Continuous
 62
     7
100
AcDbLine
 10
2688.1773708323
 20
-110.6441297078
 30
0.0
 11
2686.5084373691
 21
-110.6441297078
 31
0.0
  0
LINE
  5
3EA
330
24F
100
AcDbEntity
  8
0
  6
Continuous
 62
     7
100
AcDbLine
 10
2988.633335982701
 20
-110.6441297078
 30
0.0
 11
2990.4018889157
 21
-110.6441297078
 31
0.0
  0
LINE
  5
3EB
330
24F
100
AcDbEntity
  8
0
  6
Continuous
 62
     7
100
AcDbLine
 10
2665.9113655511
 20
-105.6441297078
 30
0.0
 11
3010.8993412639
 21
-105.6441297078
 31
0.0
  0
LINE
  5
3EC
330
24F
100
AcDbEntity
  8
0
  6
Continuous
 62
     7
100
AcDbLine
 10
2658.4053534075
 20
-105.3441297078
 30
0.0
 11
3018.4053534075
 21
-105.3441297078
 31
0.0
  0
LWPOLYLINE
  5
3ED
330
24F
100
AcDbEntity
  8
0
  6
Continuous
 62
     7
100
AcDbPolyline
 90
        8
 70
     0
 43
0.0
 10
2838.405353427999
 20
-109.6135034915
 10
2852.3927439022
 20
-109.6387634442
 10
2866.6881659412
 20
-109.7476679043
 10
2879.9937260475
 20
-109.9443355326
 10
2892.050032902801
 20
-110.2102502543
 10
2902.7237028008
 20
-110.5276618868
 10
2911.9917379594
 20
-110.8868097148
 10
2919.9160844957
 20
-111.2838083614
  0
LINE
  5
3EE
330
24F
100
AcDbEntity
  8
0
  6
Continuous
 62
     7
100
AcDbLine
 10
2919.9160844957
 20
-111.2838083614
 30
0.0
 11
2925.7471570174
 21
-111.6528289188
 31
0.0
  0
LINE
  5
3EF
330
24F
100
AcDbEntity
  8
0
  6
Continuous
 62
     7
100
AcDbLine
 10
2925.744901317801
 20
-111.6526054858
 30
0.0
 11
2925.722771982
 21
-111.6510457553
 31
0.0
  0
LWPOLYLINE
  5
3F0
330
24F
100
AcDbEntity
  8
06___PRT_ALL_SURFS
  6
Continuous
 62
     7
100
AcDbPolyline
 90
        9
 70
     0
 43
0.0
 10
2717.5609397819
 20
-111.1441297028
 10
2718.9777407924
 20
-111.0462329978
 10
2720.3889194646
 20
-110.7379871309
 10
2721.7257694978
 20
-110.224612322
 10
2723.0132679215
 20
-109.4929820706
 10
2724.2642851478
 20
-108.5164549022
 10
2725.4645643613
 20
-107.2784657329
 10
2726.5845397978
 20
-105.7876306554
 10
2726.6698013722
 20
-105.6441297078
  0
LWPOLYLINE
  5
3F1
330
24F
100
AcDbEntity
  8
0
  6
Continuous
 62
     7
100
AcDbPolyline
 90
        5
 70
     0
 43
0.0
 10
2946.3495084167
 20
-118.3126656732
 10
2947.7150306074
 20
-117.8977138433
 10
2949.309583486201
 20
-117.086738179
 10
2950.9621720748
 20
-115.3406186361
 10
2951.6462121895
 20
-113.5655799186
  0
LINE
  5
3F2
330
24F
100
AcDbEntity
  8
0
  6
Continuous
 62
     7
100
AcDbLine
 10
2920.734253099301
 20
-127.0441297078
 30
0.0
 11
2918.6342530993
 21
-124.5441297078
 31
0.0
  0
LINE
  5
3F3
330
24F
100
AcDbEntity
  8
0
  6
Continuous
 62
     7
100
AcDbLine
 10
2921.7116061225
 20
-127.0441297078
 30
0.0
 11
2919.2116061225
 21
-124.0441297078
 31
0.0
  0
LINE
  5
3F4
330
24F
100
AcDbEntity
  8
0
  6
Continuous
 62
     7
100
AcDbLine
 10
2929.9503514059
 20
-127.0441297078
 30
0.0
 11
2932.6503514059
 21
-124.5441297078
 31
0.0
  0
LINE
  5
3F5
330
24F
100
AcDbEntity
  8
0
  6
Continuous
 62
     7
100
AcDbLine
 10
2918.6342530993
 20
-121.2351203849
 30
0.0
 11
2918.6342530993
 21
-124.5441297078
 31
0.0
  0
LINE
  5
3F6
330
24F
100
AcDbEntity
  8
0
  6
Continuous
 62
     7
100
AcDbLine
 10
2919.2116061225
 20
-121.1979462241
 30
0.0
 11
2919.2116061225
 21
-124.0441297078
 31
0.0
  0
LINE
  5
3F7
330
24F
100
AcDbEntity
  8
02___PRT_ALL_AXES
  6
Continuous
 62
     7
100
AcDbLine
 10
2919.4053534075
 20
-136.1441297078
 30
0.0
 11
2919.4053534075
 21
-153.1441297078
 31
0.0
  0
LINE
  5
3F8
330
24F
100
AcDbEntity
  8
0
  6
Continuous
 62
     7
100
AcDbLine
 10
2919.4771501772
 20
-138.1441297078
 30
0.0
 11
2919.4771501772
 21
-148.6441297078
 31
0.0
  0
LINE
  5
3F9
330
24F
100
AcDbEntity
  8
0
  6
Continuous
 62
     7
100
AcDbLine
 10
2920.978337653
 20
-137.1441297078
 30
0.0
 11
2920.978337653
 21
-136.9441297078
 31
0.0
  0
LINE
  5
3FA
330
24F
100
AcDbEntity
  8
0
  6
Continuous
 62
     7
100
AcDbLine
 10
2920.978337653
 20
-126.1642075443
 30
0.0
 11
2920.978337653
 21
-127.2441297078
 31
0.0
  0
LINE
  5
3FB
330
24F
100
AcDbEntity
  8
0
  6
Continuous
 62
     7
100
AcDbLine
 10
2921.5063739219
 20
-148.6441297078
 30
0.0
 11
2921.5063739219
 21
-153.1441297078
 31
0.0
  0
LINE
  5
3FC
330
24F
100
AcDbEntity
  8
0
  6
Continuous
 62
     7
100
AcDbLine
 10
2922.274675497
 20
-120.9793410841
 30
0.0
 11
2922.274675497
 21
-127.0441297078
 31
0.0
  0
LINE
  5
3FD
330
24F
100
AcDbEntity
  8
0
  6
Continuous
 62
     7
100
AcDbLine
 10
2923.4710732573
 20
-138.1441297078
 30
0.0
 11
2923.4710732573
 21
-142.1441297078
 31
0.0
  0
LINE
  5
3FE
330
24F
100
AcDbEntity
  8
0
  6
Continuous
 62
     7
100
AcDbLine
 10
2925.1553534075
 20
-136.8262097969
 30
0.0
 11
2925.1553534075
 21
-153.6441297078
 31
0.0
  0
LINE
  5
3FF
330
24F
100
AcDbEntity
  8
0
  6
Continuous
 62
     7
100
AcDbLine
 10
2926.1553534075
 20
-120.6841566057
 30
0.0
 11
2926.1553534075
 21
-127.0441297078
 31
0.0
  0
LINE
  5
400
330
24F
100
AcDbEntity
  8
0
  6
Continuous
 62
     7
100
AcDbLine
 10
2926.6553534075
 20
-120.6444428906
 30
0.0
 11
2926.6553534075
 21
-127.0441297078
 31
0.0
  0
LINE
  5
401
330
24F
100
AcDbEntity
  8
0
  6
Continuous
 62
     7
100
AcDbLine
 10
2927.6553534075
 20
-136.8262097969
 30
0.0
 11
2927.6553534075
 21
-153.6441297078
 31
0.0
  0
LINE
  5
402
330
24F
100
AcDbEntity
  8
0
  6
Continuous
 62
     7
100
AcDbLine
 10
2929.2448075804
 20
-120.4555941651
 30
0.0
 11
2929.2448075804
 21
-127.0441297078
 31
0.0
  0
LINE
  5
403
330
24F
100
AcDbEntity
  8
0
  6
Continuous
 62
     7
100
AcDbLine
 10
2929.339633557701
 20
-138.1441297078
 30
0.0
 11
2929.339633557701
 21
-142.1441297078
 31
0.0
  0
LINE
  5
404
330
24F
100
AcDbEntity
  8
0
  6
Continuous
 62
     7
100
AcDbLine
 10
2931.3043328931
 20
-148.6441297078
 30
0.0
 11
2931.3043328931
 21
-153.1441297078
 31
0.0
  0
LINE
  5
405
330
24F
100
AcDbEntity
  8
0
  6
Continuous
 62
     7
100
AcDbLine
 10
2931.6305328302
 20
-125.4884061667
 30
0.0
 11
2931.6305328302
 21
-127.0441297078
 31
0.0
  0
LINE
  5
406
330
24F
100
AcDbEntity
  8
0
  6
Continuous
 62
     7
100
AcDbLine
 10
2931.832369162
 20
-137.1441297078
 30
0.0
 11
2931.832369162
 21
-136.9441297078
 31
0.0
  0
LINE
  5
407
330
24F
100
AcDbEntity
  8
0
  6
Continuous
 62
     7
100
AcDbLine
 10
2931.832369162
 20
-127.0441297078
 30
0.0
 11
2931.832369162
 21
-127.2441297078
 31
0.0
  0
LINE
  5
408
330
24F
100
AcDbEntity
  8
0
  6
Continuous
 62
     7
100
AcDbLine
 10
2932.0764537157
 20
-127.0441297078
 30
0.0
 11
2934.1764537157
 21
-124.5441297078
 31
0.0
  0
LINE
  5
409
330
24F
100
AcDbEntity
  8
0
  6
Continuous
 62
     7
100
AcDbLine
 10
2932.6503514059
 20
-120.1872218572
 30
0.0
 11
2932.6503514059
 21
-124.5441297078
 31
0.0
  0
LINE
  5
40A
330
24F
100
AcDbEntity
  8
0
  6
Continuous
 62
     7
100
AcDbLine
 10
2933.3335566378
 20
-138.1441297078
 30
0.0
 11
2933.3335566378
 21
-148.6441297078
 31
0.0
  0
LINE
  5
40B
330
24F
100
AcDbEntity
  8
02___PRT_ALL_AXES
  6
Continuous
 62
     7
100
AcDbLine
 10
2933.4053534075
 20
-136.1441297078
 30
0.0
 11
2933.4053534075
 21
-153.1441297078
 31
0.0
  0
LINE
  5
40C
330
24F
100
AcDbEntity
  8
0
  6
Continuous
 62
     7
100
AcDbLine
 10
2934.1764537157
 20
-120.0416685159
 30
0.0
 11
2934.1764537157
 21
-124.5441297078
 31
0.0
  0
LWPOLYLINE
  5
40D
330
24F
100
AcDbEntity
  8
0
  6
Continuous
 62
     7
100
AcDbPolyline
 90
        9
 70
     0
 43
0.0
 10
2950.140905442801
 20
-105.6441297078
 10
2950.2261670172
 20
-105.7876306554
 10
2951.3461424537
 20
-107.2784657329
 10
2952.5464216672
 20
-108.5164549022
 10
2953.7974388935
 20
-109.4929820706
 10
2955.0849373172
 20
-110.224612322
 10
2956.4217873504
 20
-110.7379871309
 10
2957.8329660226
 20
-111.0462329978
 10
2959.249767033
 20
-111.1441297028
  0
LINE
  5
40E
330
24F
100
AcDbEntity
  8
0
  6
Continuous
 62
     7
100
AcDbLine
 10
2951.6396699246
 20
-113.6084284317
 30
0.0
 11
2951.6426487869
 21
-113.5878368614
 31
0.0
  0
LWPOLYLINE
  5
40F
330
24F
100
AcDbEntity
  8
0
  6
Continuous
 62
     7
100
AcDbPolyline
 90
        5
 70
     0
 43
0.0
 10
2951.6400262419
 20
-113.6066400687
 10
2951.8419814129
 20
-112.7366691198
 10
2952.305103873401
 20
-111.3141958623
 10
2952.9026257601
 20
-109.9951787443
 10
2953.3850371555
 20
-109.171066838
  0
LINE
  5
410
330
24F
100
AcDbEntity
  8
0
  6
Continuous
 62
     7
100
AcDbLine
 10
3010.9007666973
 20
-105.6441297078
 30
0.0
 11
3010.860081677801
 21
-105.3441297078
 31
0.0
  0
LINE
  5
411
330
24F
100
AcDbEntity
  8
0
  6
Continuous
 62
     7
100
AcDbLine
 10
2658.4053534075
 20
-401.12791541
 30
0.0
 11
2658.4053534075
 21
-589.8279482687001
 31
0.0
  0
LINE
  5
412
330
24F
100
AcDbEntity
  8
0
  6
Continuous
 62
     7
100
AcDbLine
 10
2709.9053534075
 20
-294.7279482687
 30
0.0
 11
2709.9053534075
 21
-295.9990143541
 31
0.0
  0
LINE
  5
413
330
24F
100
AcDbEntity
  8
0
  6
Continuous
 62
     7
100
AcDbLine
 10
2710.4053534075
 20
-294.7279482687
 30
0.0
 11
2710.4053534075
 21
-296.2565188324
 31
0.0
  0
LINE
  5
414
330
24F
100
AcDbEntity
  8
0
  6
Continuous
 62
     7
100
AcDbLine
 10
2745.4053534075
 20
-295.6318881328
 30
0.0
 11
2745.4053534075
 21
-294.7291667432
 31
0.0
  0
LINE
  5
415
330
24F
100
AcDbEntity
  8
0
  6
Continuous
 62
     7
100
AcDbLine
 10
2755.4053534075
 20
-294.7291667432
 30
0.0
 11
2755.4053534075
 21
-295.6318881328
 31
0.0
  0
LINE
  5
416
330
24F
100
AcDbEntity
  8
0
  6
Continuous
 62
     7
100
AcDbLine
 10
2775.4053534075
 20
-294.7279482687
 30
0.0
 11
2775.4053534075
 21
-296.561177693
 31
0.0
  0
LINE
  5
417
330
24F
100
AcDbEntity
  8
0
  6
Continuous
 62
     7
100
AcDbLine
 10
2659.6473595434
 20
-589.8278414651001
 30
0.0
 11
2658.4053534075
 21
-589.8279482687001
 31
0.0
  0
LINE
  5
418
330
24F
100
AcDbEntity
  8
0
  6
Continuous
 62
     7
100
AcDbLine
 10
3017.1633472716
 20
-589.8278414651001
 30
0.0
 11
3018.4053534075
 21
-589.8279482687001
 31
0.0
  0
LINE
  5
419
330
24F
100
AcDbEntity
  8
0
  6
Continuous
 62
     7
100
AcDbLine
 10
2838.4053534075
 20
-296.9870579027
 30
0.0
 11
2838.4053534075
 21
-301.9378967959
 31
0.0
  0
LINE
  5
41A
330
24F
100
AcDbEntity
  8
0
  6
Continuous
 62
     7
100
AcDbLine
 10
2838.405353587801
 20
-760.7974418172
 30
0.0
 11
2838.4053534073
 21
-768.6267770538001
 31
0.0
  0
LINE
  5
41B
330
24F
100
AcDbEntity
  8
0
  6
Continuous
 62
     7
100
AcDbLine
 10
2901.405353407501
 20
-294.7279482687
 30
0.0
 11
2901.405353407501
 21
-296.561177693
 31
0.0
  0
LINE
  5
41C
330
24F
100
AcDbEntity
  8
0
  6
Continuous
 62
     7
100
AcDbLine
 10
2921.4053534075
 20
-294.7291667432
 30
0.0
 11
2921.4053534075
 21
-295.6318881328
 31
0.0
  0
LINE
  5
41D
330
24F
100
AcDbEntity
  8
0
  6
Continuous
 62
     7
100
AcDbLine
 10
2931.4053534075
 20
-295.6318881328
 30
0.0
 11
2931.4053534075
 21
-294.7291667432
 31
0.0
  0
LINE
  5
41E
330
24F
100
AcDbEntity
  8
0
  6
Continuous
 62
     7
100
AcDbLine
 10
2966.4053534075
 20
-294.7279482687
 30
0.0
 11
2966.4053534075
 21
-296.2565188324
 31
0.0
  0
LINE
  5
41F
330
24F
100
AcDbEntity
  8
0
  6
Continuous
 62
     7
100
AcDbLine
 10
2966.9053534075
 20
-294.7279482687
 30
0.0
 11
2966.9053534075
 21
-295.9990143541
 31
0.0
  0
LINE
  5
420
330
24F
100
AcDbEntity
  8
0
  6
Continuous
 62
     7
100
AcDbLine
 10
3018.4053534075
 20
-401.12791541
 30
0.0
 11
3018.4053534075
 21
-589.8279482687001
 31
0.0
  0
LINE
  5
421
330
24F
100
AcDbEntity
  8
0
  6
Continuous
 62
     7
100
AcDbLine
 10
3007.6371195863
 20
-294.8749004307
 30
0.0
 11
3009.4434364996
 21
-294.7279482732
 31
0.0
  0
LINE
  5
422
330
24F
100
AcDbEntity
  8
0
  6
Continuous
 62
     7
100
AcDbLine
 10
3009.2679720299
 20
-306.2665604187
 30
0.0
 11
3017.0612167522
 21
-306.2660612827
 31
0.0
  0
LINE
  5
423
330
24F
100
AcDbEntity
  8
0
  6
Continuous
 62
     7
100
AcDbLine
 10
2667.5427347851
 20
-306.2665604187
 30
0.0
 11
2659.7494900628
 21
-306.2660612827
 31
0.0
  0
LINE
  5
424
330
24F
100
AcDbEntity
  8
0
  6
Continuous
 62
     7
100
AcDbLine
 10
2669.1735872287
 20
-294.8749004307
 30
0.0
 11
2667.367270315401
 21
-294.7279482732
 31
0.0
  0
LINE
  5
425
330
24F
100
AcDbEntity
  8
0
  6
Continuous
 62
     7
100
AcDbLine
 10
2962.9053534075
 20
-296.561177693
 30
0.0
 11
2713.905353407501
 21
-296.561177693
 31
0.0
  0
LINE
  5
426
330
24F
100
AcDbEntity
  8
0
  6
Continuous
 62
     7
100
AcDbLine
 10
3007.6371195863
 20
-294.8749004307
 30
0.0
 11
2966.9053534075
 21
-294.8749004307
 31
0.0
  0
LINE
  5
427
330
24F
100
AcDbEntity
  8
0
  6
Continuous
 62
     7
100
AcDbLine
 10
2669.1735872287
 20
-294.8749004307
 30
0.0
 11
2709.9053534075
 21
-294.8749004307
 31
0.0
  0
LINE
  5
428
330
24F
100
AcDbEntity
  8
0
  6
Continuous
 62
     7
100
AcDbLine
 10
3009.442211238
 20
-294.7279482687
 30
0.0
 11
2966.9053534075
 21
-294.7279482687
 31
0.0
  0
LINE
  5
429
330
24F
100
AcDbEntity
  8
02___PRT_ALL_AXES
  6
Continuous
 62
     7
100
AcDbLine
 10
2966.4053534075
 20
-294.7279482687
 30
0.0
 11
2931.4053534075
 21
-294.7279482687
 31
0.0
  0
LINE
  5
42A
330
24F
100
AcDbEntity
  8
02___PRT_ALL_AXES
  6
Continuous
 62
     7
100
AcDbLine
 10
2921.4053534075
 20
-294.7279482687
 30
0.0
 11
2901.405353407501
 21
-294.7279482687
 31
0.0
  0
LINE
  5
42B
330
24F
100
AcDbEntity
  8
02___PRT_ALL_AXES
  6
Continuous
 62
     7
100
AcDbLine
 10
2775.4053534075
 20
-294.7279482687
 30
0.0
 11
2755.4053534075
 21
-294.7279482687
 31
0.0
  0
LINE
  5
42C
330
24F
100
AcDbEntity
  8
02___PRT_ALL_AXES
  6
Continuous
 62
     7
100
AcDbLine
 10
2745.4053534075
 20
-294.7279482687
 30
0.0
 11
2710.4053534075
 21
-294.7279482687
 31
0.0
  0
LINE
  5
42D
330
24F
100
AcDbEntity
  8
02___PRT_ALL_AXES
  6
Continuous
 62
     7
100
AcDbLine
 10
2709.9053534075
 20
-294.7279482687
 30
0.0
 11
2667.368495577
 21
-294.7279482687
 31
0.0
  0
LINE
  5
42E
330
24F
100
AcDbEntity
  8
0
  6
Continuous
 62
     7
100
AcDbLine
 10
3184.2619494237
 20
-111.1441297078
 30
0.0
 11
3184.2619494237
 21
-104.6441297078
 31
0.0
  0
LINE
  5
42F
330
24F
100
AcDbEntity
  8
0
  6
Continuous
 62
     7
100
AcDbLine
 10
3192.0220225366
 20
-145.7927941522
 30
0.0
 11
3192.7251875357
 21
-151.8738625966
 31
0.0
  0
LINE
  5
430
330
24F
100
AcDbEntity
  8
02___PRT_ALL_AXES
  6
Continuous
 62
     7
100
AcDbLine
 10
3191.2119494237
 20
-116.1441297078
 30
0.0
 11
3191.2119494237
 21
-117.4441297078
 31
0.0
  0
LINE
  5
431
330
24F
100
AcDbEntity
  8
0
  6
Continuous
 62
     7
100
AcDbLine
 10
3191.7119494237
 20
-118.0441297078
 30
0.0
 11
3191.7119494237
 21
-124.5441297078
 31
0.0
  0
LINE
  5
432
330
24F
100
AcDbEntity
  8
02___PRT_ALL_AXES
  6
Continuous
 62
     7
100
AcDbLine
 10
3193.9619494237
 20
-117.4441297078
 30
0.0
 11
3193.9619494237
 21
-118.0441297078
 31
0.0
  0
LINE
  5
433
330
24F
100
AcDbEntity
  8
02___PRT_ALL_AXES
  6
Continuous
 62
     7
100
AcDbLine
 10
3193.9619494237
 20
-127.0441297078
 30
0.0
 11
3193.9619494237
 21
-127.2441297078
 31
0.0
  0
LINE
  5
434
330
24F
100
AcDbEntity
  8
02___PRT_ALL_AXES
  6
Continuous
 62
     7
100
AcDbLine
 10
3193.9619494237
 20
-136.9441297078
 30
0.0
 11
3193.9619494237
 21
-136.9893614939
 31
0.0
  0
LINE
  5
435
330
24F
100
AcDbEntity
  8
0
  6
Continuous
 62
     7
100
AcDbLine
 10
3193.9673867772
 20
-118.0441297078
 30
0.0
 11
3193.9673867772
 21
-127.0441297078
 31
0.0
  0
LINE
  5
436
330
24F
100
AcDbEntity
  8
0
  6
Continuous
 62
     7
100
AcDbLine
 10
3194.0994633436
 20
-136.9441297078
 30
0.0
 11
3194.0994633436
 21
-137.1441297078
 31
0.0
  0
LINE
  5
437
330
24F
100
AcDbEntity
  8
0
  6
Continuous
 62
     7
100
AcDbLine
 10
3194.7119494237
 20
-118.0441297078
 30
0.0
 11
3194.7119494237
 21
-127.0441297078
 31
0.0
  0
LINE
  5
438
330
24F
100
AcDbEntity
  8
0
  6
Continuous
 62
     7
100
AcDbLine
 10
3194.7119494237
 20
-145.3105592017
 30
0.0
 11
3194.7119494237
 21
-153.1441297078
 31
0.0
  0
LINE
  5
439
330
24F
100
AcDbEntity
  8
0
  6
Continuous
 62
     7
100
AcDbLine
 10
3195.2119494237
 20
-118.0441297078
 30
0.0
 11
3195.2119494237
 21
-127.0122248305
 31
0.0
  0
LINE
  5
43A
330
24F
100
AcDbEntity
  8
02___PRT_ALL_AXES
  6
Continuous
 62
     7
100
AcDbLine
 10
3196.7119494237
 20
-111.1441297078
 30
0.0
 11
3196.7119494237
 21
-116.1441297078
 31
0.0
  0
LINE
  5
43B
330
24F
100
AcDbEntity
  8
02___PRT_ALL_AXES
  6
Continuous
 62
     7
100
AcDbLine
 10
3196.7119494237
 20
-137.1441297078
 30
0.0
 11
3196.7119494237
 21
-142.1441297078
 31
0.0
  0
LINE
  5
43C
330
24F
100
AcDbEntity
  8
0
  6
Continuous
 62
     7
100
AcDbLine
 10
3197.3119494237
 20
-118.0441297078
 30
0.0
 11
3197.3119494237
 21
-127.0441297078
 31
0.0
  0
LINE
  5
43D
330
24F
100
AcDbEntity
  8
0
  6
Continuous
 62
     7
100
AcDbLine
 10
3197.8119494237
 20
-118.0441297078
 30
0.0
 11
3197.8119494237
 21
-137.1441297078
 31
0.0
  0
LINE
  5
43E
330
24F
100
AcDbEntity
  8
0
  6
Continuous
 62
     7
100
AcDbLine
 10
3198.7119494237
 20
-138.1441297078
 30
0.0
 11
3198.7119494237
 21
-148.6441297078
 31
0.0
  0
LINE
  5
43F
330
24F
100
AcDbEntity
  8
0
  6
Continuous
 62
     7
100
AcDbLine
 10
3200.711949423701
 20
-138.1441297078
 30
0.0
 11
3200.711949423701
 21
-148.6441297078
 31
0.0
  0
LINE
  5
440
330
24F
100
AcDbEntity
  8
0
  6
Continuous
 62
     7
100
AcDbLine
 10
3201.6119494237
 20
-119.9441297078
 30
0.0
 11
3201.6119494237
 21
-137.1441297078
 31
0.0
  0
LINE
  5
441
330
24F
100
AcDbEntity
  8
02___PRT_ALL_AXES
  6
Continuous
 62
     7
100
AcDbLine
 10
3202.7119494237
 20
-111.1441297078
 30
0.0
 11
3202.7119494237
 21
-116.1441297078
 31
0.0
  0
LINE
  5
442
330
24F
100
AcDbEntity
  8
02___PRT_ALL_AXES
  6
Continuous
 62
     7
100
AcDbLine
 10
3202.7119494237
 20
-137.1441297078
 30
0.0
 11
3202.7119494237
 21
-142.1441297078
 31
0.0
  0
LINE
  5
443
330
24F
100
AcDbEntity
  8
0
  6
Continuous
 62
     7
100
AcDbLine
 10
3203.2119494237
 20
-118.0441297078
 30
0.0
 11
3203.2119494237
 21
-127.0441297078
 31
0.0
  0
LINE
  5
444
330
24F
100
AcDbEntity
  8
0
  6
Continuous
 62
     7
100
AcDbLine
 10
3203.7119494237
 20
-118.0441297078
 30
0.0
 11
3203.7119494237
 21
-127.0441297078
 31
0.0
  0
LINE
  5
445
330
24F
100
AcDbEntity
  8
0
  6
Continuous
 62
     7
100
AcDbLine
 10
3204.7119494237
 20
-145.3105592017
 30
0.0
 11
3204.7119494237
 21
-153.1441297078
 31
0.0
  0
LINE
  5
446
330
24F
100
AcDbEntity
  8
0
  6
Continuous
 62
     7
100
AcDbLine
 10
3205.3244355039
 20
-136.9441297078
 30
0.0
 11
3205.3244355039
 21
-137.1441297078
 31
0.0
  0
LINE
  5
447
330
24F
100
AcDbEntity
  8
0
  6
Continuous
 62
     7
100
AcDbLine
 10
3205.456512070301
 20
-118.0441297078
 30
0.0
 11
3205.456512070301
 21
-127.0441297078
 31
0.0
  0
LINE
  5
448
330
24F
100
AcDbEntity
  8
02___PRT_ALL_AXES
  6
Continuous
 62
     7
100
AcDbLine
 10
3205.4619494237
 20
-117.4441297078
 30
0.0
 11
3205.4619494237
 21
-118.0441297078
 31
0.0
  0
LINE
  5
449
330
24F
100
AcDbEntity
  8
02___PRT_ALL_AXES
  6
Continuous
 62
     7
100
AcDbLine
 10
3205.4619494237
 20
-127.0441297078
 30
0.0
 11
3205.4619494237
 21
-127.2441297078
 31
0.0
  0
LINE
  5
44A
330
24F
100
AcDbEntity
  8
02___PRT_ALL_AXES
  6
Continuous
 62
     7
100
AcDbLine
 10
3205.4619494237
 20
-136.9441297078
 30
0.0
 11
3205.4619494237
 21
-136.9893614939
 31
0.0
  0
LINE
  5
44B
330
24F
100
AcDbEntity
  8
0
  6
Continuous
 62
     7
100
AcDbLine
 10
3207.7119494237
 20
-118.0441297078
 30
0.0
 11
3207.7119494237
 21
-124.5441297078
 31
0.0
  0
LINE
  5
44C
330
24F
100
AcDbEntity
  8
0
  6
Continuous
 62
     7
100
AcDbLine
 10
3205.1710590577
 20
-68.2138345581
 30
0.0
 11
3203.0589015857
 21
-83.24261588330001
 31
0.0
  0
LINE
  5
44D
330
24F
100
AcDbEntity
  8
0
  6
Continuous
 62
     7
100
AcDbLine
 10
3199.011949423701
 20
-136.1441297078
 30
0.0
 11
3198.7119494237
 21
-138.1441297078
 31
0.0
  0
LINE
  5
44E
330
24F
100
AcDbEntity
  8
0
  6
Continuous
 62
     7
100
AcDbLine
 10
3206.00774875
 20
-141.8026805351
 30
0.0
 11
3204.4576868646
 21
-137.1441297078
 31
0.0
  0
LINE
  5
44F
330
24F
100
AcDbEntity
  8
0
  6
Continuous
 62
     7
100
AcDbLine
 10
3200.411949423699
 20
-136.1441297078
 30
0.0
 11
3200.711949423701
 21
-138.1441297078
 31
0.0
  0
LINE
  5
450
330
24F
100
AcDbEntity
  8
0
  6
Continuous
 62
     7
100
AcDbLine
 10
3193.7185684797
 20
-151.7589961522
 30
0.0
 11
3193.0154034806
 21
-145.6779277077
 31
0.0
  0
LINE
  5
451
330
24F
100
AcDbEntity
  8
02___PRT_ALL_AXES
  6
Continuous
 62
     7
100
AcDbLine
 10
3208.2119494237
 20
-116.1441297078
 30
0.0
 11
3208.2119494237
 21
-117.4441297078
 31
0.0
  0
LINE
  5
452
330
24F
100
AcDbEntity
  8
0
  6
Continuous
 62
     7
100
AcDbLine
 10
3214.4505615737
 20
-65.9330518027
 30
0.0
 11
3214.4500624378
 21
-73.46267616109999
 31
0.0
  0
LINE
  5
453
330
24F
100
AcDbEntity
  8
0
  6
Continuous
 62
     7
100
AcDbLine
 10
3205.7053303677
 20
-151.7589961522
 30
0.0
 11
3206.4084953669
 21
-145.6779277077
 31
0.0
  0
LINE
  5
454
330
24F
100
AcDbEntity
  8
0
  6
Continuous
 62
     7
100
AcDbLine
 10
3207.4018763109
 20
-145.7927941522
 30
0.0
 11
3206.6987113118
 21
-151.8738625966
 31
0.0
  0
LINE
  5
455
330
24F
100
AcDbEntity
  8
0
  6
Continuous
 62
     7
100
AcDbLine
 10
3194.0180915673
 20
-136.8262097969
 30
0.0
 11
3192.467296555399
 21
-141.4869639603
 31
0.0
  0
LINE
  5
456
330
24F
100
AcDbEntity
  8
0
  6
Continuous
 62
     7
100
AcDbLine
 10
3193.4161500975
 20
-141.8026805351
 30
0.0
 11
3194.9662119829
 21
-137.1441297078
 31
0.0
  0
LINE
  5
457
330
24F
100
AcDbEntity
  8
0
  6
Continuous
 62
     7
100
AcDbLine
 10
3193.4119494237
 20
-127.0441297078
 30
0.0
 11
3191.7119494237
 21
-124.5441297078
 31
0.0
  0
LINE
  5
458
330
24F
100
AcDbEntity
  8
0
  6
Continuous
 62
     7
100
AcDbLine
 10
3193.296086234501
 20
-135.9558857029
 30
0.0
 11
3193.9619494237
 21
-136.9441297078
 31
0.0
  0
LINE
  5
459
330
24F
100
AcDbEntity
  8
0
  6
Continuous
 62
     7
100
AcDbLine
 10
3193.296086234501
 20
-134.7558857029
 30
0.0
 11
3193.6845147429
 21
-135.3323737126
 31
0.0
  0
LINE
  5
45A
330
24F
100
AcDbEntity
  8
0
  6
Continuous
 62
     7
100
AcDbLine
 10
3193.296086234501
 20
-133.5558857029
 30
0.0
 11
3193.6845147429
 21
-134.1323737126
 31
0.0
  0
LINE
  5
45B
330
24F
100
AcDbEntity
  8
0
  6
Continuous
 62
     7
100
AcDbLine
 10
3193.296086234501
 20
-132.3558857029
 30
0.0
 11
3193.6845147429
 21
-132.9323737126
 31
0.0
  0
LINE
  5
45C
330
24F
100
AcDbEntity
  8
0
  6
Continuous
 62
     7
100
AcDbLine
 10
3193.296086234501
 20
-131.1558857029
 30
0.0
 11
3193.6845147429
 21
-131.7323737126
 31
0.0
  0
LINE
  5
45D
330
24F
100
AcDbEntity
  8
0
  6
Continuous
 62
     7
100
AcDbLine
 10
3193.296086234501
 20
-129.9558857029
 30
0.0
 11
3193.6845147429
 21
-130.5323737126
 31
0.0
  0
LINE
  5
45E
330
24F
100
AcDbEntity
  8
0
  6
Continuous
 62
     7
100
AcDbLine
 10
3193.296086234501
 20
-128.7558857029
 30
0.0
 11
3193.6845147429
 21
-129.3323737126
 31
0.0
  0
LINE
  5
45F
330
24F
100
AcDbEntity
  8
0
  6
Continuous
 62
     7
100
AcDbLine
 10
3193.296086234501
 20
-127.5558857029
 30
0.0
 11
3193.6845147429
 21
-128.1323737126
 31
0.0
  0
LINE
  5
460
330
24F
100
AcDbEntity
  8
02___PRT_ALL_AXES
  6
Continuous
 62
     7
100
AcDbLine
 10
3202.8119494237
 20
-142.1441297078
 30
0.0
 11
3204.7194279767
 21
-145.3232606294
 31
0.0
  0
LINE
  5
461
330
24F
100
AcDbEntity
  8
0
  6
Continuous
 62
     7
100
AcDbLine
 10
3205.405807280201
 20
-136.8262097969
 30
0.0
 11
3206.9566022921
 21
-141.4869639603
 31
0.0
  0
LINE
  5
462
330
24F
100
AcDbEntity
  8
0
  6
Continuous
 62
     7
100
AcDbLine
 10
3229.7619494237
 20
-111.1441297078
 30
0.0
 11
3229.7619494237
 21
-104.6441297078
 31
0.0
  0
LINE
  5
463
330
24F
100
AcDbEntity
  8
02___PRT_ALL_AXES
  6
Continuous
 62
     7
100
AcDbLine
 10
3196.6119494237
 20
-142.1441297078
 30
0.0
 11
3194.704470870801
 21
-145.3232606294
 31
0.0
  0
LINE
  5
464
330
24F
100
AcDbEntity
  8
0
  6
Continuous
 62
     7
100
AcDbLine
 10
3206.127812613
 20
-127.5558857029
 30
0.0
 11
3205.7393841046
 21
-128.1323737126
 31
0.0
  0
LINE
  5
465
330
24F
100
AcDbEntity
  8
0
  6
Continuous
 62
     7
100
AcDbLine
 10
3206.127812613
 20
-128.7558857029
 30
0.0
 11
3205.7393841046
 21
-129.3323737126
 31
0.0
  0
LINE
  5
466
330
24F
100
AcDbEntity
  8
0
  6
Continuous
 62
     7
100
AcDbLine
 10
3206.127812613
 20
-129.9558857029
 30
0.0
 11
3205.7393841046
 21
-130.5323737126
 31
0.0
  0
LINE
  5
467
330
24F
100
AcDbEntity
  8
0
  6
Continuous
 62
     7
100
AcDbLine
 10
3206.127812613
 20
-131.1558857029
 30
0.0
 11
3205.7393841046
 21
-131.7323737126
 31
0.0
  0
LINE
  5
468
330
24F
100
AcDbEntity
  8
0
  6
Continuous
 62
     7
100
AcDbLine
 10
3206.127812613
 20
-132.3558857029
 30
0.0
 11
3205.7393841046
 21
-132.9323737126
 31
0.0
  0
LINE
  5
469
330
24F
100
AcDbEntity
  8
0
  6
Continuous
 62
     7
100
AcDbLine
 10
3206.127812613
 20
-133.5558857029
 30
0.0
 11
3205.7393841046
 21
-134.1323737126
 31
0.0
  0
LINE
  5
46A
330
24F
100
AcDbEntity
  8
0
  6
Continuous
 62
     7
100
AcDbLine
 10
3206.127812613
 20
-134.7558857029
 30
0.0
 11
3205.7393841046
 21
-135.3323737126
 31
0.0
  0
LINE
  5
46B
330
24F
100
AcDbEntity
  8
0
  6
Continuous
 62
     7
100
AcDbLine
 10
3206.0119494237
 20
-127.0441297078
 30
0.0
 11
3207.7119494237
 21
-124.5441297078
 31
0.0
  0
LINE
  5
46C
330
24F
100
AcDbEntity
  8
0
  6
Continuous
 62
     7
100
AcDbLine
 10
3206.127812613
 20
-135.9558857029
 30
0.0
 11
3205.4619494237
 21
-136.9441297078
 31
0.0
  0
LWPOLYLINE
  5
46D
330
24F
100
AcDbEntity
  8
06___PRT_ALL_SURFS
  6
Continuous
 62
     7
100
AcDbPolyline
 90
       27
 70
     0
 43
0.0
 10
3367.7730192867
 20
-105.6441297078
 10
3367.9590301061
 20
-105.9316460438
 10
3368.1658532631
 20
-106.2287415489
 10
3368.385747993301
 20
-106.5225739361
 10
3368.620163184001
 20
-106.8140565676
 10
3368.8709565704
 20
-107.1041465941
 10
3369.1370713422
 20
-107.3902870357
 10
3369.417803231
 20
-107.6706817657
 10
3369.712963972701
 20
-107.9442109445
 10
3370.0223512049
 20
-108.2097974301
 10
3370.3457766249
 20
-108.4664259941
 10
3370.6828418091
 20
-108.7129752852
 10
3371.0327981697
 20
-108.9482763124
 10
3371.395373053501
 20
-109.1716290421
 10
3371.7703546273
 20
-109.3823516958
 10
3372.1575132436
 20
-109.5797248484
 10
3372.5564061459
 20
-109.7629255013
 10
3372.9666010143
 20
-109.9311401952
 10
3373.3886323038
 20
-110.0838572399
 10
3373.823225136501
 20
-110.2204258848
 10
3374.270830002101
 20
-110.3400440662
 10
3374.7321702722
 20
-110.4418510976
 10
3375.2080247724
 20
-110.524723244
 10
3375.6990331751
 20
-110.587232656
 10
3376.2056079605
 20
-110.6276468057
 10
3376.7281026686
 20
-110.6439106781
 10
3376.7961103668
 20
-110.6441297077
  0
LINE
  5
46E
330
24F
100
AcDbEntity
  8
0
  6
Continuous
 62
     7
100
AcDbLine
 10
3194.7119494237
 20
-153.6441297078
 30
0.0
 11
3204.7119494237
 21
-153.6441297078
 31
0.0
  0
LINE
  5
46F
330
24F
100
AcDbEntity
  8
0
  6
Continuous
 62
     7
100
AcDbLine
 10
3194.7119494237
 20
-153.1441297078
 30
0.0
 11
3204.7119494237
 21
-153.1441297078
 31
0.0
  0
LINE
  5
470
330
24F
100
AcDbEntity
  8
0
  6
Continuous
 62
     7
100
AcDbLine
 10
3194.7119494237
 20
-148.6441297078
 30
0.0
 11
3198.7119494237
 21
-148.6441297078
 31
0.0
  0
LINE
  5
471
330
24F
100
AcDbEntity
  8
0
  6
Continuous
 62
     7
100
AcDbLine
 10
3200.711949423701
 20
-148.6441297078
 30
0.0
 11
3204.7119494237
 21
-148.6441297078
 31
0.0
  0
LINE
  5
472
330
24F
100
AcDbEntity
  8
0
  6
Continuous
 62
     7
100
AcDbLine
 10
3196.6119494237
 20
-142.1441297078
 30
0.0
 11
3198.7119494237
 21
-142.1441297078
 31
0.0
  0
LINE
  5
473
330
24F
100
AcDbEntity
  8
0
  6
Continuous
 62
     7
100
AcDbLine
 10
3200.711949423701
 20
-142.1441297078
 30
0.0
 11
3202.8119494237
 21
-142.1441297078
 31
0.0
  0
LINE
  5
474
330
24F
100
AcDbEntity
  8
0
  6
Continuous
 62
     7
100
AcDbLine
 10
3205.3244355039
 20
-137.1441297078
 30
0.0
 11
3201.6119494237
 21
-137.1441297078
 31
0.0
  0
LINE
  5
475
330
24F
100
AcDbEntity
  8
0
  6
Continuous
 62
     7
100
AcDbLine
 10
3194.0994633436
 20
-137.1441297078
 30
0.0
 11
3197.8119494237
 21
-137.1441297078
 31
0.0
  0
LINE
  5
476
330
24F
100
AcDbEntity
  8
0
  6
Continuous
 62
     7
100
AcDbLine
 10
3205.4619494237
 20
-136.9441297078
 30
0.0
 11
3205.4450433358
 21
-136.9441297078
 31
0.0
  0
LINE
  5
477
330
24F
100
AcDbEntity
  8
0
  6
Continuous
 62
     7
100
AcDbLine
 10
3205.3244355039
 20
-136.9441297078
 30
0.0
 11
3201.6119494237
 21
-136.9441297078
 31
0.0
  0
LINE
  5
478
330
24F
100
AcDbEntity
  8
0
  6
Continuous
 62
     7
100
AcDbLine
 10
3193.9788555117
 20
-136.9441297078
 30
0.0
 11
3193.9619494237
 21
-136.9441297078
 31
0.0
  0
LINE
  5
479
330
24F
100
AcDbEntity
  8
0
  6
Continuous
 62
     7
100
AcDbLine
 10
3197.8119494237
 20
-136.9441297078
 30
0.0
 11
3194.0994633436
 21
-136.9441297078
 31
0.0
  0
LINE
  5
47A
330
24F
100
AcDbEntity
  8
0
  6
Continuous
 62
     7
100
AcDbLine
 10
3200.411949423699
 20
-136.1441297078
 30
0.0
 11
3199.011949423701
 21
-136.1441297078
 31
0.0
  0
LINE
  5
47B
330
24F
100
AcDbEntity
  8
0
  6
Continuous
 62
     7
100
AcDbLine
 10
3206.127812613
 20
-135.9558857029
 30
0.0
 11
3201.6119494237
 21
-135.9558857029
 31
0.0
  0
LINE
  5
47C
330
24F
100
AcDbEntity
  8
0
  6
Continuous
 62
     7
100
AcDbLine
 10
3193.296086234501
 20
-135.9558857029
 30
0.0
 11
3197.8119494237
 21
-135.9558857029
 31
0.0
  0
LINE
  5
47D
330
24F
100
AcDbEntity
  8
0
  6
Continuous
 62
     7
100
AcDbLine
 10
3205.9619494237
 20
-135.6441297078
 30
0.0
 11
3201.6119494237
 21
-135.6441297078
 31
0.0
  0
LINE
  5
47E
330
24F
100
AcDbEntity
  8
0
  6
Continuous
 62
     7
100
AcDbLine
 10
3197.8119494237
 20
-135.6441297078
 30
0.0
 11
3193.4619494237
 21
-135.6441297078
 31
0.0
  0
LINE
  5
47F
330
24F
100
AcDbEntity
  8
0
  6
Continuous
 62
     7
100
AcDbLine
 10
3205.7393841046
 20
-135.3323737126
 30
0.0
 11
3201.6119494237
 21
-135.3323737126
 31
0.0
  0
LINE
  5
480
330
24F
100
AcDbEntity
  8
0
  6
Continuous
 62
     7
100
AcDbLine
 10
3197.8119494237
 20
-135.3323737126
 30
0.0
 11
3193.6845147429
 21
-135.3323737126
 31
0.0
  0
LINE
  5
481
330
24F
100
AcDbEntity
  8
0
  6
Continuous
 62
     7
100
AcDbLine
 10
3206.127812613
 20
-134.7558857029
 30
0.0
 11
3201.6119494237
 21
-134.7558857029
 31
0.0
  0
LINE
  5
482
330
24F
100
AcDbEntity
  8
0
  6
Continuous
 62
     7
100
AcDbLine
 10
3193.296086234501
 20
-134.7558857029
 30
0.0
 11
3197.8119494237
 21
-134.7558857029
 31
0.0
  0
LINE
  5
483
330
24F
100
AcDbEntity
  8
0
  6
Continuous
 62
     7
100
AcDbLine
 10
3205.9619494237
 20
-134.4441297078
 30
0.0
 11
3201.6119494237
 21
-134.4441297078
 31
0.0
  0
LINE
  5
484
330
24F
100
AcDbEntity
  8
0
  6
Continuous
 62
     7
100
AcDbLine
 10
3197.8119494237
 20
-134.4441297078
 30
0.0
 11
3193.4619494237
 21
-134.4441297078
 31
0.0
  0
LINE
  5
485
330
24F
100
AcDbEntity
  8
0
  6
Continuous
 62
     7
100
AcDbLine
 10
3193.6845147429
 20
-134.1323737126
 30
0.0
 11
3197.8119494237
 21
-134.1323737126
 31
0.0
  0
LINE
  5
486
330
24F
100
AcDbEntity
  8
0
  6
Continuous
 62
     7
100
AcDbLine
 10
3201.6119494237
 20
-134.1323737126
 30
0.0
 11
3205.7393841046
 21
-134.1323737126
 31
0.0
  0
LINE
  5
487
330
24F
100
AcDbEntity
  8
0
  6
Continuous
 62
     7
100
AcDbLine
 10
3206.127812613
 20
-133.5558857029
 30
0.0
 11
3201.6119494237
 21
-133.5558857029
 31
0.0
  0
LINE
  5
488
330
24F
100
AcDbEntity
  8
0
  6
Continuous
 62
     7
100
AcDbLine
 10
3193.296086234501
 20
-133.5558857029
 30
0.0
 11
3197.8119494237
 21
-133.5558857029
 31
0.0
  0
LINE
  5
489
330
24F
100
AcDbEntity
  8
0
  6
Continuous
 62
     7
100
AcDbLine
 10
3205.9619494237
 20
-133.2441297078
 30
0.0
 11
3201.6119494237
 21
-133.2441297078
 31
0.0
  0
LINE
  5
48A
330
24F
100
AcDbEntity
  8
0
  6
Continuous
 62
     7
100
AcDbLine
 10
3197.8119494237
 20
-133.2441297078
 30
0.0
 11
3193.4619494237
 21
-133.2441297078
 31
0.0
  0
LINE
  5
48B
330
24F
100
AcDbEntity
  8
0
  6
Continuous
 62
     7
100
AcDbLine
 10
3193.6845147429
 20
-132.9323737126
 30
0.0
 11
3197.8119494237
 21
-132.9323737126
 31
0.0
  0
LINE
  5
48C
330
24F
100
AcDbEntity
  8
0
  6
Continuous
 62
     7
100
AcDbLine
 10
3201.6119494237
 20
-132.9323737126
 30
0.0
 11
3205.7393841046
 21
-132.9323737126
 31
0.0
  0
LINE
  5
48D
330
24F
100
AcDbEntity
  8
0
  6
Continuous
 62
     7
100
AcDbLine
 10
3206.127812613
 20
-132.3558857029
 30
0.0
 11
3201.6119494237
 21
-132.3558857029
 31
0.0
  0
LINE
  5
48E
330
24F
100
AcDbEntity
  8
0
  6
Continuous
 62
     7
100
AcDbLine
 10
3193.296086234501
 20
-132.3558857029
 30
0.0
 11
3197.8119494237
 21
-132.3558857029
 31
0.0
  0
LINE
  5
48F
330
24F
100
AcDbEntity
  8
0
  6
Continuous
 62
     7
100
AcDbLine
 10
3205.9619494237
 20
-132.0441297078
 30
0.0
 11
3201.6119494237
 21
-132.0441297078
 31
0.0
  0
LINE
  5
490
330
24F
100
AcDbEntity
  8
0
  6
Continuous
 62
     7
100
AcDbLine
 10
3197.8119494237
 20
-132.0441297078
 30
0.0
 11
3193.4619494237
 21
-132.0441297078
 31
0.0
  0
LINE
  5
491
330
24F
100
AcDbEntity
  8
0
  6
Continuous
 62
     7
100
AcDbLine
 10
3193.6845147429
 20
-131.7323737126
 30
0.0
 11
3197.8119494237
 21
-131.7323737126
 31
0.0
  0
LINE
  5
492
330
24F
100
AcDbEntity
  8
0
  6
Continuous
 62
     7
100
AcDbLine
 10
3201.6119494237
 20
-131.7323737126
 30
0.0
 11
3205.7393841046
 21
-131.7323737126
 31
0.0
  0
LINE
  5
493
330
24F
100
AcDbEntity
  8
0
  6
Continuous
 62
     7
100
AcDbLine
 10
3206.127812613
 20
-131.1558857029
 30
0.0
 11
3201.6119494237
 21
-131.1558857029
 31
0.0
  0
LINE
  5
494
330
24F
100
AcDbEntity
  8
0
  6
Continuous
 62
     7
100
AcDbLine
 10
3193.296086234501
 20
-131.1558857029
 30
0.0
 11
3197.8119494237
 21
-131.1558857029
 31
0.0
  0
LINE
  5
495
330
24F
100
AcDbEntity
  8
0
  6
Continuous
 62
     7
100
AcDbLine
 10
3205.9619494237
 20
-130.8441297078
 30
0.0
 11
3201.6119494237
 21
-130.8441297078
 31
0.0
  0
LINE
  5
496
330
24F
100
AcDbEntity
  8
0
  6
Continuous
 62
     7
100
AcDbLine
 10
3197.8119494237
 20
-130.8441297078
 30
0.0
 11
3193.4619494237
 21
-130.8441297078
 31
0.0
  0
LINE
  5
497
330
24F
100
AcDbEntity
  8
0
  6
Continuous
 62
     7
100
AcDbLine
 10
3193.6845147429
 20
-130.5323737126
 30
0.0
 11
3197.8119494237
 21
-130.5323737126
 31
0.0
  0
LINE
  5
498
330
24F
100
AcDbEntity
  8
0
  6
Continuous
 62
     7
100
AcDbLine
 10
3201.6119494237
 20
-130.5323737126
 30
0.0
 11
3205.7393841046
 21
-130.5323737126
 31
0.0
  0
LINE
  5
499
330
24F
100
AcDbEntity
  8
0
  6
Continuous
 62
     7
100
AcDbLine
 10
3206.127812613
 20
-129.9558857029
 30
0.0
 11
3201.6119494237
 21
-129.9558857029
 31
0.0
  0
LINE
  5
49A
330
24F
100
AcDbEntity
  8
0
  6
Continuous
 62
     7
100
AcDbLine
 10
3193.296086234501
 20
-129.9558857029
 30
0.0
 11
3197.8119494237
 21
-129.9558857029
 31
0.0
  0
LINE
  5
49B
330
24F
100
AcDbEntity
  8
0
  6
Continuous
 62
     7
100
AcDbLine
 10
3205.9619494237
 20
-129.6441297078
 30
0.0
 11
3201.6119494237
 21
-129.6441297078
 31
0.0
  0
LINE
  5
49C
330
24F
100
AcDbEntity
  8
0
  6
Continuous
 62
     7
100
AcDbLine
 10
3197.8119494237
 20
-129.6441297078
 30
0.0
 11
3193.4619494237
 21
-129.6441297078
 31
0.0
  0
LINE
  5
49D
330
24F
100
AcDbEntity
  8
0
  6
Continuous
 62
     7
100
AcDbLine
 10
3193.6845147429
 20
-129.3323737126
 30
0.0
 11
3197.8119494237
 21
-129.3323737126
 31
0.0
  0
LINE
  5
49E
330
24F
100
AcDbEntity
  8
0
  6
Continuous
 62
     7
100
AcDbLine
 10
3201.6119494237
 20
-129.3323737126
 30
0.0
 11
3205.7393841046
 21
-129.3323737126
 31
0.0
  0
LINE
  5
49F
330
24F
100
AcDbEntity
  8
0
  6
Continuous
 62
     7
100
AcDbLine
 10
3206.127812613
 20
-128.7558857029
 30
0.0
 11
3201.6119494237
 21
-128.7558857029
 31
0.0
  0
LINE
  5
4A0
330
24F
100
AcDbEntity
  8
0
  6
Continuous
 62
     7
100
AcDbLine
 10
3193.296086234501
 20
-128.7558857029
 30
0.0
 11
3197.8119494237
 21
-128.7558857029
 31
0.0
  0
LINE
  5
4A1
330
24F
100
AcDbEntity
  8
0
  6
Continuous
 62
     7
100
AcDbLine
 10
3205.9619494237
 20
-128.4441297078
 30
0.0
 11
3201.6119494237
 21
-128.4441297078
 31
0.0
  0
LINE
  5
4A2
330
24F
100
AcDbEntity
  8
0
  6
Continuous
 62
     7
100
AcDbLine
 10
3197.8119494237
 20
-128.4441297078
 30
0.0
 11
3193.4619494237
 21
-128.4441297078
 31
0.0
  0
LINE
  5
4A3
330
24F
100
AcDbEntity
  8
0
  6
Continuous
 62
     7
100
AcDbLine
 10
3193.6845147429
 20
-128.1323737126
 30
0.0
 11
3197.8119494237
 21
-128.1323737126
 31
0.0
  0
LINE
  5
4A4
330
24F
100
AcDbEntity
  8
0
  6
Continuous
 62
     7
100
AcDbLine
 10
3201.6119494237
 20
-128.1323737126
 30
0.0
 11
3205.7393841046
 21
-128.1323737126
 31
0.0
  0
LINE
  5
4A5
330
24F
100
AcDbEntity
  8
0
  6
Continuous
 62
     7
100
AcDbLine
 10
3206.127812613
 20
-127.5558857029
 30
0.0
 11
3201.6119494237
 21
-127.5558857029
 31
0.0
  0
LINE
  5
4A6
330
24F
100
AcDbEntity
  8
0
  6
Continuous
 62
     7
100
AcDbLine
 10
3193.296086234501
 20
-127.5558857029
 30
0.0
 11
3197.8119494237
 21
-127.5558857029
 31
0.0
  0
LINE
  5
4A7
330
24F
100
AcDbEntity
  8
0
  6
Continuous
 62
     7
100
AcDbLine
 10
3205.9619494237
 20
-127.2441297078
 30
0.0
 11
3201.6119494237
 21
-127.2441297078
 31
0.0
  0
LINE
  5
4A8
330
24F
100
AcDbEntity
  8
0
  6
Continuous
 62
     7
100
AcDbLine
 10
3197.8119494237
 20
-127.2441297078
 30
0.0
 11
3193.4619494237
 21
-127.2441297078
 31
0.0
  0
LINE
  5
4A9
330
24F
100
AcDbEntity
  8
0
  6
Continuous
 62
     7
100
AcDbLine
 10
3203.7119494237
 20
-127.0441297078
 30
0.0
 11
3203.2119494237
 21
-127.0441297078
 31
0.0
  0
LINE
  5
4AA
330
24F
100
AcDbEntity
  8
0
  6
Continuous
 62
     7
100
AcDbLine
 10
3197.8119494237
 20
-127.0441297078
 30
0.0
 11
3197.3119494237
 21
-127.0441297078
 31
0.0
  0
LINE
  5
4AB
330
24F
100
AcDbEntity
  8
0
  6
Continuous
 62
     7
100
AcDbLine
 10
3195.1847494893
 20
-127.0441297078
 30
0.0
 11
3194.7119494237
 21
-127.0441297078
 31
0.0
  0
LINE
  5
4AC
330
24F
100
AcDbEntity
  8
0
  6
Continuous
 62
     7
100
AcDbLine
 10
3193.9673867772
 20
-127.0441297078
 30
0.0
 11
3193.4119494237
 21
-127.0441297078
 31
0.0
  0
LINE
  5
4AD
330
24F
100
AcDbEntity
  8
0
  6
Continuous
 62
     7
100
AcDbLine
 10
3205.456512070301
 20
-127.0441297078
 30
0.0
 11
3206.0119494237
 21
-127.0441297078
 31
0.0
  0
LINE
  5
4AE
330
24F
100
AcDbEntity
  8
0
  6
Continuous
 62
     7
100
AcDbLine
 10
3197.8119494237
 20
-124.5441297078
 30
0.0
 11
3197.3119494237
 21
-124.5441297078
 31
0.0
  0
LINE
  5
4AF
330
24F
100
AcDbEntity
  8
0
  6
Continuous
 62
     7
100
AcDbLine
 10
3195.2119494237
 20
-124.5441297078
 30
0.0
 11
3194.7119494237
 21
-124.5441297078
 31
0.0
  0
LINE
  5
4B0
330
24F
100
AcDbEntity
  8
0
  6
Continuous
 62
     7
100
AcDbLine
 10
3203.7119494237
 20
-124.0441297078
 30
0.0
 11
3203.2119494237
 21
-124.0441297078
 31
0.0
  0
LWPOLYLINE
  5
4B1
330
24F
100
AcDbEntity
  8
0
  6
Continuous
 62
     7
100
AcDbPolyline
 90
       10
 70
     0
 43
0.0
 10
3543.8056317701
 20
-111.144128118
 10
3545.1594451419
 20
-111.05661421
 10
3546.7420959777
 20
-110.7280074669
 10
3548.210806568
 20
-110.1826461823
 10
3549.5060413691
 20
-109.4756425493
 10
3550.6197392656
 20
-108.6563158552
 10
3551.5689858251
 20
-107.7531320869
 10
3552.3569062851
 20
-106.8023964937
 10
3552.981088105101
 20
-105.8570174197
 10
3553.0936917991
 20
-105.6441297078
  0
LINE
  5
4B2
330
24F
100
AcDbEntity
  8
06___PRT_ALL_SURFS
  6
Continuous
 62
     7
100
AcDbLine
 10
3353.317345595801
 20
-121.2573138224
 30
0.0
 11
3353.5261104869
 21
-121.2452629349
 31
0.0
  0
LINE
  5
4B3
330
24F
100
AcDbEntity
  8
0
  6
Continuous
 62
     7
100
AcDbLine
 10
3341.3955819703
 20
-121.9315312515
 30
0.0
 11
3353.443074447
 21
-121.2499980066
 31
0.0
  0
LINE
  5
4B4
330
24F
100
AcDbEntity
  8
0
  6
Continuous
 62
     7
100
AcDbLine
 10
3605.610554125801
 20
-109.6620007252
 30
0.0
 11
3606.606189311
 21
-109.608161783
 31
0.0
  0
LINE
  5
4B5
330
24F
100
AcDbEntity
  8
0
  6
Continuous
 62
     7
100
AcDbLine
 10
3601.7220921053
 20
-109.8642053658
 30
0.0
 11
3605.610554125801
 21
-109.6620007252
 31
0.0
  0
LINE
  5
4B6
330
24F
100
AcDbEntity
  8
06___PRT_ALL_SURFS
  6
Continuous
 62
     7
100
AcDbLine
 10
3353.5261104869
 20
-121.2452629349
 30
0.0
 11
3355.1691024574
 21
-121.1600760788
 31
0.0
  0
LWPOLYLINE
  5
4B7
330
24F
100
AcDbEntity
  8
0
  6
Continuous
 62
     7
100
AcDbPolyline
 90
        7
 70
     0
 43
0.0
 10
3527.566310385501
 20
-113.2605023296
 10
3544.7568217095
 20
-112.4352164884
 10
3560.2599653481
 20
-111.7182090863
 10
3573.868302074301
 20
-111.111699479
 10
3585.4736304246
 20
-110.6065708974
 10
3594.8887587973
 20
-110.1893271631
 10
3601.7220921053
 20
-109.8642053658
  0
LWPOLYLINE
  5
4B8
330
24F
100
AcDbEntity
  8
0
  6
Continuous
 62
     7
100
AcDbPolyline
 90
        5
 70
     0
 43
0.0
 10
3437.983618572101
 20
-117.3082047411
 10
3445.5555283742
 20
-116.9975488089
 10
3467.685340725301
 20
-116.0759932879
 10
3488.7778091318
 20
-115.1377183573
 10
3527.566310385501
 20
-113.2605023296
  0
LWPOLYLINE
  5
4B9
330
24F
100
AcDbEntity
  8
0
  6
Continuous
 62
     7
100
AcDbPolyline
 90
        4
 70
     0
 43
0.0
 10
3320.1381604212
 20
-122.8728991098
 10
3324.7874201722
 20
-122.6987138927
 10
3331.9272094682
 20
-122.3956202353
 10
3341.3955819703
 20
-121.9315312515
  0
LWPOLYLINE
  5
4BA
330
24F
100
AcDbEntity
  8
0
  6
Continuous
 62
     7
100
AcDbPolyline
 90
       26
 70
     0
 43
0.0
 10
3379.304511774601
 20
-110.643910678
 10
3379.8270050158
 20
-110.6276468864
 10
3380.3335777069
 20
-110.5872330235
 10
3380.8245836133
 20
-110.524724155
 10
3381.3004354427
 20
-110.4418528178
 10
3381.7617730886
 20
-110.3400468313
 10
3382.2093755909
 20
-110.2204298665
 10
3382.6439665315
 20
-110.0838625095
 10
3383.0659965971
 20
-109.9311466833
 10
3383.4761910744
 20
-109.762932977
 10
3383.875084044
 20
-109.5797331483
 10
3384.2622429091
 20
-109.3823607417
 10
3384.637224917101
 20
-109.1716387284
 10
3384.9998003593
 20
-108.9482865464
 10
3385.349757355301
 20
-108.7129859898
 10
3385.686823201
 20
-108.4664371192
 10
3386.010249252801
 20
-108.2098089597
 10
3386.3196370373
 20
-107.944222911
 10
3386.6147982126
 20
-107.6706942555
 10
3386.8955303774
 20
-107.3903002024
 10
3387.1616452269
 20
-107.1041606766
 10
3387.4124373375
 20
-106.8140732431
 10
3387.6468516656
 20
-106.5225929687
 10
3387.86674682
 20
-106.228761415
 10
3388.073571197001
 20
-105.9316655907
 10
3388.2595955297
 20
-105.6441297078
  0
LINE
  5
4BB
330
24F
100
AcDbEntity
  8
0
  6
Continuous
 62
     7
100
AcDbLine
 10
3318.4053610077
 20
-122.9252032393
 30
0.0
 11
3320.1381604212
 21
-122.8728991098
 31
0.0
  0
LINE
  5
4BC
330
24F
100
AcDbEntity
  8
0
  6
Continuous
 62
     7
100
AcDbLine
 10
3201.1119494237
 20
-119.4441297078
 30
0.0
 11
3198.3119494237
 21
-119.4441297078
 31
0.0
  0
LINE
  5
4BD
330
24F
100
AcDbEntity
  8
0
  6
Continuous
 62
     7
100
AcDbLine
 10
3203.7119494237
 20
-118.0441297078
 30
0.0
 11
3203.2119494237
 21
-118.0441297078
 31
0.0
  0
LINE
  5
4BE
330
24F
100
AcDbEntity
  8
0
  6
Continuous
 62
     7
100
AcDbLine
 10
3197.8119494237
 20
-118.0441297078
 30
0.0
 11
3197.3119494237
 21
-118.0441297078
 31
0.0
  0
LINE
  5
4BF
330
24F
100
AcDbEntity
  8
0
  6
Continuous
 62
     7
100
AcDbLine
 10
3195.2119494237
 20
-118.0441297078
 30
0.0
 11
3194.7119494237
 21
-118.0441297078
 31
0.0
  0
LINE
  5
4C0
330
24F
100
AcDbEntity
  8
0
  6
Continuous
 62
     7
100
AcDbLine
 10
3193.9673867772
 20
-118.0441297078
 30
0.0
 11
3191.7119494237
 21
-118.0441297078
 31
0.0
  0
LINE
  5
4C1
330
24F
100
AcDbEntity
  8
0
  6
Continuous
 62
     7
100
AcDbLine
 10
3205.456512070301
 20
-118.0441297078
 30
0.0
 11
3207.7119494237
 21
-118.0441297078
 31
0.0
  0
LINE
  5
4C2
330
24F
100
AcDbEntity
  8
02___PRT_ALL_AXES
  6
Continuous
 62
     7
100
AcDbLine
 10
3191.2119494237
 20
-117.4441297078
 30
0.0
 11
3208.2119494237
 21
-117.4441297078
 31
0.0
  0
LINE
  5
4C3
330
24F
100
AcDbEntity
  8
02___PRT_ALL_AXES
  6
Continuous
 62
     7
100
AcDbLine
 10
3191.2119494237
 20
-116.1441297078
 30
0.0
 11
3208.2119494237
 21
-116.1441297078
 31
0.0
  0
LINE
  5
4C4
330
24F
100
AcDbEntity
  8
0
  6
Continuous
 62
     7
100
AcDbLine
 10
3202.7119494237
 20
-112.1441297078
 30
0.0
 11
3196.7119494237
 21
-112.1441297078
 31
0.0
  0
LINE
  5
4C5
330
24F
100
AcDbEntity
  8
0
  6
Continuous
 62
     7
100
AcDbLine
 10
3543.805675052701
 20
-111.1441281312
 30
0.0
 11
3534.2236674172
 21
-111.1441297078
 31
0.0
  0
LINE
  5
4C6
330
24F
100
AcDbEntity
  8
0
  6
Continuous
 62
     7
100
AcDbLine
 10
3184.2619494266
 20
-111.1441297078
 30
0.0
 11
3229.7619494237
 21
-111.1441297078
 31
0.0
  0
LINE
  5
4C7
330
24F
100
AcDbEntity
  8
0
  6
Continuous
 62
     7
100
AcDbLine
 10
3379.304511774601
 20
-110.643910678
 30
0.0
 11
3376.7961268124
 21
-110.6441297078
 31
0.0
  0
LINE
  5
4C8
330
24F
100
AcDbEntity
  8
0
  6
Continuous
 62
     7
100
AcDbLine
 10
3271.4019494237
 20
-105.6441297078
 30
0.0
 11
3670.4581191305
 21
-105.6441297078
 31
0.0
  0
LINE
  5
4C9
330
24F
100
AcDbEntity
  8
0
  6
Continuous
 62
     7
100
AcDbLine
 10
3309.311916565
 20
-105.3441297078
 30
0.0
 11
3678.0104836002
 21
-105.3441297078
 31
0.0
  0
LINE
  5
4CA
330
24F
100
AcDbEntity
  8
0
  6
Continuous
 62
     7
100
AcDbLine
 10
3184.2619494237
 20
-104.6441297078
 30
0.0
 11
3229.7619494237
 21
-104.6441297078
 31
0.0
  0
LINE
  5
4CB
330
24F
100
AcDbEntity
  8
0
  6
Continuous
 62
     7
100
AcDbLine
 10
3534.2182235133
 20
-111.144128131
 30
0.0
 11
3534.2236674172
 21
-111.1441297078
 31
0.0
  0
LINE
  5
4CC
330
24F
100
AcDbEntity
  8
0
  6
Continuous
 62
     7
100
AcDbLine
 10
3186.2619494245
 20
-102.6441297078
 30
0.0
 11
3227.7619494237
 21
-102.6441297078
 31
0.0
  0
LINE
  5
4CD
330
24F
100
AcDbEntity
  8
0
  6
Continuous
 62
     7
100
AcDbLine
 10
3498.011842620201
 20
-75.246295863
 30
0.0
 11
3498.0119494237
 21
-105.3441297078
 31
0.0
  0
LINE
  5
4CE
330
24F
100
AcDbEntity
  8
0
  6
Continuous
 62
     7
100
AcDbLine
 10
3498.1109169196
 20
-67.69935414959999
 30
0.0
 11
3498.0119494237
 21
-75.24629702989999
 31
0.0
  0
LWPOLYLINE
  5
4CF
330
24F
100
AcDbEntity
  8
06___PRT_ALL_SURFS
  6
Continuous
 62
     7
100
AcDbPolyline
 90
       10
 70
     0
 43
0.0
 10
3524.930205976801
 20
-105.6441297078
 10
3525.042793256901
 20
-105.8569877088
 10
3525.6669603854
 20
-106.8023528465
 10
3526.4548745438
 20
-107.753090706
 10
3527.4041183951
 20
-108.6562812233
 10
3528.5178182166
 20
-109.475617424
 10
3529.8130591298
 20
-110.1826309797
 10
3531.2817886141
 20
-110.7280033508
 10
3532.86445728
 20
-111.0566146717
 10
3534.2182667982
 20
-111.1441281179
  0
LINE
  5
4D0
330
24F
100
AcDbEntity
  8
06___PRT_ALL_SURFS
  6
Continuous
 62
     7
100
AcDbLine
 10
3678.0119494237
 20
-105.3441297078
 30
0.0
 11
3676.810779236501
 21
-75.9755384528
 31
0.0
  0
ARC
  5
5B7
330
24F
100
AcDbEntity
  8
0
  6
Continuous
 62
     7
100
AcDbCircle
 10
2779.4864706287
 20
-495.3897571651999
 30
0.0
 40
384.7860832551
100
AcDbArc
 50
94.1291480932
 51
94.25888052059999
  0
ARC
  5
5B8
330
24F
100
AcDbEntity
  8
0
  6
Continuous
 62
     7
100
AcDbCircle
 10
2715.9063351819
 20
6312.8261831186
 30
0.0
 40
6388.880176478299
100
AcDbArc
 50
269.8229874501
 51
269.9644537242
  0
ARC
  5
5B9
330
24F
100
AcDbEntity
  8
0
  6
Continuous
 62
     7
100
AcDbCircle
 10
2018.7480284319
 20
-131.5210780156
 30
0.0
 40
1000.0
100
AcDbArc
 50
1.5
 51
3.3283730461
  0
ARC
  5
5BA
330
24F
100
AcDbEntity
  8
0
  6
Continuous
 62
     7
100
AcDbCircle
 10
2779.3046391445
 20
314.8138420521
 30
0.0
 40
436.4387292136
100
AcDbArc
 50
266.0451705119
 51
266.3786924596
  0
ARC
  5
5BB
330
24F
100
AcDbEntity
  8
0
  6
Continuous
 62
     7
100
AcDbCircle
 10
2628.8393917165
 20
-131.5564628717
 30
0.0
 40
304.5654179736
100
AcDbArc
 50
358.7606112793
 51
359.1369214198
  0
ARC
  5
5BC
330
24F
100
AcDbEntity
  8
0
  6
Continuous
 62
     7
100
AcDbCircle
 10
2452.8393917166
 20
-131.5564628717
 30
0.0
 40
304.5654179735
100
AcDbArc
 50
358.7606112793
 51
359.1369214198
  0
ARC
  5
5BD
330
24F
100
AcDbEntity
  8
0
  6
Continuous
 62
     7
100
AcDbCircle
 10
2742.3647107457
 20
-0.6202208917
 30
0.0
 40
232.7155294912
100
AcDbArc
 50
324.6288618515
 51
324.8027378195
  0
ARC
  5
5BE
330
24F
100
AcDbEntity
  8
0
  6
Continuous
 62
     7
100
AcDbCircle
 10
2742.3647107457
 20
1.7797791083
 30
0.0
 40
232.7155294912
100
AcDbArc
 50
324.6288618515
 51
324.8027378195
  0
ARC
  5
5BF
330
24F
100
AcDbEntity
  8
0
  6
Continuous
 62
     7
100
AcDbCircle
 10
2742.3647107457
 20
2.979779108299999
 30
0.0
 40
232.7155294912
100
AcDbArc
 50
324.6288618515
 51
324.8027378195
  0
ARC
  5
5C0
330
24F
100
AcDbEntity
  8
0
  6
Continuous
 62
     7
100
AcDbCircle
 10
2742.3647107457
 20
4.179779108299999
 30
0.0
 40
232.7155294912
100
AcDbArc
 50
324.6288618515
 51
324.8027378195
  0
ARC
  5
5C1
330
24F
100
AcDbEntity
  8
0
  6
Continuous
 62
     7
100
AcDbCircle
 10
2742.3647107457
 20
5.3797791083
 30
0.0
 40
232.7155294912
100
AcDbArc
 50
324.6288618515
 51
324.8027378195
  0
ARC
  5
5C2
330
24F
100
AcDbEntity
  8
0
  6
Continuous
 62
     7
100
AcDbCircle
 10
2742.3647107457
 20
6.5797791083
 30
0.0
 40
232.7155294912
100
AcDbArc
 50
324.6288618515
 51
324.8027378195
  0
ARC
  5
5C3
330
24F
100
AcDbEntity
  8
0
  6
Continuous
 62
     7
100
AcDbCircle
 10
2566.3647107457
 20
-0.6202208917
 30
0.0
 40
232.7155294912
100
AcDbArc
 50
324.6288618515
 51
324.8027378195
  0
ARC
  5
5C4
330
24F
100
AcDbEntity
  8
0
  6
Continuous
 62
     7
100
AcDbCircle
 10
2566.3647107457
 20
1.7797791083
 30
0.0
 40
232.7155294912
100
AcDbArc
 50
324.6288618515
 51
324.8027378195
  0
ARC
  5
5C5
330
24F
100
AcDbEntity
  8
0
  6
Continuous
 62
     7
100
AcDbCircle
 10
2566.3647107457
 20
2.979779108299999
 30
0.0
 40
232.7155294912
100
AcDbArc
 50
324.6288618515
 51
324.8027378195
  0
ARC
  5
5C6
330
24F
100
AcDbEntity
  8
0
  6
Continuous
 62
     7
100
AcDbCircle
 10
2566.3647107457
 20
4.179779108299999
 30
0.0
 40
232.7155294912
100
AcDbArc
 50
324.6288618515
 51
324.8027378195
  0
ARC
  5
5C7
330
24F
100
AcDbEntity
  8
0
  6
Continuous
 62
     7
100
AcDbCircle
 10
2566.3647107457
 20
5.3797791083
 30
0.0
 40
232.7155294912
100
AcDbArc
 50
324.6288618515
 51
324.8027378195
  0
ARC
  5
5C8
330
24F
100
AcDbEntity
  8
0
  6
Continuous
 62
     7
100
AcDbCircle
 10
2566.3647107457
 20
6.5797791083
 30
0.0
 40
232.7155294912
100
AcDbArc
 50
324.6288618515
 51
324.8027378195
  0
ARC
  5
5C9
330
24F
100
AcDbEntity
  8
0
  6
Continuous
 62
     7
100
AcDbCircle
 10
2742.364710749
 20
0.5797791060000001
 30
0.0
 40
232.7155294872
100
AcDbArc
 50
324.6288618515
 51
324.8027378195
  0
ARC
  5
5CA
330
24F
100
AcDbEntity
  8
0
  6
Continuous
 62
     7
100
AcDbCircle
 10
2566.364710749
 20
0.5797791060000001
 30
0.0
 40
232.7155294872
100
AcDbArc
 50
324.6288618515
 51
324.8027378195
  0
ARC
  5
5CB
330
24F
100
AcDbEntity
  8
0
  6
Continuous
 62
     7
100
AcDbCircle
 10
2761.906479165
 20
-15.6657533232
 30
0.0
 40
208.7660237438
100
AcDbArc
 50
324.4840430305
 51
324.7533203236
  0
ARC
  5
5CC
330
24F
100
AcDbEntity
  8
0
  6
Continuous
 62
     7
100
AcDbCircle
 10
2585.9064792342
 20
-15.6657533723
 30
0.0
 40
208.7660236589
100
AcDbArc
 50
324.4840430304
 51
324.7533203237
  0
ARC
  5
5CD
330
24F
100
AcDbEntity
  8
0
  6
Continuous
 62
     7
100
AcDbCircle
 10
2809.3788766925
 20
-132.0160581427
 30
0.0
 40
120.1171779921
100
AcDbArc
 50
357.0756461878
 51
357.3991815573001
  0
ARC
  5
5CE
330
24F
100
AcDbEntity
  8
0
  6
Continuous
 62
     7
100
AcDbCircle
 10
2633.378876756
 20
-132.0160581457
 30
0.0
 40
120.1171779285
100
AcDbArc
 50
357.0756461876
 51
357.3991815573001
  0
ARC
  5
5CF
330
24F
100
AcDbEntity
  8
0
  6
Continuous
 62
     7
100
AcDbCircle
 10
2738.543973539
 20
-94.3076584746
 30
0.0
 40
25.0929627667
100
AcDbArc
 50
257.9909631664
 51
258.2162233721
  0
ARC
  5
5D0
330
24F
100
AcDbEntity
  8
0
  6
Continuous
 62
     7
100
AcDbCircle
 10
2667.6346709958
 20
-75.6971705616
 30
0.0
 40
8.0000768282
100
AcDbArc
 50
91.35777815169999
 51
176.7691547964
  0
ARC
  5
5D1
330
24F
100
AcDbEntity
  8
0
  6
Continuous
 62
     7
100
AcDbCircle
 10
2667.7321107352
 20
-73.92691753539999
 30
0.0
 40
7.9961086069
100
AcDbArc
 50
91.3570922867
 51
176.6716263233
  0
ARC
  5
5D2
330
24F
100
AcDbEntity
  8
0
  6
Continuous
 62
     7
100
AcDbCircle
 10
2750.3802304101
 20
-130.9106291967
 30
0.0
 40
6.051448793099999
100
AcDbArc
 50
274.413943719
 51
282.1641785288
  0
ARC
  5
5D3
330
24F
100
AcDbEntity
  8
0
  6
Continuous
 62
     7
100
AcDbCircle
 10
2750.4304764049
 20
-130.9106291967
 30
0.0
 40
6.051448793099999
100
AcDbArc
 50
257.8358214712
 51
265.586056281
  0
ARC
  5
5D4
330
24F
100
AcDbEntity
  8
0
  6
Continuous
 62
     7
100
AcDbCircle
 10
2743.9053534075
 20
-153.1441297078
 30
0.0
 40
0.5
100
AcDbArc
 50
180.0
 51
270.0
  0
ARC
  5
5D5
330
24F
100
AcDbEntity
  8
0
  6
Continuous
 62
     7
100
AcDbCircle
 10
2756.9053534075
 20
-153.1441297078
 30
0.0
 40
0.5
100
AcDbArc
 50
270.0
 51
360.0
  0
ARC
  5
5D6
330
24F
100
AcDbEntity
  8
06___PRT_ALL_SURFS
  6
Continuous
 62
     7
100
AcDbCircle
 10
2838.4053534075
 20
-7278.321029599699
 30
0.0
 40
7214.4116199988
100
AcDbArc
 50
88.6461933474
 51
91.35380665259999
  0
ARC
  5
5D7
330
24F
100
AcDbEntity
  8
0
  6
Continuous
 62
     7
100
AcDbCircle
 10
2897.3103025299
 20
-495.5787228883
 30
0.0
 40
384.9755619347
100
AcDbArc
 50
85.7410639639
 51
85.8731002206
  0
ARC
  5
5D8
330
24F
100
AcDbEntity
  8
0
  6
Continuous
 62
     7
100
AcDbCircle
 10
2960.904371633
 20
6312.826183037
 30
0.0
 40
6388.8801763968
100
AcDbArc
 50
270.0355462758
 51
270.1770125499
  0
ARC
  5
5D9
330
24F
100
AcDbEntity
  8
0
  6
Continuous
 62
     7
100
AcDbCircle
 10
3658.062678383
 20
-131.5210780156
 30
0.0
 40
1000.0
100
AcDbArc
 50
176.6716269539
 51
178.5
  0
ARC
  5
5DA
330
24F
100
AcDbEntity
  8
0
  6
Continuous
 62
     7
100
AcDbCircle
 10
2897.5060676714
 20
314.8138420387
 30
0.0
 40
436.4387292001
100
AcDbArc
 50
273.6213075404
 51
273.9548294881
  0
ARC
  5
5DB
330
24F
100
AcDbEntity
  8
0
  6
Continuous
 62
     7
100
AcDbCircle
 10
3223.9713150985
 20
-131.5564628717
 30
0.0
 40
304.5654179736
100
AcDbArc
 50
180.8630785802
 51
181.2393887207
  0
ARC
  5
5DC
330
24F
100
AcDbEntity
  8
0
  6
Continuous
 62
     7
100
AcDbCircle
 10
3047.971315098401
 20
-131.5564628717
 30
0.0
 40
304.5654179736
100
AcDbArc
 50
180.8630785802
 51
181.2393887207
  0
ARC
  5
5DD
330
24F
100
AcDbEntity
  8
0
  6
Continuous
 62
     7
100
AcDbCircle
 10
3110.4459960725
 20
2.9797791106
 30
0.0
 40
232.7155294952
100
AcDbArc
 50
215.1972621805
 51
215.3711381485
  0
ARC
  5
5DE
330
24F
100
AcDbEntity
  8
0
  6
Continuous
 62
     7
100
AcDbCircle
 10
2934.4459960725
 20
2.9797791106
 30
0.0
 40
232.7155294952
100
AcDbArc
 50
215.1972621805
 51
215.3711381485
  0
ARC
  5
5DF
330
24F
100
AcDbEntity
  8
0
  6
Continuous
 62
     7
100
AcDbCircle
 10
3110.4459960693
 20
6.5797791083
 30
0.0
 40
232.7155294912
100
AcDbArc
 50
215.1972621805
 51
215.3711381485
  0
ARC
  5
5E0
330
24F
100
AcDbEntity
  8
0
  6
Continuous
 62
     7
100
AcDbCircle
 10
3110.4459960692
 20
5.3797791083
 30
0.0
 40
232.7155294912
100
AcDbArc
 50
215.1972621805
 51
215.3711381485
  0
ARC
  5
5E1
330
24F
100
AcDbEntity
  8
0
  6
Continuous
 62
     7
100
AcDbCircle
 10
3110.4459960693
 20
4.179779108299999
 30
0.0
 40
232.7155294912
100
AcDbArc
 50
215.1972621805
 51
215.3711381485
  0
ARC
  5
5E2
330
24F
100
AcDbEntity
  8
0
  6
Continuous
 62
     7
100
AcDbCircle
 10
3110.4459960693
 20
0.5797791083
 30
0.0
 40
232.7155294912
100
AcDbArc
 50
215.1972621805
 51
215.3711381485
  0
ARC
  5
5E3
330
24F
100
AcDbEntity
  8
0
  6
Continuous
 62
     7
100
AcDbCircle
 10
3110.4459960693
 20
-0.6202208917
 30
0.0
 40
232.7155294912
100
AcDbArc
 50
215.1972621805
 51
215.3711381485
  0
ARC
  5
5E4
330
24F
100
AcDbEntity
  8
0
  6
Continuous
 62
     7
100
AcDbCircle
 10
2934.4459960693
 20
6.5797791083
 30
0.0
 40
232.7155294912
100
AcDbArc
 50
215.1972621805
 51
215.3711381485
  0
ARC
  5
5E5
330
24F
100
AcDbEntity
  8
0
  6
Continuous
 62
     7
100
AcDbCircle
 10
2934.4459960693
 20
5.3797791083
 30
0.0
 40
232.7155294912
100
AcDbArc
 50
215.1972621805
 51
215.3711381485
  0
ARC
  5
5E6
330
24F
100
AcDbEntity
  8
0
  6
Continuous
 62
     7
100
AcDbCircle
 10
2934.4459960693
 20
4.179779108299999
 30
0.0
 40
232.7155294912
100
AcDbArc
 50
215.1972621805
 51
215.3711381485
  0
ARC
  5
5E7
330
24F
100
AcDbEntity
  8
0
  6
Continuous
 62
     7
100
AcDbCircle
 10
2934.4459960693
 20
0.5797791083
 30
0.0
 40
232.7155294912
100
AcDbArc
 50
215.1972621805
 51
215.3711381485
  0
ARC
  5
5E8
330
24F
100
AcDbEntity
  8
0
  6
Continuous
 62
     7
100
AcDbCircle
 10
2934.4459960693
 20
-0.6202208917
 30
0.0
 40
232.7155294912
100
AcDbArc
 50
215.1972621805
 51
215.3711381485
  0
ARC
  5
5E9
330
24F
100
AcDbEntity
  8
0
  6
Continuous
 62
     7
100
AcDbCircle
 10
3110.445996066
 20
1.779779105999999
 30
0.0
 40
232.7155294872
100
AcDbArc
 50
215.1972621805
 51
215.3711381485
  0
ARC
  5
5EA
330
24F
100
AcDbEntity
  8
0
  6
Continuous
 62
     7
100
AcDbCircle
 10
2934.445996066
 20
1.779779105999999
 30
0.0
 40
232.7155294872
100
AcDbArc
 50
215.1972621805
 51
215.3711381485
  0
ARC
  5
5EB
330
24F
100
AcDbEntity
  8
0
  6
Continuous
 62
     7
100
AcDbCircle
 10
2914.9042192435
 20
-15.6657592782
 30
0.0
 40
208.7660134418
100
AcDbArc
 50
215.2466796877
 51
215.5159569795
  0
ARC
  5
5EC
330
24F
100
AcDbEntity
  8
0
  6
Continuous
 62
     7
100
AcDbCircle
 10
3090.904219171501
 20
-15.6657593292
 30
0.0
 40
208.7660133536
100
AcDbArc
 50
215.2466796877
 51
215.5159569796
  0
ARC
  5
5ED
330
24F
100
AcDbEntity
  8
0
  6
Continuous
 62
     7
100
AcDbCircle
 10
2867.4318301225
 20
-132.0160581427
 30
0.0
 40
120.1171779921
100
AcDbArc
 50
182.6008184427
 51
182.9243538122
  0
ARC
  5
5EE
330
24F
100
AcDbEntity
  8
0
  6
Continuous
 62
     7
100
AcDbCircle
 10
3043.431830059001
 20
-132.0160581457
 30
0.0
 40
120.1171779285
100
AcDbArc
 50
182.6008184427
 51
182.9243538124
  0
ARC
  5
5EF
330
24F
100
AcDbEntity
  8
0
  6
Continuous
 62
     7
100
AcDbCircle
 10
2938.264704189199
 20
-94.29805803149999
 30
0.0
 40
25.102775286
100
AcDbArc
 50
281.7807196145
 51
282.009007514
  0
ARC
  5
5F0
330
24F
100
AcDbEntity
  8
0
  6
Continuous
 62
     7
100
AcDbCircle
 10
3009.1760358547
 20
-75.6971705995
 30
0.0
 40
8.000076830399999
100
AcDbArc
 50
3.2308454891
 51
88.6422221089
  0
ARC
  5
5F1
330
24F
100
AcDbEntity
  8
0
  6
Continuous
 62
     7
100
AcDbCircle
 10
3009.0785960798
 20
-73.92691753539999
 30
0.0
 40
7.9961086069
100
AcDbArc
 50
3.3283736767
 51
88.64290771330001
  0
ARC
  5
5F2
330
24F
100
AcDbEntity
  8
0
  6
Continuous
 62
     7
100
AcDbCircle
 10
2926.3802304101
 20
-130.9106291968
 30
0.0
 40
6.051448792999999
100
AcDbArc
 50
274.413943719
 51
282.1641785288
  0
ARC
  5
5F3
330
24F
100
AcDbEntity
  8
0
  6
Continuous
 62
     7
100
AcDbCircle
 10
2926.4304764049
 20
-130.9106291968
 30
0.0
 40
6.051448792999999
100
AcDbArc
 50
257.8358214712
 51
265.586056281
  0
ARC
  5
5F4
330
24F
100
AcDbEntity
  8
0
  6
Continuous
 62
     7
100
AcDbCircle
 10
2919.9053534075
 20
-153.1441297078
 30
0.0
 40
0.5
100
AcDbArc
 50
180.0
 51
270.0
  0
ARC
  5
5F5
330
24F
100
AcDbEntity
  8
0
  6
Continuous
 62
     7
100
AcDbCircle
 10
2932.9053534075
 20
-153.1441297078
 30
0.0
 40
0.5
100
AcDbArc
 50
270.0
 51
360.0
  0
ARC
  5
5F6
330
24F
100
AcDbEntity
  8
0
  6
Continuous
 62
     7
100
AcDbCircle
 10
29643.974781354
 20
-396.2100278172
 30
0.0
 40
26985.5698760678
100
AcDbArc
 50
179.8131617579999
 51
180.0104416622
  0
ARC
  5
5F7
330
24F
100
AcDbEntity
  8
0
  6
Continuous
 62
     7
100
AcDbCircle
 10
-23967.164074539
 20
-396.2100278172
 30
0.0
 40
26985.5698760678
100
AcDbArc
 50
359.9895583378
 51
0.186838242
  0
ARC
  5
5F8
330
24F
100
AcDbEntity
  8
0
  6
Continuous
 62
     7
100
AcDbCircle
 10
3036.1206280032
 20
-309.187560174
 30
0.0
 40
377.5735048438
100
AcDbArc
 50
179.0240717058
 51
179.8519296481
  0
ARC
  5
5F9
330
24F
100
AcDbEntity
  8
0
  6
Continuous
 62
     7
100
AcDbCircle
 10
2640.6900788118
 20
-309.187560174
 30
0.0
 40
377.5735048438
100
AcDbArc
 50
0.1480703519
 51
0.9759282941999998
  0
ARC
  5
5FA
330
24F
100
AcDbEntity
  8
0
  6
Continuous
 62
     7
100
AcDbCircle
 10
2838.4053534075
 20
-589.8279482687001
 30
0.0
 40
180.0
100
AcDbArc
 50
180.0
 51
360.0
  0
ARC
  5
5FB
330
24F
100
AcDbEntity
  8
0
  6
Continuous
 62
     7
100
AcDbCircle
 10
2984.9048208875
 20
-287.1897185349
 30
0.0
 40
23.9962377239
100
AcDbArc
 50
337.3795356499
 51
341.3209806844
  0
ARC
  5
5FC
330
24F
100
AcDbEntity
  8
0
  6
Continuous
 62
     7
100
AcDbCircle
 10
2691.9058859275
 20
-287.1897185349
 30
0.0
 40
23.9962377239
100
AcDbArc
 50
198.6790193156
 51
202.6204643501
  0
ARC
  5
5FD
330
24F
100
AcDbEntity
  8
0
  6
Continuous
 62
     7
100
AcDbCircle
 10
2926.4053521334
 20
-298.8279482687
 30
0.0
 40
22.75
100
AcDbArc
 50
10.3839653381
 51
169.6160345287
  0
ARC
  5
5FE
330
24F
100
AcDbEntity
  8
0
  6
Continuous
 62
     7
100
AcDbCircle
 10
2750.4053546816
 20
-298.8279482687
 30
0.0
 40
22.75
100
AcDbArc
 50
10.3839654713
 51
169.6160346619
  0
ARC
  5
5FF
330
24F
100
AcDbEntity
  8
0
  6
Continuous
 62
     7
100
AcDbCircle
 10
2926.4053521334
 20
-298.8279482687
 30
0.0
 40
20.75
100
AcDbArc
 50
11.4087415055
 51
168.5912584594
  0
ARC
  5
600
330
24F
100
AcDbEntity
  8
0
  6
Continuous
 62
     7
100
AcDbCircle
 10
2750.4053546816
 20
-298.8279482687
 30
0.0
 40
20.75
100
AcDbArc
 50
11.4087415406
 51
168.5912584945
  0
ARC
  5
601
330
24F
100
AcDbEntity
  8
06___PRT_ALL_SURFS
  6
Continuous
 62
     7
100
AcDbCircle
 10
3213.0119494237
 20
-23105.3304933307
 30
0.0
 40
23041.4210837298
100
AcDbArc
 50
88.86609281110001
 51
90.00718652519999
  0
ARC
  5
602
330
24F
100
AcDbEntity
  8
0
  6
Continuous
 62
     7
100
AcDbCircle
 10
3213.0144633574
 20
-23074.7496593974
 30
0.0
 40
23008.8166522857
100
AcDbArc
 50
89.2900442556
 51
89.9964238767
  0
ARC
  5
603
330
24F
100
AcDbEntity
  8
0
  6
Continuous
 62
     7
100
AcDbCircle
 10
3212.7171609117
 20
-22890.3320339981
 30
0.0
 40
22816.8694236056
100
AcDbArc
 50
89.28357362099999
 51
89.9956484404
  0
ARC
  5
604
330
24F
100
AcDbEntity
  8
0
  6
Continuous
 62
     7
100
AcDbCircle
 10
3197.4680668707
 20
-144.6441297078
 30
0.0
 40
10.0
100
AcDbArc
 50
353.4040781686
 51
18.4040781686
  0
ARC
  5
605
330
24F
100
AcDbEntity
  8
0
  6
Continuous
 62
     7
100
AcDbCircle
 10
3197.4680668707
 20
-144.6441297078
 30
0.0
 40
9.0
100
AcDbArc
 50
353.4040781686
 51
18.4040781686
  0
ARC
  5
606
330
24F
100
AcDbEntity
  8
0
  6
Continuous
 62
     7
100
AcDbCircle
 10
3194.7119494237
 20
-151.6441297078
 30
0.0
 40
2.0
100
AcDbArc
 50
186.5959218314
 51
270.0
  0
ARC
  5
607
330
24F
100
AcDbEntity
  8
0
  6
Continuous
 62
     7
100
AcDbCircle
 10
3194.7119494237
 20
-151.6441297078
 30
0.0
 40
1.0
100
AcDbArc
 50
186.5959218314
 51
270.0
  0
ARC
  5
608
330
24F
100
AcDbEntity
  8
0
  6
Continuous
 62
     7
100
AcDbCircle
 10
3195.2119494237
 20
-153.1441297078
 30
0.0
 40
0.5
100
AcDbArc
 50
180.0
 51
270.0000000001
  0
ARC
  5
609
330
24F
100
AcDbEntity
  8
0
  6
Continuous
 62
     7
100
AcDbCircle
 10
3199.322014308
 20
-130.543734235
 30
0.0
 40
5.4188736862
100
AcDbArc
 50
139.3296922833
 51
139.7729886613
  0
ARC
  5
60A
330
24F
100
AcDbEntity
  8
0
  6
Continuous
 62
     7
100
AcDbCircle
 10
3198.3119494237
 20
-119.9441297078
 30
0.0
 40
0.5
100
AcDbArc
 50
89.9999999999
 51
180.0
  0
ARC
  5
60B
330
24F
100
AcDbEntity
  8
0
  6
Continuous
 62
     7
100
AcDbCircle
 10
3193.5186515536
 20
-128.2441297078
 30
0.0
 40
0.2
100
AcDbArc
 50
270.0
 51
33.971466852
  0
ARC
  5
60C
330
24F
100
AcDbEntity
  8
0
  6
Continuous
 62
     7
100
AcDbCircle
 10
3193.5186515536
 20
-129.4441297078
 30
0.0
 40
0.2
100
AcDbArc
 50
270.0
 51
33.971466852
  0
ARC
  5
60D
330
24F
100
AcDbEntity
  8
0
  6
Continuous
 62
     7
100
AcDbCircle
 10
3193.5186515536
 20
-130.6441297078
 30
0.0
 40
0.2
100
AcDbArc
 50
270.0
 51
33.9714668521
  0
ARC
  5
60E
330
24F
100
AcDbEntity
  8
0
  6
Continuous
 62
     7
100
AcDbCircle
 10
3193.5186515536
 20
-131.8441297078
 30
0.0
 40
0.2
100
AcDbArc
 50
270.0
 51
33.971466852
  0
ARC
  5
60F
330
24F
100
AcDbEntity
  8
0
  6
Continuous
 62
     7
100
AcDbCircle
 10
3193.5186515536
 20
-133.0441297078
 30
0.0
 40
0.2
100
AcDbArc
 50
270.0
 51
33.971466852
  0
ARC
  5
610
330
24F
100
AcDbEntity
  8
0
  6
Continuous
 62
     7
100
AcDbCircle
 10
3193.5186515536
 20
-134.2441297078
 30
0.0
 40
0.2
100
AcDbArc
 50
270.0
 51
33.9714668521
  0
ARC
  5
611
330
24F
100
AcDbEntity
  8
0
  6
Continuous
 62
     7
100
AcDbCircle
 10
3193.5186515536
 20
-135.4441297078
 30
0.0
 40
0.2
100
AcDbArc
 50
270.0
 51
33.971466852
  0
ARC
  5
612
330
24F
100
AcDbEntity
  8
0
  6
Continuous
 62
     7
100
AcDbCircle
 10
3193.4619494237
 20
-127.4441297078
 30
0.0
 40
0.2
100
AcDbArc
 50
90.0
 51
213.9714668521
  0
ARC
  5
613
330
24F
100
AcDbEntity
  8
0
  6
Continuous
 62
     7
100
AcDbCircle
 10
3193.4619494237
 20
-128.6441297078
 30
0.0
 40
0.2
100
AcDbArc
 50
90.0
 51
213.9714668521
  0
ARC
  5
614
330
24F
100
AcDbEntity
  8
0
  6
Continuous
 62
     7
100
AcDbCircle
 10
3193.4619494237
 20
-129.8441297078
 30
0.0
 40
0.2
100
AcDbArc
 50
90.0
 51
213.9714668521
  0
ARC
  5
615
330
24F
100
AcDbEntity
  8
0
  6
Continuous
 62
     7
100
AcDbCircle
 10
3193.4619494237
 20
-131.0441297078
 30
0.0
 40
0.2
100
AcDbArc
 50
90.0
 51
213.9714668521
  0
ARC
  5
616
330
24F
100
AcDbEntity
  8
0
  6
Continuous
 62
     7
100
AcDbCircle
 10
3193.4619494237
 20
-132.2441297078
 30
0.0
 40
0.2
100
AcDbArc
 50
90.0
 51
213.9714668521
  0
ARC
  5
617
330
24F
100
AcDbEntity
  8
0
  6
Continuous
 62
     7
100
AcDbCircle
 10
3193.4619494237
 20
-133.4441297078
 30
0.0
 40
0.2
100
AcDbArc
 50
90.0
 51
213.9714668521
  0
ARC
  5
618
330
24F
100
AcDbEntity
  8
0
  6
Continuous
 62
     7
100
AcDbCircle
 10
3193.4619494237
 20
-134.6441297078
 30
0.0
 40
0.2
100
AcDbArc
 50
90.0
 51
213.9714668521
  0
ARC
  5
619
330
24F
100
AcDbEntity
  8
0
  6
Continuous
 62
     7
100
AcDbCircle
 10
3193.4619494237
 20
-135.8441297078
 30
0.0
 40
0.2
100
AcDbArc
 50
90.0
 51
213.9714668521
  0
ARC
  5
61A
330
24F
100
AcDbEntity
  8
0
  6
Continuous
 62
     7
100
AcDbCircle
 10
3201.9558319768
 20
-144.6441297078
 30
0.0
 40
10.0
100
AcDbArc
 50
161.5959218314
 51
186.5959218314
  0
ARC
  5
61B
330
24F
100
AcDbEntity
  8
0
  6
Continuous
 62
     7
100
AcDbCircle
 10
3201.9558319768
 20
-144.6441297078
 30
0.0
 40
9.0
100
AcDbArc
 50
161.5959218314
 51
186.5959218314
  0
ARC
  5
61C
330
24F
100
AcDbEntity
  8
0
  6
Continuous
 62
     7
100
AcDbCircle
 10
3204.7119494237
 20
-151.6441297078
 30
0.0
 40
2.0
100
AcDbArc
 50
270.0
 51
353.4040781686
  0
ARC
  5
61D
330
24F
100
AcDbEntity
  8
0
  6
Continuous
 62
     7
100
AcDbCircle
 10
3204.7119494237
 20
-151.6441297078
 30
0.0
 40
1.0
100
AcDbArc
 50
270.0
 51
353.4040781686
  0
ARC
  5
61E
330
24F
100
AcDbEntity
  8
0
  6
Continuous
 62
     7
100
AcDbCircle
 10
3204.2119494237
 20
-153.1441297078
 30
0.0
 40
0.5
100
AcDbArc
 50
270.0000000001
 51
360.0
  0
ARC
  5
61F
330
24F
100
AcDbEntity
  8
0
  6
Continuous
 62
     7
100
AcDbCircle
 10
3201.1119494237
 20
-119.9441297078
 30
0.0
 40
0.5
100
AcDbArc
 50
0.0
 51
89.9999999999
  0
ARC
  5
620
330
24F
100
AcDbEntity
  8
0
  6
Continuous
 62
     7
100
AcDbCircle
 10
3205.9052472939
 20
-128.2441297078
 30
0.0
 40
0.2
100
AcDbArc
 50
146.0285331479999
 51
270.0
  0
ARC
  5
621
330
24F
100
AcDbEntity
  8
0
  6
Continuous
 62
     7
100
AcDbCircle
 10
3205.9052472939
 20
-129.4441297078
 30
0.0
 40
0.2
100
AcDbArc
 50
146.0285331479999
 51
270.0
  0
ARC
  5
622
330
24F
100
AcDbEntity
  8
0
  6
Continuous
 62
     7
100
AcDbCircle
 10
3205.9052472939
 20
-130.6441297078
 30
0.0
 40
0.2
100
AcDbArc
 50
146.0285331479
 51
270.0
  0
ARC
  5
623
330
24F
100
AcDbEntity
  8
0
  6
Continuous
 62
     7
100
AcDbCircle
 10
3205.9052472939
 20
-131.8441297078
 30
0.0
 40
0.2
100
AcDbArc
 50
146.0285331479999
 51
270.0
  0
ARC
  5
624
330
24F
100
AcDbEntity
  8
0
  6
Continuous
 62
     7
100
AcDbCircle
 10
3205.9052472939
 20
-133.0441297078
 30
0.0
 40
0.2
100
AcDbArc
 50
146.0285331479999
 51
270.0
  0
ARC
  5
625
330
24F
100
AcDbEntity
  8
0
  6
Continuous
 62
     7
100
AcDbCircle
 10
3205.9052472939
 20
-134.2441297078
 30
0.0
 40
0.2
100
AcDbArc
 50
146.0285331479
 51
270.0
  0
ARC
  5
626
330
24F
100
AcDbEntity
  8
0
  6
Continuous
 62
     7
100
AcDbCircle
 10
3205.9052472939
 20
-135.4441297078
 30
0.0
 40
0.2
100
AcDbArc
 50
146.0285331479
 51
270.0
  0
ARC
  5
627
330
24F
100
AcDbEntity
  8
0
  6
Continuous
 62
     7
100
AcDbCircle
 10
3205.9619494237
 20
-127.4441297078
 30
0.0
 40
0.2
100
AcDbArc
 50
326.0285331479
 51
90.0
  0
ARC
  5
628
330
24F
100
AcDbEntity
  8
0
  6
Continuous
 62
     7
100
AcDbCircle
 10
3205.9619494237
 20
-128.6441297078
 30
0.0
 40
0.2
100
AcDbArc
 50
326.0285331479
 51
90.0
  0
ARC
  5
629
330
24F
100
AcDbEntity
  8
0
  6
Continuous
 62
     7
100
AcDbCircle
 10
3205.9619494237
 20
-129.8441297078
 30
0.0
 40
0.2
100
AcDbArc
 50
326.0285331479
 51
90.0
  0
ARC
  5
62A
330
24F
100
AcDbEntity
  8
0
  6
Continuous
 62
     7
100
AcDbCircle
 10
3205.9619494237
 20
-131.0441297078
 30
0.0
 40
0.2
100
AcDbArc
 50
326.0285331479
 51
90.0
  0
ARC
  5
62B
330
24F
100
AcDbEntity
  8
0
  6
Continuous
 62
     7
100
AcDbCircle
 10
3205.9619494237
 20
-132.2441297078
 30
0.0
 40
0.2
100
AcDbArc
 50
326.0285331479
 51
90.0
  0
ARC
  5
62C
330
24F
100
AcDbEntity
  8
0
  6
Continuous
 62
     7
100
AcDbCircle
 10
3205.9619494237
 20
-133.4441297078
 30
0.0
 40
0.2
100
AcDbArc
 50
326.0285331479
 51
90.0
  0
ARC
  5
62D
330
24F
100
AcDbEntity
  8
0
  6
Continuous
 62
     7
100
AcDbCircle
 10
3205.9619494237
 20
-134.6441297078
 30
0.0
 40
0.2
100
AcDbArc
 50
326.0285331479
 51
90.0
  0
ARC
  5
62E
330
24F
100
AcDbEntity
  8
0
  6
Continuous
 62
     7
100
AcDbCircle
 10
3205.9619494237
 20
-135.8441297078
 30
0.0
 40
0.2
100
AcDbArc
 50
326.0285331479
 51
90.0
  0
ARC
  5
62F
330
24F
100
AcDbEntity
  8
0
  6
Continuous
 62
     7
100
AcDbCircle
 10
3186.261949423701
 20
-104.6441297078
 30
0.0
 40
2.0
100
AcDbArc
 50
90.0
 51
180.0
  0
ARC
  5
630
330
24F
100
AcDbEntity
  8
0
  6
Continuous
 62
     7
100
AcDbCircle
 10
3218.011949423701
 20
-85.3441297078
 30
0.0
 40
15.1
100
AcDbArc
 50
172.0
 51
263.8558525772999
  0
ARC
  5
631
330
24F
100
AcDbEntity
  8
0
  6
Continuous
 62
     7
100
AcDbCircle
 10
3210.1225244769
 20
-68.9097171116
 30
0.0
 40
5.000126472499999
100
AcDbArc
 50
90.00717927610001
 51
172.000006008
  0
ARC
  5
632
330
24F
100
AcDbEntity
  8
0
  6
Continuous
 62
     7
100
AcDbCircle
 10
3227.7619494237
 20
-104.6441297078
 30
0.0
 40
2.0
100
AcDbArc
 50
0.0
 51
90.0
  0
ARC
  5
633
330
24F
100
AcDbEntity
  8
0
  6
Continuous
 62
     7
100
AcDbCircle
 10
3271.4019494237
 20
94.3558702922
 30
0.0
 40
200.0
100
AcDbArc
 50
261.1912362979
 51
270.0
  0
ARC
  5
634
330
24F
100
AcDbEntity
  8
0
  6
Continuous
 62
     7
100
AcDbCircle
 10
3318.294807901501
 20
-117.9264255443
 30
0.0
 40
5.0000000474
100
AcDbArc
 50
202.8987144072
 51
271.2669485146
  0
ARC
  5
635
330
24F
100
AcDbEntity
  8
0
  6
Continuous
 62
     7
100
AcDbCircle
 10
3309.311916565
 20
762.7858702922
 30
0.0
 40
868.13
100
AcDbArc
 50
263.8558525772999
 51
270.0
  0
ARC
  5
636
330
24F
100
AcDbEntity
  8
0
  6
Continuous
 62
     7
100
AcDbCircle
 10
3633.830280338901
 20
11305.825317179
 30
0.0
 40
11381.8819931655
100
AcDbArc
 50
269.3162810897
 51
269.5371445908
  0
ARC
  5
637
330
24F
100
AcDbEntity
  8
0
  6
Continuous
 62
     7
100
AcDbCircle
 10
3571.5239184834
 20
-116.5484488959
 30
0.0
 40
99.5333121856
100
AcDbArc
 50
6.289633318899999
 51
6.4638942279
  0
ARC
  5
638
330
24F
100
AcDbEntity
  8
0
  6
Continuous
 62
     7
100
AcDbCircle
 10
3625.4576379709
 20
-110.3289139401
 30
0.0
 40
14.9201153391
100
AcDbArc
 50
161.6718557958
 51
163.3274172603
  0
ARC
  5
639
330
24F
100
AcDbEntity
  8
0
  6
Continuous
 62
     7
100
AcDbCircle
 10
3668.8231290146
 20
-76.41990278999999
 30
0.0
 40
7.999999953999999
100
AcDbArc
 50
3.1841635322
 51
88.8660857708
  0
ARC
  5
63A
330
24F
100
AcDbEntity
  8
0
  6
Continuous
 62
     7
100
AcDbCircle
 10
3606.375125449
 20
-104.6135027221
 30
0.0
 40
5.0000007348
100
AcDbArc
 50
272.648080917
 51
343.3237401642
  0
SPLINE
  5
7FC
330
24F
100
AcDbEntity
  8
0
  6
Continuous
 62
     7
100
AcDbSpline
210
0.0
220
0.0
230
1.0
 70
     8
 71
     3
 72
    11
 73
     7
 74
     0
 42
0.0000000001
 43
0.0000000001
 40
0.0
 40
0.0
 40
0.0
 40
0.0
 40
0.2498172039
 40
0.4995552632
 40
0.7496052050000001
 40
1.0
 40
1.0
 40
1.0
 40
1.0
 10
2932.5334281837
 20
-135.9558857029
 30
0.0
 10
2932.554332731501
 20
-135.9262517954999
 30
0.0
 10
2932.580029799
 20
-135.8534114515
 30
0.0
 10
2932.5520490505
 20
-135.7420134413
 30
0.0
 10
2932.4699183153
 20
-135.6627217406
 30
0.0
 10
2932.395902706
 20
-135.6441297078
 30
0.0
 10
2932.3595536057
 20
-135.6441297078
 30
0.0
  0
SPLINE
  5
7FD
330
24F
100
AcDbEntity
  8
0
  6
Continuous
 62
     7
100
AcDbSpline
210
0.0
220
0.0
230
1.0
 70
     8
 71
     3
 72
    11
 73
     7
 74
     0
 42
0.0000000001
 43
0.0000000001
 40
0.0
 40
0.0
 40
0.0
 40
0.0
 40
0.2498172039
 40
0.4995552632
 40
0.7496052050000001
 40
1.0
 40
1.0
 40
1.0
 40
1.0
 10
2932.5334281837
 20
-134.7558857029
 30
0.0
 10
2932.554332731501
 20
-134.7262517955
 30
0.0
 10
2932.580029799
 20
-134.6534114515
 30
0.0
 10
2932.5520490505
 20
-134.5420134413
 30
0.0
 10
2932.4699183153
 20
-134.4627217406
 30
0.0
 10
2932.395902706
 20
-134.4441297078
 30
0.0
 10
2932.3595536057
 20
-134.4441297078
 30
0.0
  0
SPLINE
  5
7FE
330
24F
100
AcDbEntity
  8
0
  6
Continuous
 62
     7
100
AcDbSpline
210
0.0
220
0.0
230
1.0
 70
     8
 71
     3
 72
    11
 73
     7
 74
     0
 42
0.0000000001
 43
0.0000000001
 40
0.0
 40
0.0
 40
0.0
 40
0.0
 40
0.2498172039
 40
0.4995552632
 40
0.7496052050000001
 40
1.0
 40
1.0
 40
1.0
 40
1.0
 10
2932.5334281837
 20
-133.5558857029
 30
0.0
 10
2932.554332731501
 20
-133.5262517955
 30
0.0
 10
2932.580029799
 20
-133.4534114515
 30
0.0
 10
2932.5520490505
 20
-133.3420134413
 30
0.0
 10
2932.4699183153
 20
-133.2627217406
 30
0.0
 10
2932.395902706
 20
-133.2441297078
 30
0.0
 10
2932.3595536057
 20
-133.2441297078
 30
0.0
  0
SPLINE
  5
7FF
330
24F
100
AcDbEntity
  8
0
  6
Continuous
 62
     7
100
AcDbSpline
210
0.0
220
0.0
230
1.0
 70
     8
 71
     3
 72
    11
 73
     7
 74
     0
 42
0.0000000001
 43
0.0000000001
 40
0.0
 40
0.0
 40
0.0
 40
0.0
 40
0.2498172039
 40
0.4995552632
 40
0.7496052050000001
 40
1.0
 40
1.0
 40
1.0
 40
1.0
 10
2932.5334281837
 20
-132.3558857029
 30
0.0
 10
2932.554332731501
 20
-132.3262517955
 30
0.0
 10
2932.580029799
 20
-132.2534114515
 30
0.0
 10
2932.5520490505
 20
-132.1420134413
 30
0.0
 10
2932.4699183153
 20
-132.0627217406
 30
0.0
 10
2932.395902706
 20
-132.0441297078
 30
0.0
 10
2932.3595536057
 20
-132.0441297078
 30
0.0
  0
SPLINE
  5
800
330
24F
100
AcDbEntity
  8
0
  6
Continuous
 62
     7
100
AcDbSpline
210
0.0
220
0.0
230
1.0
 70
     8
 71
     3
 72
    11
 73
     7
 74
     0
 42
0.0000000001
 43
0.0000000001
 40
0.0
 40
0.0
 40
0.0
 40
0.0
 40
0.2498172039
 40
0.4995552632
 40
0.7496052050000001
 40
1.0
 40
1.0
 40
1.0
 40
1.0
 10
2932.5334281837
 20
-131.1558857029
 30
0.0
 10
2932.554332731501
 20
-131.1262517955
 30
0.0
 10
2932.580029799
 20
-131.0534114515
 30
0.0
 10
2932.5520490505
 20
-130.9420134413
 30
0.0
 10
2932.4699183153
 20
-130.8627217406
 30
0.0
 10
2932.395902706
 20
-130.8441297078
 30
0.0
 10
2932.3595536057
 20
-130.8441297078
 30
0.0
  0
SPLINE
  5
801
330
24F
100
AcDbEntity
  8
0
  6
Continuous
 62
     7
100
AcDbSpline
210
0.0
220
0.0
230
1.0
 70
     8
 71
     3
 72
    11
 73
     7
 74
     0
 42
0.0000000001
 43
0.0000000001
 40
0.0
 40
0.0
 40
0.0
 40
0.0
 40
0.2498172039
 40
0.4995552632
 40
0.7496052050000001
 40
1.0
 40
1.0
 40
1.0
 40
1.0
 10
2932.5334281837
 20
-129.9558857029
 30
0.0
 10
2932.554332731501
 20
-129.9262517955
 30
0.0
 10
2932.580029799
 20
-129.8534114515
 30
0.0
 10
2932.5520490505
 20
-129.7420134413
 30
0.0
 10
2932.4699183153
 20
-129.6627217406
 30
0.0
 10
2932.395902706
 20
-129.6441297078
 30
0.0
 10
2932.3595536057
 20
-129.6441297078
 30
0.0
  0
SPLINE
  5
802
330
24F
100
AcDbEntity
  8
0
  6
Continuous
 62
     7
100
AcDbSpline
210
0.0
220
0.0
230
1.0
 70
     8
 71
     3
 72
    11
 73
     7
 74
     0
 42
0.0000000001
 43
0.0000000001
 40
0.0
 40
0.0
 40
0.0
 40
0.0
 40
0.2498172039
 40
0.4995552632
 40
0.7496052050000001
 40
1.0
 40
1.0
 40
1.0
 40
1.0
 10
2932.5334281837
 20
-128.7558857029
 30
0.0
 10
2932.554332731501
 20
-128.7262517955
 30
0.0
 10
2932.580029799
 20
-128.6534114515
 30
0.0
 10
2932.5520490505
 20
-128.5420134413
 30
0.0
 10
2932.4699183153
 20
-128.4627217406
 30
0.0
 10
2932.395902706
 20
-128.4441297078
 30
0.0
 10
2932.3595536057
 20
-128.4441297078
 30
0.0
  0
SPLINE
  5
803
330
24F
100
AcDbEntity
  8
0
  6
Continuous
 62
     7
100
AcDbSpline
210
0.0
220
0.0
230
1.0
 70
     8
 71
     3
 72
    11
 73
     7
 74
     0
 42
0.0000000001
 43
0.0000000001
 40
0.0
 40
0.0
 40
0.0
 40
0.0
 40
0.2498172039
 40
0.4995552632
 40
0.7496052050000001
 40
1.0
 40
1.0
 40
1.0
 40
1.0
 10
2932.5334281837
 20
-127.5558857029
 30
0.0
 10
2932.554332731501
 20
-127.5262517955
 30
0.0
 10
2932.580029799
 20
-127.4534114515
 30
0.0
 10
2932.5520490505
 20
-127.3420134413
 30
0.0
 10
2932.4699183153
 20
-127.2627217406
 30
0.0
 10
2932.395902706
 20
-127.2441297078
 30
0.0
 10
2932.3595536057
 20
-127.2441297078
 30
0.0
  0
SPLINE
  5
804
330
24F
100
AcDbEntity
  8
0
  6
Continuous
 62
     7
100
AcDbSpline
210
0.0
220
0.0
230
1.0
 70
     8
 71
     3
 72
    11
 73
     7
 74
     0
 42
0.0000000001
 43
0.0000000001
 40
0.0
 40
0.0
 40
0.0
 40
0.0
 40
0.2497944873
 40
0.4995021627
 40
0.7495776502
 40
1.0
 40
1.0
 40
1.0
 40
1.0
 10
2920.6852162735
 20
-135.3323737126
 30
0.0
 10
2920.7062424757
 20
-135.3619888634
 30
0.0
 10
2920.7322105572
 20
-135.434930156
 30
0.0
 10
2920.703791812801
 20
-135.5465099509
 30
0.0
 10
2920.6212144692
 20
-135.6255340889999
 30
0.0
 10
2920.5471115351
 20
-135.6441297078
 30
0.0
 10
2920.5107000243
 20
-135.6441297078
 30
0.0
  0
SPLINE
  5
805
330
24F
100
AcDbEntity
  8
0
  6
Continuous
 62
     7
100
AcDbSpline
210
0.0
220
0.0
230
1.0
 70
     8
 71
     3
 72
    11
 73
     7
 74
     0
 42
0.0000000001
 43
0.0000000001
 40
0.0
 40
0.0
 40
0.0
 40
0.0
 40
0.2497944873
 40
0.4995021628
 40
0.7495776502
 40
1.0
 40
1.0
 40
1.0
 40
1.0
 10
2920.6852162735
 20
-134.1323737126
 30
0.0
 10
2920.7062424757
 20
-134.1619888634
 30
0.0
 10
2920.7322105572
 20
-134.234930156
 30
0.0
 10
2920.703791812801
 20
-134.3465099509
 30
0.0
 10
2920.6212144692
 20
-134.425534089
 30
0.0
 10
2920.5471115351
 20
-134.4441297078
 30
0.0
 10
2920.5107000243
 20
-134.4441297078
 30
0.0
  0
SPLINE
  5
806
330
24F
100
AcDbEntity
  8
0
  6
Continuous
 62
     7
100
AcDbSpline
210
0.0
220
0.0
230
1.0
 70
     8
 71
     3
 72
    11
 73
     7
 74
     0
 42
0.0000000001
 43
0.0000000001
 40
0.0
 40
0.0
 40
0.0
 40
0.0
 40
0.2497944873
 40
0.4995021628
 40
0.7495776502
 40
1.0
 40
1.0
 40
1.0
 40
1.0
 10
2920.6852162735
 20
-132.9323737126
 30
0.0
 10
2920.7062424757
 20
-132.9619888634
 30
0.0
 10
2920.7322105572
 20
-133.034930156
 30
0.0
 10
2920.703791812801
 20
-133.1465099509
 30
0.0
 10
2920.6212144692
 20
-133.225534089
 30
0.0
 10
2920.5471115351
 20
-133.2441297078
 30
0.0
 10
2920.5107000243
 20
-133.2441297078
 30
0.0
  0
SPLINE
  5
807
330
24F
100
AcDbEntity
  8
0
  6
Continuous
 62
     7
100
AcDbSpline
210
0.0
220
0.0
230
1.0
 70
     8
 71
     3
 72
    11
 73
     7
 74
     0
 42
0.0000000001
 43
0.0000000001
 40
0.0
 40
0.0
 40
0.0
 40
0.0
 40
0.2497944873
 40
0.4995021628
 40
0.7495776502
 40
1.0
 40
1.0
 40
1.0
 40
1.0
 10
2920.6852162735
 20
-131.7323737126
 30
0.0
 10
2920.7062424757
 20
-131.7619888634
 30
0.0
 10
2920.7322105572
 20
-131.834930156
 30
0.0
 10
2920.703791812801
 20
-131.9465099509
 30
0.0
 10
2920.6212144692
 20
-132.025534089
 30
0.0
 10
2920.5471115351
 20
-132.0441297078
 30
0.0
 10
2920.5107000243
 20
-132.0441297078
 30
0.0
  0
SPLINE
  5
808
330
24F
100
AcDbEntity
  8
0
  6
Continuous
 62
     7
100
AcDbSpline
210
0.0
220
0.0
230
1.0
 70
     8
 71
     3
 72
    11
 73
     7
 74
     0
 42
0.0000000001
 43
0.0000000001
 40
0.0
 40
0.0
 40
0.0
 40
0.0
 40
0.2497944873
 40
0.4995021628
 40
0.7495776502
 40
1.0
 40
1.0
 40
1.0
 40
1.0
 10
2920.6852162735
 20
-130.5323737126
 30
0.0
 10
2920.7062424757
 20
-130.5619888634
 30
0.0
 10
2920.7322105572
 20
-130.634930156
 30
0.0
 10
2920.703791812801
 20
-130.7465099509
 30
0.0
 10
2920.6212144692
 20
-130.825534089
 30
0.0
 10
2920.5471115351
 20
-130.8441297078
 30
0.0
 10
2920.5107000243
 20
-130.8441297078
 30
0.0
  0
SPLINE
  5
809
330
24F
100
AcDbEntity
  8
0
  6
Continuous
 62
     7
100
AcDbSpline
210
0.0
220
0.0
230
1.0
 70
     8
 71
     3
 72
    11
 73
     7
 74
     0
 42
0.0000000001
 43
0.0000000001
 40
0.0
 40
0.0
 40
0.0
 40
0.0
 40
0.2497944873
 40
0.4995021628
 40
0.7495776502
 40
1.0
 40
1.0
 40
1.0
 40
1.0
 10
2920.6852162735
 20
-129.3323737126
 30
0.0
 10
2920.7062424757
 20
-129.3619888634
 30
0.0
 10
2920.7322105572
 20
-129.434930156
 30
0.0
 10
2920.703791812801
 20
-129.5465099509
 30
0.0
 10
2920.6212144692
 20
-129.625534089
 30
0.0
 10
2920.5471115351
 20
-129.6441297078
 30
0.0
 10
2920.5107000243
 20
-129.6441297078
 30
0.0
  0
SPLINE
  5
80A
330
24F
100
AcDbEntity
  8
0
  6
Continuous
 62
     7
100
AcDbSpline
210
0.0
220
0.0
230
1.0
 70
     8
 71
     3
 72
    11
 73
     7
 74
     0
 42
0.0000000001
 43
0.0000000001
 40
0.0
 40
0.0
 40
0.0
 40
0.0
 40
0.2497944873
 40
0.4995021628
 40
0.7495776502
 40
1.0
 40
1.0
 40
1.0
 40
1.0
 10
2920.6852162735
 20
-128.1323737126
 30
0.0
 10
2920.7062424757
 20
-128.1619888634
 30
0.0
 10
2920.7322105572
 20
-128.234930156
 30
0.0
 10
2920.703791812801
 20
-128.3465099509
 30
0.0
 10
2920.6212144692
 20
-128.425534089
 30
0.0
 10
2920.5471115351
 20
-128.4441297078
 30
0.0
 10
2920.5107000243
 20
-128.4441297078
 30
0.0
  0
LINE
  5
80B
330
24F
100
AcDbEntity
  8
0
  6
Continuous
 62
     7
100
AcDbLine
 10
2920.4102353048
 20
-136.1441797903
 30
0.0
 11
2920.2772786312
 21
-135.9558857029
 31
0.0
  0
LINE
  5
80C
330
24F
100
AcDbEntity
  8
0
  6
Continuous
 62
     7
100
AcDbLine
 10
2932.5334281837
 20
-135.9558857029
 30
0.0
 11
2932.4004715409
 21
-136.1441797467
 31
0.0
  0
LINE
  5
80D
330
24F
100
AcDbEntity
  8
0
  6
Continuous
 62
     7
100
AcDbLine
 10
2929.3865602569
 20
-137.1441493203
 30
0.0
 11
2929.3723245861
 21
-137.4666463115
 31
0.0
  0
LINE
  5
80E
330
24F
100
AcDbEntity
  8
0
  6
Continuous
 62
     7
100
AcDbLine
 10
2923.4241465581
 20
-137.1441493203
 30
0.0
 11
2923.4383822289
 21
-137.4666463115
 31
0.0
  0
SPLINE
  5
80F
330
24F
100
AcDbEntity
  8
0
  6
Continuous
 62
     7
100
AcDbSpline
210
0.0
220
0.0
230
1.0
 70
     8
 71
     3
 72
    11
 73
     7
 74
     0
 42
0.0000000001
 43
0.0000000001
 40
0.0
 40
0.0
 40
0.0
 40
0.0
 40
0.250394795
 40
0.5004447368000001
 40
0.7501827961
 40
1.0
 40
1.0
 40
1.0
 40
1.0
 10
2920.4511532093
 20
-135.6441297078
 30
0.0
 10
2920.414804109001
 20
-135.6441297078
 30
0.0
 10
2920.3407884997
 20
-135.6627217406
 30
0.0
 10
2920.258657764501
 20
-135.7420134413
 30
0.0
 10
2920.230677016
 20
-135.8534114515
 30
0.0
 10
2920.2563740835
 20
-135.9262517954999
 30
0.0
 10
2920.2772786312
 20
-135.9558857029
 30
0.0
  0
SPLINE
  5
810
330
24F
100
AcDbEntity
  8
0
  6
Continuous
 62
     7
100
AcDbSpline
210
0.0
220
0.0
230
1.0
 70
     8
 71
     3
 72
    11
 73
     7
 74
     0
 42
0.0000000001
 43
0.0000000001
 40
0.0
 40
0.0
 40
0.0
 40
0.0
 40
0.250394795
 40
0.5004447368000001
 40
0.7501827961
 40
1.0
 40
1.0
 40
1.0
 40
1.0
 10
2920.4511532093
 20
-134.4441297078
 30
0.0
 10
2920.414804109001
 20
-134.4441297078
 30
0.0
 10
2920.3407884997
 20
-134.4627217406
 30
0.0
 10
2920.258657764501
 20
-134.5420134413
 30
0.0
 10
2920.230677016
 20
-134.6534114515
 30
0.0
 10
2920.2563740835
 20
-134.7262517955
 30
0.0
 10
2920.2772786312
 20
-134.7558857029
 30
0.0
  0
SPLINE
  5
811
330
24F
100
AcDbEntity
  8
0
  6
Continuous
 62
     7
100
AcDbSpline
210
0.0
220
0.0
230
1.0
 70
     8
 71
     3
 72
    11
 73
     7
 74
     0
 42
0.0000000001
 43
0.0000000001
 40
0.0
 40
0.0
 40
0.0
 40
0.0
 40
0.250394795
 40
0.5004447368000001
 40
0.7501827961
 40
1.0
 40
1.0
 40
1.0
 40
1.0
 10
2920.4511532093
 20
-133.2441297078
 30
0.0
 10
2920.414804109001
 20
-133.2441297078
 30
0.0
 10
2920.3407884997
 20
-133.2627217406
 30
0.0
 10
2920.258657764501
 20
-133.3420134413
 30
0.0
 10
2920.230677016
 20
-133.4534114515
 30
0.0
 10
2920.2563740835
 20
-133.5262517955
 30
0.0
 10
2920.2772786312
 20
-133.5558857029
 30
0.0
  0
SPLINE
  5
812
330
24F
100
AcDbEntity
  8
0
  6
Continuous
 62
     7
100
AcDbSpline
210
0.0
220
0.0
230
1.0
 70
     8
 71
     3
 72
    11
 73
     7
 74
     0
 42
0.0000000001
 43
0.0000000001
 40
0.0
 40
0.0
 40
0.0
 40
0.0
 40
0.250394795
 40
0.5004447368000001
 40
0.7501827961
 40
1.0
 40
1.0
 40
1.0
 40
1.0
 10
2920.4511532093
 20
-132.0441297078
 30
0.0
 10
2920.414804109001
 20
-132.0441297078
 30
0.0
 10
2920.3407884997
 20
-132.0627217406
 30
0.0
 10
2920.258657764501
 20
-132.1420134413
 30
0.0
 10
2920.230677016
 20
-132.2534114515
 30
0.0
 10
2920.2563740835
 20
-132.3262517955
 30
0.0
 10
2920.2772786312
 20
-132.3558857029
 30
0.0
  0
SPLINE
  5
813
330
24F
100
AcDbEntity
  8
0
  6
Continuous
 62
     7
100
AcDbSpline
210
0.0
220
0.0
230
1.0
 70
     8
 71
     3
 72
    11
 73
     7
 74
     0
 42
0.0000000001
 43
0.0000000001
 40
0.0
 40
0.0
 40
0.0
 40
0.0
 40
0.250394795
 40
0.5004447368000001
 40
0.7501827961
 40
1.0
 40
1.0
 40
1.0
 40
1.0
 10
2920.4511532093
 20
-130.8441297078
 30
0.0
 10
2920.414804109001
 20
-130.8441297078
 30
0.0
 10
2920.3407884997
 20
-130.8627217406
 30
0.0
 10
2920.258657764501
 20
-130.9420134413
 30
0.0
 10
2920.230677016
 20
-131.0534114515
 30
0.0
 10
2920.2563740835
 20
-131.1262517955
 30
0.0
 10
2920.2772786312
 20
-131.1558857029
 30
0.0
  0
SPLINE
  5
814
330
24F
100
AcDbEntity
  8
0
  6
Continuous
 62
     7
100
AcDbSpline
210
0.0
220
0.0
230
1.0
 70
     8
 71
     3
 72
    11
 73
     7
 74
     0
 42
0.0000000001
 43
0.0000000001
 40
0.0
 40
0.0
 40
0.0
 40
0.0
 40
0.250394795
 40
0.5004447368000001
 40
0.7501827961
 40
1.0
 40
1.0
 40
1.0
 40
1.0
 10
2920.4511532093
 20
-129.6441297078
 30
0.0
 10
2920.414804109001
 20
-129.6441297078
 30
0.0
 10
2920.3407884997
 20
-129.6627217406
 30
0.0
 10
2920.258657764501
 20
-129.7420134413
 30
0.0
 10
2920.230677016
 20
-129.8534114515
 30
0.0
 10
2920.2563740835
 20
-129.9262517955
 30
0.0
 10
2920.2772786312
 20
-129.9558857029
 30
0.0
  0
SPLINE
  5
815
330
24F
100
AcDbEntity
  8
0
  6
Continuous
 62
     7
100
AcDbSpline
210
0.0
220
0.0
230
1.0
 70
     8
 71
     3
 72
    11
 73
     7
 74
     0
 42
0.0000000001
 43
0.0000000001
 40
0.0
 40
0.0
 40
0.0
 40
0.0
 40
0.250394795
 40
0.5004447368000001
 40
0.7501827961
 40
1.0
 40
1.0
 40
1.0
 40
1.0
 10
2920.4511532093
 20
-128.4441297078
 30
0.0
 10
2920.414804109001
 20
-128.4441297078
 30
0.0
 10
2920.3407884997
 20
-128.4627217406
 30
0.0
 10
2920.258657764501
 20
-128.5420134413
 30
0.0
 10
2920.230677016
 20
-128.6534114515
 30
0.0
 10
2920.2563740835
 20
-128.7262517955
 30
0.0
 10
2920.2772786312
 20
-128.7558857029
 30
0.0
  0
SPLINE
  5
816
330
24F
100
AcDbEntity
  8
0
  6
Continuous
 62
     7
100
AcDbSpline
210
0.0
220
0.0
230
1.0
 70
     8
 71
     3
 72
    11
 73
     7
 74
     0
 42
0.0000000001
 43
0.0000000001
 40
0.0
 40
0.0
 40
0.0
 40
0.0
 40
0.250394795
 40
0.5004447368000001
 40
0.7501827961
 40
1.0
 40
1.0
 40
1.0
 40
1.0
 10
2920.4511532093
 20
-127.2441297078
 30
0.0
 10
2920.414804109001
 20
-127.2441297078
 30
0.0
 10
2920.3407884997
 20
-127.2627217406
 30
0.0
 10
2920.258657764501
 20
-127.3420134413
 30
0.0
 10
2920.230677016
 20
-127.4534114515
 30
0.0
 10
2920.2563740835
 20
-127.5262517955
 30
0.0
 10
2920.2772786312
 20
-127.5558857029
 30
0.0
  0
SPLINE
  5
817
330
24F
100
AcDbEntity
  8
0
  6
Continuous
 62
     7
100
AcDbSpline
210
0.0
220
0.0
230
1.0
 70
     8
 71
     3
 72
    11
 73
     7
 74
     0
 42
0.0000000001
 43
0.0000000001
 40
0.0
 40
0.0
 40
0.0
 40
0.0
 40
0.2504223498
 40
0.5004978373000001
 40
0.7502055127
 40
1.0
 40
1.0
 40
1.0
 40
1.0
 10
2932.300006790701
 20
-135.6441297078
 30
0.0
 10
2932.2635952798
 20
-135.6441297078
 30
0.0
 10
2932.1894923457
 20
-135.6255340889999
 30
0.0
 10
2932.1069150022
 20
-135.5465099509
 30
0.0
 10
2932.078496257801
 20
-135.434930156
 30
0.0
 10
2932.1044643392
 20
-135.3619888634
 30
0.0
 10
2932.1254905415
 20
-135.3323737126
 30
0.0
  0
SPLINE
  5
818
330
24F
100
AcDbEntity
  8
0
  6
Continuous
 62
     7
100
AcDbSpline
210
0.0
220
0.0
230
1.0
 70
     8
 71
     3
 72
    11
 73
     7
 74
     0
 42
0.0000000001
 43
0.0000000001
 40
0.0
 40
0.0
 40
0.0
 40
0.0
 40
0.2504223498
 40
0.5004978372
 40
0.7502055127
 40
1.0
 40
1.0
 40
1.0
 40
1.0
 10
2932.300006790701
 20
-134.4441297078
 30
0.0
 10
2932.2635952798
 20
-134.4441297078
 30
0.0
 10
2932.189492345801
 20
-134.425534089
 30
0.0
 10
2932.1069150022
 20
-134.3465099509
 30
0.0
 10
2932.078496257801
 20
-134.234930156
 30
0.0
 10
2932.1044643392
 20
-134.1619888634
 30
0.0
 10
2932.1254905415
 20
-134.1323737126
 30
0.0
  0
SPLINE
  5
819
330
24F
100
AcDbEntity
  8
0
  6
Continuous
 62
     7
100
AcDbSpline
210
0.0
220
0.0
230
1.0
 70
     8
 71
     3
 72
    11
 73
     7
 74
     0
 42
0.0000000001
 43
0.0000000001
 40
0.0
 40
0.0
 40
0.0
 40
0.0
 40
0.2504223498
 40
0.5004978372
 40
0.7502055127
 40
1.0
 40
1.0
 40
1.0
 40
1.0
 10
2932.300006790701
 20
-133.2441297078
 30
0.0
 10
2932.2635952798
 20
-133.2441297078
 30
0.0
 10
2932.189492345801
 20
-133.225534089
 30
0.0
 10
2932.1069150022
 20
-133.1465099509
 30
0.0
 10
2932.078496257801
 20
-133.034930156
 30
0.0
 10
2932.1044643392
 20
-132.9619888634
 30
0.0
 10
2932.1254905415
 20
-132.9323737126
 30
0.0
  0
SPLINE
  5
81A
330
24F
100
AcDbEntity
  8
0
  6
Continuous
 62
     7
100
AcDbSpline
210
0.0
220
0.0
230
1.0
 70
     8
 71
     3
 72
    11
 73
     7
 74
     0
 42
0.0000000001
 43
0.0000000001
 40
0.0
 40
0.0
 40
0.0
 40
0.0
 40
0.2504223498
 40
0.5004978372
 40
0.7502055127
 40
1.0
 40
1.0
 40
1.0
 40
1.0
 10
2932.300006790701
 20
-132.0441297078
 30
0.0
 10
2932.2635952798
 20
-132.0441297078
 30
0.0
 10
2932.189492345801
 20
-132.025534089
 30
0.0
 10
2932.1069150022
 20
-131.9465099509
 30
0.0
 10
2932.078496257801
 20
-131.834930156
 30
0.0
 10
2932.1044643392
 20
-131.7619888634
 30
0.0
 10
2932.1254905415
 20
-131.7323737126
 30
0.0
  0
SPLINE
  5
81B
330
24F
100
AcDbEntity
  8
0
  6
Continuous
 62
     7
100
AcDbSpline
210
0.0
220
0.0
230
1.0
 70
     8
 71
     3
 72
    11
 73
     7
 74
     0
 42
0.0000000001
 43
0.0000000001
 40
0.0
 40
0.0
 40
0.0
 40
0.0
 40
0.2504223498
 40
0.5004978372
 40
0.7502055127
 40
1.0
 40
1.0
 40
1.0
 40
1.0
 10
2932.300006790701
 20
-130.8441297078
 30
0.0
 10
2932.2635952798
 20
-130.8441297078
 30
0.0
 10
2932.189492345801
 20
-130.825534089
 30
0.0
 10
2932.1069150022
 20
-130.7465099509
 30
0.0
 10
2932.078496257801
 20
-130.634930156
 30
0.0
 10
2932.1044643392
 20
-130.5619888634
 30
0.0
 10
2932.1254905415
 20
-130.5323737126
 30
0.0
  0
SPLINE
  5
81C
330
24F
100
AcDbEntity
  8
0
  6
Continuous
 62
     7
100
AcDbSpline
210
0.0
220
0.0
230
1.0
 70
     8
 71
     3
 72
    11
 73
     7
 74
     0
 42
0.0000000001
 43
0.0000000001
 40
0.0
 40
0.0
 40
0.0
 40
0.0
 40
0.2504223498
 40
0.5004978372
 40
0.7502055127
 40
1.0
 40
1.0
 40
1.0
 40
1.0
 10
2932.300006790701
 20
-129.6441297078
 30
0.0
 10
2932.2635952798
 20
-129.6441297078
 30
0.0
 10
2932.189492345801
 20
-129.625534089
 30
0.0
 10
2932.1069150022
 20
-129.5465099509
 30
0.0
 10
2932.078496257801
 20
-129.434930156
 30
0.0
 10
2932.1044643392
 20
-129.3619888634
 30
0.0
 10
2932.1254905415
 20
-129.3323737126
 30
0.0
  0
SPLINE
  5
81D
330
24F
100
AcDbEntity
  8
0
  6
Continuous
 62
     7
100
AcDbSpline
210
0.0
220
0.0
230
1.0
 70
     8
 71
     3
 72
    11
 73
     7
 74
     0
 42
0.0000000001
 43
0.0000000001
 40
0.0
 40
0.0
 40
0.0
 40
0.0
 40
0.2504223498
 40
0.5004978372
 40
0.7502055127
 40
1.0
 40
1.0
 40
1.0
 40
1.0
 10
2932.300006790701
 20
-128.4441297078
 30
0.0
 10
2932.2635952798
 20
-128.4441297078
 30
0.0
 10
2932.189492345801
 20
-128.425534089
 30
0.0
 10
2932.1069150022
 20
-128.3465099509
 30
0.0
 10
2932.078496257801
 20
-128.234930156
 30
0.0
 10
2932.1044643392
 20
-128.1619888634
 30
0.0
 10
2932.1254905415
 20
-128.1323737126
 30
0.0
  0
SPLINE
  5
81E
330
24F
100
AcDbEntity
  8
0
  6
Continuous
 62
     7
100
AcDbSpline
210
0.0
220
0.0
230
1.0
 70
     8
 71
     3
 72
    10
 73
     6
 74
     0
 42
0.0000000001
 43
0.0000000001
 40
0.0
 40
0.0
 40
0.0
 40
0.0
 40
0.5000000584000001
 40
0.7500000682
 40
1.0
 40
1.0
 40
1.0
 40
1.0
 10
2933.3335566378
 20
-148.6441297078
 30
0.0
 10
2932.6744041724
 20
-147.5568101269
 30
0.0
 10
2931.68396143
 20
-145.926857843
 30
0.0
 10
2930.352594578801
 20
-143.7601912897
 30
0.0
 10
2929.6800082152
 20
-142.6810945471
 30
0.0
 10
2929.339633557701
 20
-142.1441297078
 30
0.0
  0
SPLINE
  5
81F
330
24F
100
AcDbEntity
  8
0
  6
Continuous
 62
     7
100
AcDbSpline
210
0.0
220
0.0
230
1.0
 70
     8
 71
     3
 72
    10
 73
     6
 74
     0
 42
0.0000000001
 43
0.0000000001
 40
0.0
 40
0.0
 40
0.0
 40
0.0
 40
0.2499999299
 40
0.4999999401000001
 40
1.0
 40
1.0
 40
1.0
 40
1.0
 10
2923.4710732573
 20
-142.1441297078
 30
0.0
 10
2923.1306986024
 20
-142.6810945429
 30
0.0
 10
2922.4581121226
 20
-143.7601912086
 30
0.0
 10
2921.126745396
 20
-145.9268578395
 30
0.0
 10
2920.1363026447
 20
-147.5568101234
 30
0.0
 10
2919.4771501772
 20
-148.6441297078
 30
0.0
  0
SPLINE
  5
820
330
24F
100
AcDbEntity
  8
0
  6
Continuous
 62
     7
100
AcDbSpline
210
0.0
220
0.0
230
1.0
 70
     8
 71
     3
 72
    12
 73
     8
 74
     0
 42
0.0000000001
 43
0.0000000001
 40
0.0
 40
0.0
 40
0.0
 40
0.0
 40
0.2500738735
 40
0.5001343745
 40
0.6251905157
 40
0.7502587479000001
 40
1.0
 40
1.0
 40
1.0
 40
1.0
 10
2931.3043328931
 20
-148.6441297078
 30
0.0
 10
2931.043500065
 20
-148.3398881187
 30
0.0
 10
2930.5096812681
 20
-147.7416742461
 30
0.0
 10
2929.7991798139
 20
-147.0339090516
 30
0.0
 10
2929.192059668901
 20
-146.509658089
 30
0.0
 10
2928.5545841268
 20
-146.024946229
 30
0.0
 10
2928.0299621582
 20
-145.7191205071
 30
0.0
 10
2927.659061195999
 20
-145.5687800534
 30
0.0
  0
SPLINE
  5
821
330
24F
100
AcDbEntity
  8
0
  6
Continuous
 62
     7
100
AcDbSpline
210
0.0
220
0.0
230
1.0
 70
     8
 71
     3
 72
    12
 73
     8
 74
     0
 42
0.0000000001
 43
0.0000000001
 40
0.0
 40
0.0
 40
0.0
 40
0.0
 40
0.2497412471
 40
0.3748094791
 40
0.4998656209
 40
0.7499261241
 40
1.0
 40
1.0
 40
1.0
 40
1.0
 10
2925.1516451294
 20
-145.5687802469
 30
0.0
 10
2924.7807442418
 20
-145.7191207473
 30
0.0
 10
2924.2561223612
 20
-146.0249464561
 30
0.0
 10
2923.618646912001
 20
-146.5096582842
 30
0.0
 10
2923.0115268401
 20
-147.0339092031
 30
0.0
 10
2922.3010254668
 20
-147.7416743355
 30
0.0
 10
2921.7672067241
 20
-148.3398881489
 30
0.0
 10
2921.5063739219
 20
-148.6441297078
 30
0.0
  0
SPLINE
  5
822
330
24F
100
AcDbEntity
  8
0
  6
Continuous
 62
     7
100
AcDbSpline
210
0.0
220
0.0
230
1.0
 70
     8
 71
     3
 72
    13
 73
     9
 74
     0
 42
0.0000000001
 43
0.0000000001
 40
0.0
 40
0.0
 40
0.0
 40
0.0
 40
0.3434576414
 40
0.6350419288
 40
0.7522519295000001
 40
0.8494541955
 40
0.9297776839
 40
1.0
 40
1.0
 40
1.0
 40
1.0
 10
2921.5063739219
 20
-153.1441297078
 30
0.0
 10
2921.5063739219
 20
-153.210494631
 30
0.0
 10
2921.5160872012
 20
-153.3333347938
 30
0.0
 10
2921.553001650901
 20
-153.4753934062
 30
0.0
 10
2921.5974970941
 20
-153.5629186258
 30
0.0
 10
2921.6328190336
 20
-153.6081987915
 30
0.0
 10
2921.6720420137
 20
-153.6371006208
 30
0.0
 10
2921.7013688751
 20
-153.6441297078
 30
0.0
 10
2921.7149376477
 20
-153.6441297078
 30
0.0
  0
SPLINE
  5
823
330
24F
100
AcDbEntity
  8
0
  6
Continuous
 62
     7
100
AcDbSpline
210
0.0
220
0.0
230
1.0
 70
     8
 71
     3
 72
    13
 73
     9
 74
     0
 42
0.0000000001
 43
0.0000000001
 40
0.0
 40
0.0
 40
0.0
 40
0.0
 40
0.3434576414
 40
0.6350419288
 40
0.7522519295000001
 40
0.8494541955
 40
0.9297776839
 40
1.0
 40
1.0
 40
1.0
 40
1.0
 10
2931.3043328931
 20
-153.1441297078
 30
0.0
 10
2931.3043328931
 20
-153.210494631
 30
0.0
 10
2931.2946196138
 20
-153.3333347938
 30
0.0
 10
2931.2577051641
 20
-153.4753934062
 30
0.0
 10
2931.2132097209
 20
-153.5629186258
 30
0.0
 10
2931.1778877814
 20
-153.6081987915
 30
0.0
 10
2931.1386648012
 20
-153.6371006208
 30
0.0
 10
2931.1093379399
 20
-153.6441297078
 30
0.0
 10
2931.095769167299
 20
-153.6441297078
 30
0.0
  0
SPLINE
  5
824
330
24F
100
AcDbEntity
  8
0
  6
Continuous
 62
     7
100
AcDbSpline
210
0.0
220
0.0
230
1.0
 70
     8
 71
     3
 72
    11
 73
     7
 74
     0
 42
0.0000000001
 43
0.0000000001
 40
0.0
 40
0.0
 40
0.0
 40
0.0
 40
0.2498172039
 40
0.4995552632
 40
0.7496052050000001
 40
1.0
 40
1.0
 40
1.0
 40
1.0
 10
2756.5334281838
 20
-135.9558857029
 30
0.0
 10
2756.5543327315
 20
-135.9262517954999
 30
0.0
 10
2756.580029799001
 20
-135.8534114515
 30
0.0
 10
2756.5520490505
 20
-135.7420134413
 30
0.0
 10
2756.4699183153
 20
-135.6627217406
 30
0.0
 10
2756.395902706
 20
-135.6441297078
 30
0.0
 10
2756.3595536057
 20
-135.6441297078
 30
0.0
  0
SPLINE
  5
825
330
24F
100
AcDbEntity
  8
0
  6
Continuous
 62
     7
100
AcDbSpline
210
0.0
220
0.0
230
1.0
 70
     8
 71
     3
 72
    11
 73
     7
 74
     0
 42
0.0000000001
 43
0.0000000001
 40
0.0
 40
0.0
 40
0.0
 40
0.0
 40
0.2498172039
 40
0.4995552632
 40
0.7496052050000001
 40
1.0
 40
1.0
 40
1.0
 40
1.0
 10
2756.5334281838
 20
-134.7558857029
 30
0.0
 10
2756.5543327315
 20
-134.7262517955
 30
0.0
 10
2756.580029799001
 20
-134.6534114515
 30
0.0
 10
2756.5520490505
 20
-134.5420134413
 30
0.0
 10
2756.4699183153
 20
-134.4627217406
 30
0.0
 10
2756.395902706
 20
-134.4441297078
 30
0.0
 10
2756.3595536057
 20
-134.4441297078
 30
0.0
  0
SPLINE
  5
826
330
24F
100
AcDbEntity
  8
0
  6
Continuous
 62
     7
100
AcDbSpline
210
0.0
220
0.0
230
1.0
 70
     8
 71
     3
 72
    11
 73
     7
 74
     0
 42
0.0000000001
 43
0.0000000001
 40
0.0
 40
0.0
 40
0.0
 40
0.0
 40
0.2498172039
 40
0.4995552632
 40
0.7496052050000001
 40
1.0
 40
1.0
 40
1.0
 40
1.0
 10
2756.5334281838
 20
-133.5558857029
 30
0.0
 10
2756.5543327315
 20
-133.5262517955
 30
0.0
 10
2756.580029799001
 20
-133.4534114515
 30
0.0
 10
2756.5520490505
 20
-133.3420134413
 30
0.0
 10
2756.4699183153
 20
-133.2627217406
 30
0.0
 10
2756.395902706
 20
-133.2441297078
 30
0.0
 10
2756.3595536057
 20
-133.2441297078
 30
0.0
  0
SPLINE
  5
827
330
24F
100
AcDbEntity
  8
0
  6
Continuous
 62
     7
100
AcDbSpline
210
0.0
220
0.0
230
1.0
 70
     8
 71
     3
 72
    11
 73
     7
 74
     0
 42
0.0000000001
 43
0.0000000001
 40
0.0
 40
0.0
 40
0.0
 40
0.0
 40
0.2498172039
 40
0.4995552632
 40
0.7496052050000001
 40
1.0
 40
1.0
 40
1.0
 40
1.0
 10
2756.5334281838
 20
-132.3558857029
 30
0.0
 10
2756.5543327315
 20
-132.3262517955
 30
0.0
 10
2756.580029799001
 20
-132.2534114515
 30
0.0
 10
2756.5520490505
 20
-132.1420134413
 30
0.0
 10
2756.4699183153
 20
-132.0627217406
 30
0.0
 10
2756.395902706
 20
-132.0441297078
 30
0.0
 10
2756.3595536057
 20
-132.0441297078
 30
0.0
  0
SPLINE
  5
828
330
24F
100
AcDbEntity
  8
0
  6
Continuous
 62
     7
100
AcDbSpline
210
0.0
220
0.0
230
1.0
 70
     8
 71
     3
 72
    11
 73
     7
 74
     0
 42
0.0000000001
 43
0.0000000001
 40
0.0
 40
0.0
 40
0.0
 40
0.0
 40
0.2498172039
 40
0.4995552632
 40
0.7496052050000001
 40
1.0
 40
1.0
 40
1.0
 40
1.0
 10
2756.5334281838
 20
-131.1558857029
 30
0.0
 10
2756.5543327315
 20
-131.1262517955
 30
0.0
 10
2756.580029799001
 20
-131.0534114515
 30
0.0
 10
2756.5520490505
 20
-130.9420134413
 30
0.0
 10
2756.4699183153
 20
-130.8627217406
 30
0.0
 10
2756.395902706
 20
-130.8441297078
 30
0.0
 10
2756.3595536057
 20
-130.8441297078
 30
0.0
  0
SPLINE
  5
829
330
24F
100
AcDbEntity
  8
0
  6
Continuous
 62
     7
100
AcDbSpline
210
0.0
220
0.0
230
1.0
 70
     8
 71
     3
 72
    11
 73
     7
 74
     0
 42
0.0000000001
 43
0.0000000001
 40
0.0
 40
0.0
 40
0.0
 40
0.0
 40
0.2498172039
 40
0.4995552632
 40
0.7496052050000001
 40
1.0
 40
1.0
 40
1.0
 40
1.0
 10
2756.5334281838
 20
-129.9558857029
 30
0.0
 10
2756.5543327315
 20
-129.9262517955
 30
0.0
 10
2756.580029799001
 20
-129.8534114515
 30
0.0
 10
2756.5520490505
 20
-129.7420134413
 30
0.0
 10
2756.4699183153
 20
-129.6627217406
 30
0.0
 10
2756.395902706
 20
-129.6441297078
 30
0.0
 10
2756.3595536057
 20
-129.6441297078
 30
0.0
  0
SPLINE
  5
82A
330
24F
100
AcDbEntity
  8
0
  6
Continuous
 62
     7
100
AcDbSpline
210
0.0
220
0.0
230
1.0
 70
     8
 71
     3
 72
    11
 73
     7
 74
     0
 42
0.0000000001
 43
0.0000000001
 40
0.0
 40
0.0
 40
0.0
 40
0.0
 40
0.2498172039
 40
0.4995552632
 40
0.7496052050000001
 40
1.0
 40
1.0
 40
1.0
 40
1.0
 10
2756.5334281838
 20
-128.7558857029
 30
0.0
 10
2756.5543327315
 20
-128.7262517955
 30
0.0
 10
2756.580029799001
 20
-128.6534114515
 30
0.0
 10
2756.5520490505
 20
-128.5420134413
 30
0.0
 10
2756.4699183153
 20
-128.4627217406
 30
0.0
 10
2756.395902706
 20
-128.4441297078
 30
0.0
 10
2756.3595536057
 20
-128.4441297078
 30
0.0
  0
SPLINE
  5
82B
330
24F
100
AcDbEntity
  8
0
  6
Continuous
 62
     7
100
AcDbSpline
210
0.0
220
0.0
230
1.0
 70
     8
 71
     3
 72
    11
 73
     7
 74
     0
 42
0.0000000001
 43
0.0000000001
 40
0.0
 40
0.0
 40
0.0
 40
0.0
 40
0.2498172039
 40
0.4995552632
 40
0.7496052050000001
 40
1.0
 40
1.0
 40
1.0
 40
1.0
 10
2756.5334281838
 20
-127.5558857029
 30
0.0
 10
2756.5543327315
 20
-127.5262517955
 30
0.0
 10
2756.580029799001
 20
-127.4534114515
 30
0.0
 10
2756.5520490505
 20
-127.3420134413
 30
0.0
 10
2756.4699183153
 20
-127.2627217406
 30
0.0
 10
2756.395902706
 20
-127.2441297078
 30
0.0
 10
2756.3595536057
 20
-127.2441297078
 30
0.0
  0
SPLINE
  5
82C
330
24F
100
AcDbEntity
  8
0
  6
Continuous
 62
     7
100
AcDbSpline
210
0.0
220
0.0
230
1.0
 70
     8
 71
     3
 72
    11
 73
     7
 74
     0
 42
0.0000000001
 43
0.0000000001
 40
0.0
 40
0.0
 40
0.0
 40
0.0
 40
0.2497944873
 40
0.4995021627
 40
0.7495776502
 40
1.0
 40
1.0
 40
1.0
 40
1.0
 10
2744.6852162735
 20
-135.3323737126
 30
0.0
 10
2744.7062424757
 20
-135.3619888634
 30
0.0
 10
2744.7322105572
 20
-135.434930156
 30
0.0
 10
2744.7037918128
 20
-135.5465099509
 30
0.0
 10
2744.6212144692
 20
-135.6255340889999
 30
0.0
 10
2744.5471115351
 20
-135.6441297078
 30
0.0
 10
2744.5107000243
 20
-135.6441297078
 30
0.0
  0
SPLINE
  5
82D
330
24F
100
AcDbEntity
  8
0
  6
Continuous
 62
     7
100
AcDbSpline
210
0.0
220
0.0
230
1.0
 70
     8
 71
     3
 72
    11
 73
     7
 74
     0
 42
0.0000000001
 43
0.0000000001
 40
0.0
 40
0.0
 40
0.0
 40
0.0
 40
0.2497944873
 40
0.4995021628
 40
0.7495776502
 40
1.0
 40
1.0
 40
1.0
 40
1.0
 10
2744.6852162735
 20
-134.1323737126
 30
0.0
 10
2744.7062424757
 20
-134.1619888634
 30
0.0
 10
2744.7322105572
 20
-134.234930156
 30
0.0
 10
2744.7037918128
 20
-134.3465099509
 30
0.0
 10
2744.6212144692
 20
-134.425534089
 30
0.0
 10
2744.5471115351
 20
-134.4441297078
 30
0.0
 10
2744.5107000243
 20
-134.4441297078
 30
0.0
  0
SPLINE
  5
82E
330
24F
100
AcDbEntity
  8
0
  6
Continuous
 62
     7
100
AcDbSpline
210
0.0
220
0.0
230
1.0
 70
     8
 71
     3
 72
    11
 73
     7
 74
     0
 42
0.0000000001
 43
0.0000000001
 40
0.0
 40
0.0
 40
0.0
 40
0.0
 40
0.2497944873
 40
0.4995021628
 40
0.7495776502
 40
1.0
 40
1.0
 40
1.0
 40
1.0
 10
2744.6852162735
 20
-132.9323737126
 30
0.0
 10
2744.7062424757
 20
-132.9619888634
 30
0.0
 10
2744.7322105572
 20
-133.034930156
 30
0.0
 10
2744.7037918128
 20
-133.1465099509
 30
0.0
 10
2744.6212144692
 20
-133.225534089
 30
0.0
 10
2744.5471115351
 20
-133.2441297078
 30
0.0
 10
2744.5107000243
 20
-133.2441297078
 30
0.0
  0
SPLINE
  5
82F
330
24F
100
AcDbEntity
  8
0
  6
Continuous
 62
     7
100
AcDbSpline
210
0.0
220
0.0
230
1.0
 70
     8
 71
     3
 72
    11
 73
     7
 74
     0
 42
0.0000000001
 43
0.0000000001
 40
0.0
 40
0.0
 40
0.0
 40
0.0
 40
0.2497944873
 40
0.4995021628
 40
0.7495776502
 40
1.0
 40
1.0
 40
1.0
 40
1.0
 10
2744.6852162735
 20
-131.7323737126
 30
0.0
 10
2744.7062424757
 20
-131.7619888634
 30
0.0
 10
2744.7322105572
 20
-131.834930156
 30
0.0
 10
2744.7037918128
 20
-131.9465099509
 30
0.0
 10
2744.6212144692
 20
-132.025534089
 30
0.0
 10
2744.5471115351
 20
-132.0441297078
 30
0.0
 10
2744.5107000243
 20
-132.0441297078
 30
0.0
  0
SPLINE
  5
830
330
24F
100
AcDbEntity
  8
0
  6
Continuous
 62
     7
100
AcDbSpline
210
0.0
220
0.0
230
1.0
 70
     8
 71
     3
 72
    11
 73
     7
 74
     0
 42
0.0000000001
 43
0.0000000001
 40
0.0
 40
0.0
 40
0.0
 40
0.0
 40
0.2497944873
 40
0.4995021628
 40
0.7495776502
 40
1.0
 40
1.0
 40
1.0
 40
1.0
 10
2744.6852162735
 20
-130.5323737126
 30
0.0
 10
2744.7062424757
 20
-130.5619888634
 30
0.0
 10
2744.7322105572
 20
-130.634930156
 30
0.0
 10
2744.7037918128
 20
-130.7465099509
 30
0.0
 10
2744.6212144692
 20
-130.825534089
 30
0.0
 10
2744.5471115351
 20
-130.8441297078
 30
0.0
 10
2744.5107000243
 20
-130.8441297078
 30
0.0
  0
SPLINE
  5
831
330
24F
100
AcDbEntity
  8
0
  6
Continuous
 62
     7
100
AcDbSpline
210
0.0
220
0.0
230
1.0
 70
     8
 71
     3
 72
    11
 73
     7
 74
     0
 42
0.0000000001
 43
0.0000000001
 40
0.0
 40
0.0
 40
0.0
 40
0.0
 40
0.2497944873
 40
0.4995021628
 40
0.7495776502
 40
1.0
 40
1.0
 40
1.0
 40
1.0
 10
2744.6852162735
 20
-129.3323737126
 30
0.0
 10
2744.7062424757
 20
-129.3619888634
 30
0.0
 10
2744.7322105572
 20
-129.434930156
 30
0.0
 10
2744.7037918128
 20
-129.5465099509
 30
0.0
 10
2744.6212144692
 20
-129.625534089
 30
0.0
 10
2744.5471115351
 20
-129.6441297078
 30
0.0
 10
2744.5107000243
 20
-129.6441297078
 30
0.0
  0
SPLINE
  5
832
330
24F
100
AcDbEntity
  8
0
  6
Continuous
 62
     7
100
AcDbSpline
210
0.0
220
0.0
230
1.0
 70
     8
 71
     3
 72
    11
 73
     7
 74
     0
 42
0.0000000001
 43
0.0000000001
 40
0.0
 40
0.0
 40
0.0
 40
0.0
 40
0.2497944873
 40
0.4995021628
 40
0.7495776502
 40
1.0
 40
1.0
 40
1.0
 40
1.0
 10
2744.6852162735
 20
-128.1323737126
 30
0.0
 10
2744.7062424757
 20
-128.1619888634
 30
0.0
 10
2744.7322105572
 20
-128.234930156
 30
0.0
 10
2744.7037918128
 20
-128.3465099509
 30
0.0
 10
2744.6212144692
 20
-128.425534089
 30
0.0
 10
2744.5471115351
 20
-128.4441297078
 30
0.0
 10
2744.5107000243
 20
-128.4441297078
 30
0.0
  0
LINE
  5
833
330
24F
100
AcDbEntity
  8
0
  6
Continuous
 62
     7
100
AcDbLine
 10
2744.4102353048
 20
-136.1441797903
 30
0.0
 11
2744.2772786312
 21
-135.9558857029
 31
0.0
  0
LINE
  5
834
330
24F
100
AcDbEntity
  8
0
  6
Continuous
 62
     7
100
AcDbLine
 10
2756.5334281838
 20
-135.9558857029
 30
0.0
 11
2756.4004715409
 21
-136.1441797467
 31
0.0
  0
LINE
  5
835
330
24F
100
AcDbEntity
  8
0
  6
Continuous
 62
     7
100
AcDbLine
 10
2753.3865602569
 20
-137.1441493203
 30
0.0
 11
2753.3723245861
 21
-137.4666463115
 31
0.0
  0
LINE
  5
836
330
24F
100
AcDbEntity
  8
0
  6
Continuous
 62
     7
100
AcDbLine
 10
2747.4241465581
 20
-137.1441493203
 30
0.0
 11
2747.4383822289
 21
-137.4666463115
 31
0.0
  0
SPLINE
  5
837
330
24F
100
AcDbEntity
  8
0
  6
Continuous
 62
     7
100
AcDbSpline
210
0.0
220
0.0
230
1.0
 70
     8
 71
     3
 72
    11
 73
     7
 74
     0
 42
0.0000000001
 43
0.0000000001
 40
0.0
 40
0.0
 40
0.0
 40
0.0
 40
0.250394795
 40
0.5004447368000001
 40
0.7501827961
 40
1.0
 40
1.0
 40
1.0
 40
1.0
 10
2744.4511532093
 20
-135.6441297078
 30
0.0
 10
2744.414804109
 20
-135.6441297078
 30
0.0
 10
2744.3407884997
 20
-135.6627217406
 30
0.0
 10
2744.2586577645
 20
-135.7420134413
 30
0.0
 10
2744.230677016
 20
-135.8534114515
 30
0.0
 10
2744.2563740835
 20
-135.9262517954999
 30
0.0
 10
2744.2772786312
 20
-135.9558857029
 30
0.0
  0
SPLINE
  5
838
330
24F
100
AcDbEntity
  8
0
  6
Continuous
 62
     7
100
AcDbSpline
210
0.0
220
0.0
230
1.0
 70
     8
 71
     3
 72
    11
 73
     7
 74
     0
 42
0.0000000001
 43
0.0000000001
 40
0.0
 40
0.0
 40
0.0
 40
0.0
 40
0.250394795
 40
0.5004447368000001
 40
0.7501827961
 40
1.0
 40
1.0
 40
1.0
 40
1.0
 10
2744.4511532093
 20
-134.4441297078
 30
0.0
 10
2744.414804109
 20
-134.4441297078
 30
0.0
 10
2744.3407884997
 20
-134.4627217406
 30
0.0
 10
2744.2586577645
 20
-134.5420134413
 30
0.0
 10
2744.230677016
 20
-134.6534114515
 30
0.0
 10
2744.2563740835
 20
-134.7262517955
 30
0.0
 10
2744.2772786312
 20
-134.7558857029
 30
0.0
  0
SPLINE
  5
839
330
24F
100
AcDbEntity
  8
0
  6
Continuous
 62
     7
100
AcDbSpline
210
0.0
220
0.0
230
1.0
 70
     8
 71
     3
 72
    11
 73
     7
 74
     0
 42
0.0000000001
 43
0.0000000001
 40
0.0
 40
0.0
 40
0.0
 40
0.0
 40
0.250394795
 40
0.5004447368000001
 40
0.7501827961
 40
1.0
 40
1.0
 40
1.0
 40
1.0
 10
2744.4511532093
 20
-133.2441297078
 30
0.0
 10
2744.414804109
 20
-133.2441297078
 30
0.0
 10
2744.3407884997
 20
-133.2627217406
 30
0.0
 10
2744.2586577645
 20
-133.3420134413
 30
0.0
 10
2744.230677016
 20
-133.4534114515
 30
0.0
 10
2744.2563740835
 20
-133.5262517955
 30
0.0
 10
2744.2772786312
 20
-133.5558857029
 30
0.0
  0
SPLINE
  5
83A
330
24F
100
AcDbEntity
  8
0
  6
Continuous
 62
     7
100
AcDbSpline
210
0.0
220
0.0
230
1.0
 70
     8
 71
     3
 72
    11
 73
     7
 74
     0
 42
0.0000000001
 43
0.0000000001
 40
0.0
 40
0.0
 40
0.0
 40
0.0
 40
0.250394795
 40
0.5004447368000001
 40
0.7501827961
 40
1.0
 40
1.0
 40
1.0
 40
1.0
 10
2744.4511532093
 20
-132.0441297078
 30
0.0
 10
2744.414804109
 20
-132.0441297078
 30
0.0
 10
2744.3407884997
 20
-132.0627217406
 30
0.0
 10
2744.2586577645
 20
-132.1420134413
 30
0.0
 10
2744.230677016
 20
-132.2534114515
 30
0.0
 10
2744.2563740835
 20
-132.3262517955
 30
0.0
 10
2744.2772786312
 20
-132.3558857029
 30
0.0
  0
SPLINE
  5
83B
330
24F
100
AcDbEntity
  8
0
  6
Continuous
 62
     7
100
AcDbSpline
210
0.0
220
0.0
230
1.0
 70
     8
 71
     3
 72
    11
 73
     7
 74
     0
 42
0.0000000001
 43
0.0000000001
 40
0.0
 40
0.0
 40
0.0
 40
0.0
 40
0.250394795
 40
0.5004447368000001
 40
0.7501827961
 40
1.0
 40
1.0
 40
1.0
 40
1.0
 10
2744.4511532093
 20
-130.8441297078
 30
0.0
 10
2744.414804109
 20
-130.8441297078
 30
0.0
 10
2744.3407884997
 20
-130.8627217406
 30
0.0
 10
2744.2586577645
 20
-130.9420134413
 30
0.0
 10
2744.230677016
 20
-131.0534114515
 30
0.0
 10
2744.2563740835
 20
-131.1262517955
 30
0.0
 10
2744.2772786312
 20
-131.1558857029
 30
0.0
  0
SPLINE
  5
83C
330
24F
100
AcDbEntity
  8
0
  6
Continuous
 62
     7
100
AcDbSpline
210
0.0
220
0.0
230
1.0
 70
     8
 71
     3
 72
    11
 73
     7
 74
     0
 42
0.0000000001
 43
0.0000000001
 40
0.0
 40
0.0
 40
0.0
 40
0.0
 40
0.250394795
 40
0.5004447368000001
 40
0.7501827961
 40
1.0
 40
1.0
 40
1.0
 40
1.0
 10
2744.4511532093
 20
-129.6441297078
 30
0.0
 10
2744.414804109
 20
-129.6441297078
 30
0.0
 10
2744.3407884997
 20
-129.6627217406
 30
0.0
 10
2744.2586577645
 20
-129.7420134413
 30
0.0
 10
2744.230677016
 20
-129.8534114515
 30
0.0
 10
2744.2563740835
 20
-129.9262517955
 30
0.0
 10
2744.2772786312
 20
-129.9558857029
 30
0.0
  0
SPLINE
  5
83D
330
24F
100
AcDbEntity
  8
0
  6
Continuous
 62
     7
100
AcDbSpline
210
0.0
220
0.0
230
1.0
 70
     8
 71
     3
 72
    11
 73
     7
 74
     0
 42
0.0000000001
 43
0.0000000001
 40
0.0
 40
0.0
 40
0.0
 40
0.0
 40
0.250394795
 40
0.5004447368000001
 40
0.7501827961
 40
1.0
 40
1.0
 40
1.0
 40
1.0
 10
2744.4511532093
 20
-128.4441297078
 30
0.0
 10
2744.414804109
 20
-128.4441297078
 30
0.0
 10
2744.3407884997
 20
-128.4627217406
 30
0.0
 10
2744.2586577645
 20
-128.5420134413
 30
0.0
 10
2744.230677016
 20
-128.6534114515
 30
0.0
 10
2744.2563740835
 20
-128.7262517955
 30
0.0
 10
2744.2772786312
 20
-128.7558857029
 30
0.0
  0
SPLINE
  5
83E
330
24F
100
AcDbEntity
  8
0
  6
Continuous
 62
     7
100
AcDbSpline
210
0.0
220
0.0
230
1.0
 70
     8
 71
     3
 72
    11
 73
     7
 74
     0
 42
0.0000000001
 43
0.0000000001
 40
0.0
 40
0.0
 40
0.0
 40
0.0
 40
0.250394795
 40
0.5004447368000001
 40
0.7501827961
 40
1.0
 40
1.0
 40
1.0
 40
1.0
 10
2744.4511532093
 20
-127.2441297078
 30
0.0
 10
2744.414804109
 20
-127.2441297078
 30
0.0
 10
2744.3407884997
 20
-127.2627217406
 30
0.0
 10
2744.2586577645
 20
-127.3420134413
 30
0.0
 10
2744.230677016
 20
-127.4534114515
 30
0.0
 10
2744.2563740835
 20
-127.5262517955
 30
0.0
 10
2744.2772786312
 20
-127.5558857029
 30
0.0
  0
SPLINE
  5
83F
330
24F
100
AcDbEntity
  8
0
  6
Continuous
 62
     7
100
AcDbSpline
210
0.0
220
0.0
230
1.0
 70
     8
 71
     3
 72
    11
 73
     7
 74
     0
 42
0.0000000001
 43
0.0000000001
 40
0.0
 40
0.0
 40
0.0
 40
0.0
 40
0.2504223498
 40
0.5004978373000001
 40
0.7502055127
 40
1.0
 40
1.0
 40
1.0
 40
1.0
 10
2756.3000067907
 20
-135.6441297078
 30
0.0
 10
2756.2635952798
 20
-135.6441297078
 30
0.0
 10
2756.189492345701
 20
-135.6255340889999
 30
0.0
 10
2756.1069150022
 20
-135.5465099509
 30
0.0
 10
2756.078496257801
 20
-135.434930156
 30
0.0
 10
2756.1044643392
 20
-135.3619888634
 30
0.0
 10
2756.125490541501
 20
-135.3323737126
 30
0.0
  0
SPLINE
  5
840
330
24F
100
AcDbEntity
  8
0
  6
Continuous
 62
     7
100
AcDbSpline
210
0.0
220
0.0
230
1.0
 70
     8
 71
     3
 72
    11
 73
     7
 74
     0
 42
0.0000000001
 43
0.0000000001
 40
0.0
 40
0.0
 40
0.0
 40
0.0
 40
0.2504223498
 40
0.5004978372
 40
0.7502055127
 40
1.0
 40
1.0
 40
1.0
 40
1.0
 10
2756.3000067907
 20
-134.4441297078
 30
0.0
 10
2756.2635952798
 20
-134.4441297078
 30
0.0
 10
2756.189492345801
 20
-134.425534089
 30
0.0
 10
2756.1069150022
 20
-134.3465099509
 30
0.0
 10
2756.078496257801
 20
-134.234930156
 30
0.0
 10
2756.1044643392
 20
-134.1619888634
 30
0.0
 10
2756.125490541501
 20
-134.1323737126
 30
0.0
  0
SPLINE
  5
841
330
24F
100
AcDbEntity
  8
0
  6
Continuous
 62
     7
100
AcDbSpline
210
0.0
220
0.0
230
1.0
 70
     8
 71
     3
 72
    11
 73
     7
 74
     0
 42
0.0000000001
 43
0.0000000001
 40
0.0
 40
0.0
 40
0.0
 40
0.0
 40
0.2504223498
 40
0.5004978372
 40
0.7502055127
 40
1.0
 40
1.0
 40
1.0
 40
1.0
 10
2756.3000067907
 20
-133.2441297078
 30
0.0
 10
2756.2635952798
 20
-133.2441297078
 30
0.0
 10
2756.189492345801
 20
-133.225534089
 30
0.0
 10
2756.1069150022
 20
-133.1465099509
 30
0.0
 10
2756.078496257801
 20
-133.034930156
 30
0.0
 10
2756.1044643392
 20
-132.9619888634
 30
0.0
 10
2756.125490541501
 20
-132.9323737126
 30
0.0
  0
SPLINE
  5
842
330
24F
100
AcDbEntity
  8
0
  6
Continuous
 62
     7
100
AcDbSpline
210
0.0
220
0.0
230
1.0
 70
     8
 71
     3
 72
    11
 73
     7
 74
     0
 42
0.0000000001
 43
0.0000000001
 40
0.0
 40
0.0
 40
0.0
 40
0.0
 40
0.2504223498
 40
0.5004978372
 40
0.7502055127
 40
1.0
 40
1.0
 40
1.0
 40
1.0
 10
2756.3000067907
 20
-132.0441297078
 30
0.0
 10
2756.2635952798
 20
-132.0441297078
 30
0.0
 10
2756.189492345801
 20
-132.025534089
 30
0.0
 10
2756.1069150022
 20
-131.9465099509
 30
0.0
 10
2756.078496257801
 20
-131.834930156
 30
0.0
 10
2756.1044643392
 20
-131.7619888634
 30
0.0
 10
2756.125490541501
 20
-131.7323737126
 30
0.0
  0
SPLINE
  5
843
330
24F
100
AcDbEntity
  8
0
  6
Continuous
 62
     7
100
AcDbSpline
210
0.0
220
0.0
230
1.0
 70
     8
 71
     3
 72
    11
 73
     7
 74
     0
 42
0.0000000001
 43
0.0000000001
 40
0.0
 40
0.0
 40
0.0
 40
0.0
 40
0.2504223498
 40
0.5004978372
 40
0.7502055127
 40
1.0
 40
1.0
 40
1.0
 40
1.0
 10
2756.3000067907
 20
-130.8441297078
 30
0.0
 10
2756.2635952798
 20
-130.8441297078
 30
0.0
 10
2756.189492345801
 20
-130.825534089
 30
0.0
 10
2756.1069150022
 20
-130.7465099509
 30
0.0
 10
2756.078496257801
 20
-130.634930156
 30
0.0
 10
2756.1044643392
 20
-130.5619888634
 30
0.0
 10
2756.125490541501
 20
-130.5323737126
 30
0.0
  0
SPLINE
  5
844
330
24F
100
AcDbEntity
  8
0
  6
Continuous
 62
     7
100
AcDbSpline
210
0.0
220
0.0
230
1.0
 70
     8
 71
     3
 72
    11
 73
     7
 74
     0
 42
0.0000000001
 43
0.0000000001
 40
0.0
 40
0.0
 40
0.0
 40
0.0
 40
0.2504223498
 40
0.5004978372
 40
0.7502055127
 40
1.0
 40
1.0
 40
1.0
 40
1.0
 10
2756.3000067907
 20
-129.6441297078
 30
0.0
 10
2756.2635952798
 20
-129.6441297078
 30
0.0
 10
2756.189492345801
 20
-129.625534089
 30
0.0
 10
2756.1069150022
 20
-129.5465099509
 30
0.0
 10
2756.078496257801
 20
-129.434930156
 30
0.0
 10
2756.1044643392
 20
-129.3619888634
 30
0.0
 10
2756.125490541501
 20
-129.3323737126
 30
0.0
  0
SPLINE
  5
845
330
24F
100
AcDbEntity
  8
0
  6
Continuous
 62
     7
100
AcDbSpline
210
0.0
220
0.0
230
1.0
 70
     8
 71
     3
 72
    11
 73
     7
 74
     0
 42
0.0000000001
 43
0.0000000001
 40
0.0
 40
0.0
 40
0.0
 40
0.0
 40
0.2504223498
 40
0.5004978372
 40
0.7502055127
 40
1.0
 40
1.0
 40
1.0
 40
1.0
 10
2756.3000067907
 20
-128.4441297078
 30
0.0
 10
2756.2635952798
 20
-128.4441297078
 30
0.0
 10
2756.189492345801
 20
-128.425534089
 30
0.0
 10
2756.1069150022
 20
-128.3465099509
 30
0.0
 10
2756.078496257801
 20
-128.234930156
 30
0.0
 10
2756.1044643392
 20
-128.1619888634
 30
0.0
 10
2756.125490541501
 20
-128.1323737126
 30
0.0
  0
SPLINE
  5
846
330
24F
100
AcDbEntity
  8
0
  6
Continuous
 62
     7
100
AcDbSpline
210
0.0
220
0.0
230
1.0
 70
     8
 71
     3
 72
    10
 73
     6
 74
     0
 42
0.0000000001
 43
0.0000000001
 40
0.0
 40
0.0
 40
0.0
 40
0.0
 40
0.5000000584000001
 40
0.7500000682
 40
1.0
 40
1.0
 40
1.0
 40
1.0
 10
2757.333556637801
 20
-148.6441297078
 30
0.0
 10
2756.6744041724
 20
-147.5568101269
 30
0.0
 10
2755.68396143
 20
-145.926857843
 30
0.0
 10
2754.3525945788
 20
-143.7601912897
 30
0.0
 10
2753.680008215201
 20
-142.6810945471
 30
0.0
 10
2753.339633557701
 20
-142.1441297078
 30
0.0
  0
SPLINE
  5
847
330
24F
100
AcDbEntity
  8
0
  6
Continuous
 62
     7
100
AcDbSpline
210
0.0
220
0.0
230
1.0
 70
     8
 71
     3
 72
    10
 73
     6
 74
     0
 42
0.0000000001
 43
0.0000000001
 40
0.0
 40
0.0
 40
0.0
 40
0.0
 40
0.2499999299
 40
0.4999999401000001
 40
1.0
 40
1.0
 40
1.0
 40
1.0
 10
2747.471073257301
 20
-142.1441297078
 30
0.0
 10
2747.1306986024
 20
-142.6810945429
 30
0.0
 10
2746.4581121226
 20
-143.7601912086
 30
0.0
 10
2745.126745396
 20
-145.9268578395
 30
0.0
 10
2744.1363026447
 20
-147.5568101234
 30
0.0
 10
2743.4771501772
 20
-148.6441297078
 30
0.0
  0
SPLINE
  5
848
330
24F
100
AcDbEntity
  8
0
  6
Continuous
 62
     7
100
AcDbSpline
210
0.0
220
0.0
230
1.0
 70
     8
 71
     3
 72
    12
 73
     8
 74
     0
 42
0.0000000001
 43
0.0000000001
 40
0.0
 40
0.0
 40
0.0
 40
0.0
 40
0.2500738735
 40
0.5001343745
 40
0.6251905157
 40
0.7502587479000001
 40
1.0
 40
1.0
 40
1.0
 40
1.0
 10
2755.3043328931
 20
-148.6441297078
 30
0.0
 10
2755.043500065
 20
-148.3398881187
 30
0.0
 10
2754.5096812681
 20
-147.7416742461
 30
0.0
 10
2753.7991798139
 20
-147.0339090516
 30
0.0
 10
2753.1920596689
 20
-146.509658089
 30
0.0
 10
2752.5545841268
 20
-146.024946229
 30
0.0
 10
2752.0299621582
 20
-145.7191205071
 30
0.0
 10
2751.659061196
 20
-145.5687800534
 30
0.0
  0
SPLINE
  5
849
330
24F
100
AcDbEntity
  8
0
  6
Continuous
 62
     7
100
AcDbSpline
210
0.0
220
0.0
230
1.0
 70
     8
 71
     3
 72
    12
 73
     8
 74
     0
 42
0.0000000001
 43
0.0000000001
 40
0.0
 40
0.0
 40
0.0
 40
0.0
 40
0.2497412471
 40
0.3748094791
 40
0.4998656209
 40
0.7499261241
 40
1.0
 40
1.0
 40
1.0
 40
1.0
 10
2749.1516451294
 20
-145.5687802469
 30
0.0
 10
2748.7807442418
 20
-145.7191207473
 30
0.0
 10
2748.2561223612
 20
-146.0249464561
 30
0.0
 10
2747.618646912
 20
-146.5096582842
 30
0.0
 10
2747.0115268401
 20
-147.0339092031
 30
0.0
 10
2746.3010254668
 20
-147.7416743355
 30
0.0
 10
2745.7672067241
 20
-148.3398881489
 30
0.0
 10
2745.5063739219
 20
-148.6441297078
 30
0.0
  0
SPLINE
  5
84A
330
24F
100
AcDbEntity
  8
0
  6
Continuous
 62
     7
100
AcDbSpline
210
0.0
220
0.0
230
1.0
 70
     8
 71
     3
 72
    13
 73
     9
 74
     0
 42
0.0000000001
 43
0.0000000001
 40
0.0
 40
0.0
 40
0.0
 40
0.0
 40
0.3434576414
 40
0.6350419288
 40
0.7522519295000001
 40
0.8494541955
 40
0.9297776839
 40
1.0
 40
1.0
 40
1.0
 40
1.0
 10
2745.5063739219
 20
-153.1441297078
 30
0.0
 10
2745.5063739219
 20
-153.210494631
 30
0.0
 10
2745.5160872012
 20
-153.3333347938
 30
0.0
 10
2745.5530016509
 20
-153.4753934062
 30
0.0
 10
2745.597497094101
 20
-153.5629186258
 30
0.0
 10
2745.6328190336
 20
-153.6081987915
 30
0.0
 10
2745.6720420137
 20
-153.6371006208
 30
0.0
 10
2745.7013688751
 20
-153.6441297078
 30
0.0
 10
2745.7149376477
 20
-153.6441297078
 30
0.0
  0
SPLINE
  5
84B
330
24F
100
AcDbEntity
  8
0
  6
Continuous
 62
     7
100
AcDbSpline
210
0.0
220
0.0
230
1.0
 70
     8
 71
     3
 72
    13
 73
     9
 74
     0
 42
0.0000000001
 43
0.0000000001
 40
0.0
 40
0.0
 40
0.0
 40
0.0
 40
0.3434576414
 40
0.6350419288
 40
0.7522519295000001
 40
0.8494541955
 40
0.9297776839
 40
1.0
 40
1.0
 40
1.0
 40
1.0
 10
2755.3043328931
 20
-153.1441297078
 30
0.0
 10
2755.3043328931
 20
-153.210494631
 30
0.0
 10
2755.2946196138
 20
-153.3333347938
 30
0.0
 10
2755.2577051641
 20
-153.4753934062
 30
0.0
 10
2755.2132097209
 20
-153.5629186258
 30
0.0
 10
2755.1778877814
 20
-153.6081987915
 30
0.0
 10
2755.1386648012
 20
-153.6371006208
 30
0.0
 10
2755.1093379399
 20
-153.6441297078
 30
0.0
 10
2755.0957691673
 20
-153.6441297078
 30
0.0
  0
SPLINE
  5
84C
330
24F
100
AcDbEntity
  8
0
  6
Continuous
 62
     7
100
AcDbSpline
210
0.0
220
0.0
230
1.0
 70
     8
 71
     3
 72
    15
 73
    11
 74
     0
 42
0.0000000001
 43
0.0000000001
 40
0.0
 40
0.0
 40
0.0
 40
0.0
 40
0.0474968231
 40
0.1097377092
 40
0.193915975
 40
0.3030155696
 40
0.4382065629
 40
0.5996067778000001
 40
0.7869814112000002
 40
1.0
 40
1.0
 40
1.0
 40
1.0
 10
2990.4018889157
 20
-110.6441297078
 30
0.0
 10
2990.4198145591
 20
-110.6441297078
 30
0.0
 10
2990.461056025801
 20
-110.6286886767
 30
0.0
 10
2990.5116684205
 20
-110.5742816268
 30
0.0
 10
2990.5608712433
 20
-110.4909586337
 30
0.0
 10
2990.6096191569
 20
-110.3767334061
 30
0.0
 10
2990.6589277962
 20
-110.2316949853
 30
0.0
 10
2990.7079362598
 20
-110.0556539662
 30
0.0
 10
2990.7556282388
 20
-109.8490105545
 30
0.0
 10
2990.7845003279
 20
-109.7006549953
 30
0.0
 10
2990.7988469196
 20
-109.6215506891
 30
0.0
  0
SPLINE
  5
84D
330
24F
100
AcDbEntity
  8
0
  6
Continuous
 62
     7
100
AcDbSpline
210
0.0
220
0.0
230
1.0
 70
     8
 71
     3
 72
    15
 73
    11
 74
     0
 42
0.0000000001
 43
0.0000000001
 40
0.0
 40
0.0
 40
0.0
 40
0.0
 40
0.2122947396
 40
0.399037433
 40
0.5599323587000001
 40
0.6947783245999999
 40
0.8038018948000001
 40
0.8882786593999998
 40
0.9512822407999999
 40
1.0
 40
1.0
 40
1.0
 40
1.0
 10
2686.1243090886
 20
-109.6907392998
 30
0.0
 10
2686.1383105
 20
-109.7645720596
 30
0.0
 10
2686.1664523418
 20
-109.9030206768
 30
0.0
 10
2686.2128637946
 20
-110.0957680338
 30
0.0
 10
2686.2603401992
 20
-110.2599085456
 30
0.0
 10
2686.307910973801
 20
-110.395145779
 30
0.0
 10
2686.3550156288
 20
-110.5016427013
 30
0.0
 10
2686.4026245388
 20
-110.5793522452
 30
0.0
 10
2686.4517292159
 20
-110.6299895141
 30
0.0
 10
2686.4911921342
 20
-110.6441297077
 30
0.0
 10
2686.5084373691
 20
-110.6441297078
 30
0.0
  0
SPLINE
  5
84E
330
24F
100
AcDbEntity
  8
0
  6
Continuous
 62
     7
100
AcDbSpline
210
0.0
220
0.0
230
1.0
 70
     8
 71
     3
 72
    20
 73
    16
 74
     0
 42
0.0000000001
 43
0.0000000001
 40
0.0
 40
0.0
 40
0.0
 40
0.0
 40
0.0362136294
 40
0.0736459444
 40
0.155809075
 40
0.2021687623
 40
0.2527543974
 40
0.3078559999
 40
0.3675522975
 40
0.5003894847
 40
0.6513244612
 40
0.7330439541000001
 40
0.8185253991999999
 40
0.9075779693000001
 40
1.0
 40
1.0
 40
1.0
 40
1.0
 10
2985.5609388973
 20
-111.1441297028
 30
0.0
 10
2985.4798167158
 20
-111.1441224489
 30
0.0
 10
2985.314412202701
 20
-111.1276983306
 30
0.0
 10
2984.97823243
 20
-111.0276345271
 30
0.0
 10
2984.6564465242
 20
-110.8280722432
 30
0.0
 10
2984.360684999501
 20
-110.5565758051
 30
0.0
 10
2984.1347691405
 20
-110.3007925613
 30
0.0
 10
2983.91475275
 20
-110.0022890038
 30
0.0
 10
2983.6196445774
 20
-109.5319508369
 30
0.0
 10
2983.2841020747
 20
-108.8373830993
 30
0.0
 10
2982.9935460553
 20
-108.0711387975
 30
0.0
 10
2982.781129252601
 20
-107.3906673501
 30
0.0
 10
2982.632894205901
 20
-106.8359474758
 30
0.0
 10
2982.498476519601
 20
-106.2531673811
 30
0.0
 10
2982.416442225201
 20
-105.854961574
 30
0.0
 10
2982.3774210693
 20
-105.6516374397
 30
0.0
  0
SPLINE
  5
84F
330
24F
100
AcDbEntity
  8
0
  6
Continuous
 62
     7
100
AcDbSpline
210
0.0
220
0.0
230
1.0
 70
     8
 71
     3
 72
    20
 73
    16
 74
     0
 42
0.0000000001
 43
0.0000000001
 40
0.0
 40
0.0
 40
0.0
 40
0.0
 40
0.0362226826
 40
0.0735852201
 40
0.1131474546
 40
0.1558889101
 40
0.2528898334
 40
0.3673050491
 40
0.4315800837
 40
0.5004840772
 40
0.6511917984000001
 40
0.7328408795
 40
0.8184441501
 40
0.9076338081000001
 40
1.0
 40
1.0
 40
1.0
 40
1.0
 10
2959.249656716501
 20
-111.1441297078
 30
0.0
 10
2959.1685001742
 20
-111.1441297078
 30
0.0
 10
2959.0032134336
 20
-111.1277758949
 30
0.0
 10
2958.758962799401
 20
-111.0550140412
 30
0.0
 10
2958.5180896115
 20
-110.9345807298
 30
0.0
 10
2958.1883676005
 20
-110.703008064
 30
0.0
 10
2957.790847085201
 20
-110.2880729634
 30
0.0
 10
2957.4509429622
 20
-109.7698155265
 30
0.0
 10
2957.1881404578
 20
-109.2811137266
 30
0.0
 10
2956.9175306258
 20
-108.7051166098
 30
0.0
 10
2956.6832869318
 20
-108.0708018738
 30
0.0
 10
2956.4733119849
 20
-107.3900536429
 30
0.0
 10
2956.3210116037
 20
-106.8359351299
 30
0.0
 10
2956.1806646002
 20
-106.2539360697
 30
0.0
 10
2956.1002836018
 20
-105.8550804801
 30
0.0
 10
2956.0623710093
 20
-105.6516374397
 30
0.0
  0
SPLINE
  5
850
330
24F
100
AcDbEntity
  8
0
  6
Continuous
 62
     7
100
AcDbSpline
210
0.0
220
0.0
230
1.0
 70
     8
 71
     3
 72
    20
 73
    16
 74
     0
 42
0.0000000001
 43
0.0000000001
 40
0.0
 40
0.0
 40
0.0
 40
0.0
 40
0.0362136294
 40
0.0736459444
 40
0.155809075
 40
0.2021687623
 40
0.2527543974
 40
0.3078559999
 40
0.3675522975
 40
0.5003894847
 40
0.6513244612
 40
0.7330439541000001
 40
0.8185253991999999
 40
0.9075779693000001
 40
1.0
 40
1.0
 40
1.0
 40
1.0
 10
2691.2497679177
 20
-111.1441297028
 30
0.0
 10
2691.3308900992
 20
-111.1441224489
 30
0.0
 10
2691.4962946123
 20
-111.1276983306
 30
0.0
 10
2691.832474385
 20
-111.0276345271
 30
0.0
 10
2692.1542602908
 20
-110.8280722432
 30
0.0
 10
2692.450021815401
 20
-110.5565758051
 30
0.0
 10
2692.675937674501
 20
-110.3007925613
 30
0.0
 10
2692.8959540649
 20
-110.0022890038
 30
0.0
 10
2693.1910622376
 20
-109.5319508369
 30
0.0
 10
2693.5266047403
 20
-108.8373830993
 30
0.0
 10
2693.8171607597
 20
-108.0711387975
 30
0.0
 10
2694.0295775624
 20
-107.3906673501
 30
0.0
 10
2694.177812609
 20
-106.8359474758
 30
0.0
 10
2694.312230295401
 20
-106.2531673811
 30
0.0
 10
2694.3942645898
 20
-105.854961574
 30
0.0
 10
2694.4332857457
 20
-105.6516374397
 30
0.0
  0
SPLINE
  5
851
330
24F
100
AcDbEntity
  8
0
  6
Continuous
 62
     7
100
AcDbSpline
210
0.0
220
0.0
230
1.0
 70
     8
 71
     3
 72
    20
 73
    16
 74
     0
 42
0.0000000001
 43
0.0000000001
 40
0.0
 40
0.0
 40
0.0
 40
0.0
 40
0.0362226826
 40
0.0735852201
 40
0.1131474546
 40
0.1558889101
 40
0.2528898334
 40
0.3673050491
 40
0.4315800837
 40
0.5004840772
 40
0.6511917984000001
 40
0.7328408795
 40
0.8184441501
 40
0.9076338081000001
 40
1.0
 40
1.0
 40
1.0
 40
1.0
 10
2717.5610500985
 20
-111.1441297078
 30
0.0
 10
2717.6422066408
 20
-111.1441297078
 30
0.0
 10
2717.8074933814
 20
-111.1277758949
 30
0.0
 10
2718.0517440155
 20
-111.0550140412
 30
0.0
 10
2718.2926172035
 20
-110.9345807298
 30
0.0
 10
2718.6223392145
 20
-110.703008064
 30
0.0
 10
2719.0198597298
 20
-110.2880729634
 30
0.0
 10
2719.3597638528
 20
-109.7698155265
 30
0.0
 10
2719.6225663572
 20
-109.2811137266
 30
0.0
 10
2719.8931761892
 20
-108.7051166098
 30
0.0
 10
2720.1274198831
 20
-108.0708018738
 30
0.0
 10
2720.3373948301
 20
-107.3900536429
 30
0.0
 10
2720.4896952113
 20
-106.8359351299
 30
0.0
 10
2720.6300422147
 20
-106.2539360697
 30
0.0
 10
2720.7104232132
 20
-105.8550804801
 30
0.0
 10
2720.7483358057
 20
-105.6516374397
 30
0.0
  0
SPLINE
  5
852
330
24F
100
AcDbEntity
  8
0
  6
Continuous
 62
     7
100
AcDbSpline
210
0.0
220
0.0
230
1.0
 70
     8
 71
     3
 72
    18
 73
    14
 74
     0
 42
0.0000000001
 43
0.0000000001
 40
0.0
 40
0.0
 40
0.0
 40
0.0
 40
0.250018884
 40
0.3750207749999999
 40
0.5000201733000001
 40
0.6250209770000001
 40
0.7500262206999999
 40
0.8125315929999999
 40
0.8750395407999999
 40
0.9063004997
 40
0.9375113661
 40
0.9688402367
 40
1.0
 40
1.0
 40
1.0
 40
1.0
 10
2838.4053534062
 20
-63.9095908483
 30
0.0
 10
2824.3344549301
 20
-63.9095886987
 30
0.0
 10
2803.2284630685
 20
-63.9713140945
 30
0.0
 10
2775.0883822722
 20
-64.1770980335
 30
0.0
 10
2753.9845833367
 20
-64.39313450189999
 30
0.0
 10
2732.8813255592
 20
-64.67105343760001
 30
0.0
 10
2715.295629587
 20
-64.95367234300001
 30
0.0
 10
2701.2271114663
 20
-65.2115879354
 30
0.0
 10
2692.4337761448
 20
-65.38378900000001
 30
0.0
 10
2685.4016000813
 20
-65.53383478249999
 30
0.0
 10
2680.1236288233
 20
-65.6407475827
 30
0.0
 10
2674.8517490594
 20
-65.76396139259999
 30
0.0
 10
2671.3360938328
 20
-65.8582847607
 30
0.0
 10
2669.5826462641
 20
-65.8849951479
 30
0.0
  0
SPLINE
  5
853
330
24F
100
AcDbEntity
  8
0
  6
Continuous
 62
     7
100
AcDbSpline
210
0.0
220
0.0
230
1.0
 70
     8
 71
     3
 72
    18
 73
    14
 74
     0
 42
0.0000000001
 43
0.0000000001
 40
0.0
 40
0.0
 40
0.0
 40
0.0
 40
0.250018884
 40
0.3750207749999999
 40
0.5000201733000001
 40
0.6250209770000001
 40
0.7500262206999999
 40
0.8125315929999999
 40
0.8750395407999999
 40
0.9063004997
 40
0.9375113661
 40
0.9688402367
 40
1.0
 40
1.0
 40
1.0
 40
1.0
 10
2838.4053534062
 20
-63.9095908483
 30
0.0
 10
2852.4762518824
 20
-63.9095886987
 30
0.0
 10
2873.5822437444
 20
-63.9713140945
 30
0.0
 10
2901.722324541101
 20
-64.1770980335
 30
0.0
 10
2922.826123477
 20
-64.39313450189999
 30
0.0
 10
2943.9293812548
 20
-64.67105343760001
 30
0.0
 10
2961.5150772272
 20
-64.95367234300001
 30
0.0
 10
2975.5835953481
 20
-65.2115879354
 30
0.0
 10
2984.3769306699
 20
-65.38378900000001
 30
0.0
 10
2991.4091067334
 20
-65.53383478249999
 30
0.0
 10
2996.6870779915
 20
-65.6407475827
 30
0.0
 10
3001.9589577555
 20
-65.76396139259999
 30
0.0
 10
3005.4746129821
 20
-65.8582847607
 30
0.0
 10
3007.228060550801
 20
-65.8849951479
 30
0.0
  0
LINE
  5
854
330
24F
100
AcDbEntity
  8
0
  6
Continuous
 62
     7
100
AcDbLine
 10
3007.228060550801
 20
-65.8849951479
 30
0.0
 11
3008.8547236322
 21
-65.9232289398
 31
0.0
  0
LINE
  5
855
330
24F
100
AcDbEntity
  8
0
  6
Continuous
 62
     7
100
AcDbLine
 10
2669.5826462641
 20
-65.8849951479
 30
0.0
 11
2667.9559831828
 21
-65.9232289398
 31
0.0
  0
LINE
  5
856
330
24F
100
AcDbEntity
  8
0
  6
Continuous
 62
     7
100
AcDbLine
 10
3008.8547236322
 20
-65.9232289398
 30
0.0
 11
3009.267972027001
 21
-65.93305193029999
 31
0.0
  0
LINE
  5
857
330
24F
100
AcDbEntity
  8
0
  6
Continuous
 62
     7
100
AcDbLine
 10
2667.9559831828
 20
-65.9232289398
 30
0.0
 11
2667.542734788
 21
-65.93305193029999
 31
0.0
  0
SPLINE
  5
858
330
24F
100
AcDbEntity
  8
0
  6
Continuous
 62
     7
100
AcDbSpline
210
0.0
220
0.0
230
1.0
 70
     8
 71
     3
 72
    29
 73
    25
 74
     0
 42
0.0000000001
 43
0.0000000001
 40
0.0
 40
0.0
 40
0.0
 40
0.0
 40
0.000412801
 40
0.0013464547
 40
0.0028628279
 40
0.0049723092
 40
0.0076774923
 40
0.0109785499
 40
0.0193632077
 40
0.0301101766
 40
0.0431951391
 40
0.0585872446
 40
0.0762496349
 40
0.0961397322
 40
0.1182094357
 40
0.1686686315
 40
0.2271383258
 40
0.2930520959
 40
0.3657720209000001
 40
0.4445951429
 40
0.5287605351
 40
0.6174567442
 40
0.8049905525999999
 40
1.0
 40
1.0
 40
1.0
 40
1.0
 10
2667.4451056597
 20
-67.69935409609999
 30
0.0
 10
2667.4437827234
 20
-67.7228475685
 30
0.0
 10
2667.5277371985
 20
-67.7731992883
 30
0.0
 10
2667.6725028007
 20
-67.80720042430001
 30
0.0
 10
2667.935753435001
 20
-67.85676480399999
 30
0.0
 10
2668.2909561388
 20
-67.8986009387
 30
0.0
 10
2668.7527936528
 20
-67.9424426121
 30
0.0
 10
2669.5703653793
 20
-68.0023212306
 30
0.0
 10
2670.8478042673
 20
-68.0695869009
 30
0.0
 10
2672.6827634705
 20
-68.13931265149999
 30
0.0
 10
2674.9178252071
 20
-68.2025905284
 30
0.0
 10
2677.547270308
 20
-68.2592737046
 30
0.0
 10
2680.5648458779
 20
-68.30932789569999
 30
0.0
 10
2683.9631843511
 20
-68.3528886707
 30
0.0
 10
2689.2310482855
 20
-68.4048754305
 30
0.0
 10
2696.698167659
 20
-68.45186585109999
 30
0.0
 10
2706.6645861992
 20
-68.48558581279999
 30
0.0
 10
2717.8999652701
 20
-68.5017274062
 30
0.0
 10
2730.2955486334
 20
-68.5039332872
 30
0.0
 10
2743.7315168765
 20
-68.4959372628
 30
0.0
 10
2758.0781677289
 20
-68.48151297120001
 30
0.0
 10
2778.621592807
 20
-68.4579252331
 30
0.0
 10
2805.4834056982
 20
-68.43005458819999
 30
0.0
 10
2827.2893277439
 20
-68.42146993840001
 30
0.0
 10
2838.405353408
 20
-68.42146936
 30
0.0
  0
LINE
  5
859
330
24F
100
AcDbEntity
  8
0
  6
Continuous
 62
     7
100
AcDbLine
 10
2667.5427347881
 20
-65.93305192879999
 30
0.0
 11
2667.4451056597
 21
-67.69935409609999
 31
0.0
  0
SPLINE
  5
85A
330
24F
100
AcDbEntity
  8
0
  6
Continuous
 62
     7
100
AcDbSpline
210
0.0
220
0.0
230
1.0
 70
     8
 71
     3
 72
    14
 73
    10
 74
     0
 42
0.0000000001
 43
0.0000000001
 40
0.0
 40
0.0
 40
0.0
 40
0.0
 40
0.0196044532
 40
0.0673857909
 40
0.1456981263
 40
0.2548814327
 40
0.3949825715
 40
0.5659480681
 40
1.0
 40
1.0
 40
1.0
 40
1.0
 10
3017.1633472644
 20
-75.246295737
 30
0.0
 10
3017.1650858741
 20
-75.27715549220001
 30
0.0
 10
3017.035261379
 20
-75.3329459419
 30
0.0
 10
3016.837869681501
 20
-75.373455795
 30
0.0
 10
3016.4554142176
 20
-75.4302165941
 30
0.0
 10
3015.9478941174
 20
-75.47863207
 30
0.0
 10
3015.2845686923
 20
-75.52862714390001
 30
0.0
 10
3014.1129860867
 20
-75.5964682572
 30
0.0
 10
3013.1592645412
 20
-75.63538551899999
 30
0.0
 10
3012.4753676852
 20
-75.659818618
 30
0.0
  0
SPLINE
  5
85B
330
24F
100
AcDbEntity
  8
0
  6
Continuous
 62
     7
100
AcDbSpline
210
0.0
220
0.0
230
1.0
 70
     8
 71
     3
 72
    10
 73
     6
 74
     0
 42
0.0000000001
 43
0.0000000001
 40
0.0
 40
0.0
 40
0.0
 40
0.0
 40
0.1645815037
 40
0.3878552713
 40
1.0
 40
1.0
 40
1.0
 40
1.0
 10
3012.4753676852
 20
-75.659818618
 30
0.0
 10
3010.7299520814
 20
-75.7221758462
 30
0.0
 10
3006.6149445904
 20
-75.81788926129999
 30
0.0
 10
2996.0039997963
 20
-75.9629539195
 30
0.0
 10
2987.1384885669
 20
-76.0029156928
 30
0.0
 10
2980.6424776781
 20
-76.0235033718
 30
0.0
  0
LINE
  5
85C
330
24F
100
AcDbEntity
  8
0
  6
Continuous
 62
     7
100
AcDbLine
 10
2964.868029760399
 20
-76.0527638339
 30
0.0
 11
2964.1098309544
 21
-76.053362577
 31
0.0
  0
LINE
  5
85D
330
24F
100
AcDbEntity
  8
0
  6
Continuous
 62
     7
100
AcDbLine
 10
2964.1098309544
 20
-76.053362577
 30
0.0
 11
2838.405353407101
 21
-75.9755384528
 31
0.0
  0
SPLINE
  5
85E
330
24F
100
AcDbEntity
  8
0
  6
Continuous
 62
     7
100
AcDbSpline
210
0.0
220
0.0
230
1.0
 70
     8
 71
     3
 72
    14
 73
    10
 74
     0
 42
0.0000000001
 43
0.0000000001
 40
0.0
 40
0.0
 40
0.0
 40
0.0
 40
0.0196048634
 40
0.067386594
 40
0.1456991807
 40
0.2548825856
 40
0.3949836682
 40
0.5659489534000001
 40
1.0
 40
1.0
 40
1.0
 40
1.0
 10
2659.6473594788
 20
-75.24629701149999
 30
0.0
 10
2659.6456223736
 20
-75.27715749329999
 30
0.0
 10
2659.7754477665
 20
-75.3329454229
 30
0.0
 10
2659.972841778901
 20
-75.3734573584
 30
0.0
 10
2660.3552979151
 20
-75.4302168327
 30
0.0
 10
2660.8628186142
 20
-75.47863271029999
 30
0.0
 10
2661.5261435653
 20
-75.5286274364
 30
0.0
 10
2662.6977241837
 20
-75.5964684412
 30
0.0
 10
2663.6514437988
 20
-75.6353855735
 30
0.0
 10
2664.335339129801
 20
-75.659818618
 30
0.0
  0
SPLINE
  5
85F
330
24F
100
AcDbEntity
  8
0
  6
Continuous
 62
     7
100
AcDbSpline
210
0.0
220
0.0
230
1.0
 70
     8
 71
     3
 72
    10
 73
     6
 74
     0
 42
0.0000000001
 43
0.0000000001
 40
0.0
 40
0.0
 40
0.0
 40
0.0
 40
0.1645815037
 40
0.3878552713
 40
1.0
 40
1.0
 40
1.0
 40
1.0
 10
2664.335339129801
 20
-75.659818618
 30
0.0
 10
2666.0807547336
 20
-75.7221758462
 30
0.0
 10
2670.1957622246
 20
-75.81788926129999
 30
0.0
 10
2680.8067070187
 20
-75.9629539195
 30
0.0
 10
2689.6722182481
 20
-76.0029156928
 30
0.0
 10
2696.1682291369
 20
-76.0235033718
 30
0.0
  0
LINE
  5
860
330
24F
100
AcDbEntity
  8
0
  6
Continuous
 62
     7
100
AcDbLine
 10
2711.9426770546
 20
-76.0527638339
 30
0.0
 11
2712.7008758606
 21
-76.053362577
 31
0.0
  0
LINE
  5
861
330
24F
100
AcDbEntity
  8
0
  6
Continuous
 62
     7
100
AcDbLine
 10
2712.7008758606
 20
-76.053362577
 30
0.0
 11
2838.405353407101
 21
-75.9755384528
 31
0.0
  0
LINE
  5
862
330
24F
100
AcDbEntity
  8
0
  6
Continuous
 62
     7
100
AcDbLine
 10
3009.267972026901
 20
-65.93305192879999
 30
0.0
 11
3009.3656011553
 21
-67.69935409609999
 31
0.0
  0
SPLINE
  5
863
330
24F
100
AcDbEntity
  8
0
  6
Continuous
 62
     7
100
AcDbSpline
210
0.0
220
0.0
230
1.0
 70
     8
 71
     3
 72
    29
 73
    25
 74
     0
 42
0.0000000001
 43
0.0000000001
 40
0.0
 40
0.0
 40
0.0
 40
0.0
 40
0.000412801
 40
0.0013464547
 40
0.0028628279
 40
0.0049723092
 40
0.0076774923
 40
0.0109785499
 40
0.0193632077
 40
0.0301101766
 40
0.0431951391
 40
0.0585872446
 40
0.0762496349
 40
0.0961397322
 40
0.1182094357
 40
0.1686686315
 40
0.2271383258
 40
0.2930520959
 40
0.3657720209000001
 40
0.4445951429
 40
0.5287605351
 40
0.6174567442
 40
0.8049905525999999
 40
1.0
 40
1.0
 40
1.0
 40
1.0
 10
3009.3656011553
 20
-67.69935409609999
 30
0.0
 10
3009.3669240915
 20
-67.7228475685
 30
0.0
 10
3009.282969616501
 20
-67.7731992883
 30
0.0
 10
3009.1382040143
 20
-67.80720042430001
 30
0.0
 10
3008.87495338
 20
-67.85676480399999
 30
0.0
 10
3008.5197506762
 20
-67.8986009387
 30
0.0
 10
3008.0579131622
 20
-67.9424426121
 30
0.0
 10
3007.2403414357
 20
-68.0023212306
 30
0.0
 10
3005.9629025477
 20
-68.0695869009
 30
0.0
 10
3004.1279433445
 20
-68.13931265149999
 30
0.0
 10
3001.8928816079
 20
-68.2025905284
 30
0.0
 10
2999.263436507
 20
-68.2592737046
 30
0.0
 10
2996.2458609372
 20
-68.30932789569999
 30
0.0
 10
2992.847522464
 20
-68.3528886707
 30
0.0
 10
2987.5796585297
 20
-68.4048754305
 30
0.0
 10
2980.1125391562
 20
-68.45186585109999
 30
0.0
 10
2970.146120616
 20
-68.48558581279999
 30
0.0
 10
2958.910741545301
 20
-68.5017274062
 30
0.0
 10
2946.515158182
 20
-68.5039332872
 30
0.0
 10
2933.079189939
 20
-68.4959372628
 30
0.0
 10
2918.7325390867
 20
-68.48151297120001
 30
0.0
 10
2898.1891140087
 20
-68.4579252331
 30
0.0
 10
2871.327301117601
 20
-68.43005458829999
 30
0.0
 10
2849.521379072
 20
-68.42146993819999
 30
0.0
 10
2838.405353408
 20
-68.42146936
 30
0.0
  0
SPLINE
  5
864
330
24F
100
AcDbEntity
  8
0
  6
Continuous
 62
     7
100
AcDbSpline
210
0.0
220
0.0
230
1.0
 70
     8
 71
     3
 72
    22
 73
    18
 74
     0
 42
0.0000000001
 43
0.0000000001
 40
0.0
 40
0.0
 40
0.0
 40
0.0
 40
0.3522893939
 40
0.6175710883
 40
0.7121606649
 40
0.7797261536
 40
0.8042637767
 40
0.8232589641
 40
0.8486833916
 40
0.8674180976
 40
0.8855530619999999
 40
0.9045687969999999
 40
0.9240628352999999
 40
0.9431948515
 40
0.9621005336999999
 40
0.9814917413999999
 40
1.0
 40
1.0
 40
1.0
 40
1.0
 10
2925.9001367756
 20
-111.6662267844
 30
0.0
 10
2928.5322812468
 20
-111.862272
 30
0.0
 10
2933.1422708707
 20
-112.2579167781
 30
0.0
 10
2938.4459016036
 20
-112.8680443331
 30
0.0
 10
2941.6025872266
 20
-113.412836985
 30
0.0
 10
2942.9650920858
 20
-113.7368969988
 30
0.0
 10
2943.7511438022
 20
-114.0187631783
 30
0.0
 10
2944.2143663712
 20
-114.2417094942
 30
0.0
 10
2944.5999725835
 20
-114.5594397413
 30
0.0
 10
2944.729870912801
 20
-115.0196161735
 30
0.0
 10
2944.8125740115
 20
-115.4293200886
 30
0.0
 10
2944.9981888776
 20
-115.8147904877
 30
0.0
 10
2945.201559288
 20
-116.1949627034
 30
0.0
 10
2945.382554677701
 20
-116.5862311046
 30
0.0
 10
2945.5430737311
 20
-116.9873368362
 30
0.0
 10
2945.7293155094
 20
-117.3635040018
 30
0.0
 10
2945.8753425102
 20
-117.6246076171
 30
0.0
 10
2945.879370702601
 20
-117.763217335
 30
0.0
  0
SPLINE
  5
865
330
24F
100
AcDbEntity
  8
0
  6
Continuous
 62
     7
100
AcDbSpline
210
0.0
220
0.0
230
1.0
 70
     8
 71
     3
 72
     9
 73
     5
 74
     0
 42
0.0000000001
 43
0.0000000001
 40
0.0
 40
0.0
 40
0.0
 40
0.0
 40
0.4160308640000001
 40
1.0
 40
1.0
 40
1.0
 40
1.0
 10
2941.8663096643
 20
-119.1524855291
 30
0.0
 10
2939.9118748866
 20
-119.4739564443
 30
0.0
 10
2935.1777662927
 20
-120.0141243225
 30
0.0
 10
2930.432005955801
 20
-120.3898480114
 30
0.0
 10
2927.6584187039
 20
-120.5820674618
 30
0.0
  0
LINE
  5
866
330
24F
100
AcDbEntity
  8
0
  6
Continuous
 62
     7
100
AcDbLine
 10
2927.6584187039
 20
-120.5820674618
 30
0.0
 11
2927.6072461389
 21
-120.5856106489
 31
0.0
  0
SPLINE
  5
867
330
24F
100
AcDbEntity
  8
0
  6
Continuous
 62
     7
100
AcDbSpline
210
0.0
220
0.0
230
1.0
 70
     8
 71
     3
 72
    22
 73
    18
 74
     0
 42
0.0000000001
 43
0.0000000001
 40
0.0
 40
0.0
 40
0.0
 40
0.0
 40
0.3522884207
 40
0.617570218
 40
0.7121606519000001
 40
0.7797271188
 40
0.8042652262
 40
0.8232608687
 40
0.8486857345999998
 40
0.8674202797999999
 40
0.8855549224
 40
0.9045703032
 40
0.9240640215
 40
0.9431957451999998
 40
0.9621011152999999
 40
0.981491987
 40
1.0
 40
1.0
 40
1.0
 40
1.0
 10
2750.911079632701
 20
-111.6661888297
 30
0.0
 10
2748.2788830786
 20
-111.8622343049
 30
0.0
 10
2743.6687957163
 20
-112.2578799681
 30
0.0
 10
2738.3650453379
 20
-112.8680120155
 30
0.0
 10
2735.2082721078
 20
-113.4128059525
 30
0.0
 10
2733.8457179227
 20
-113.7368677485
 30
0.0
 10
2733.0596312236
 20
-114.0187348135
 30
0.0
 10
2732.5963852299
 20
-114.2416814279
 30
0.0
 10
2732.210753323
 20
-114.5594071133
 30
0.0
 10
2732.0808379706
 20
-115.0195907447
 30
0.0
 10
2731.9981413523
 20
-115.4292992019
 30
0.0
 10
2731.8125272198
 20
-115.8147726434
 30
0.0
 10
2731.6091557787
 20
-116.1949469602
 30
0.0
 10
2731.4281577493
 20
-116.5862172292
 30
0.0
 10
2731.2676378151
 20
-116.987325307
 30
0.0
 10
2731.081396612
 20
-117.3634962905
 30
0.0
 10
2730.9353667601
 20
-117.6245999755
 30
0.0
 10
2730.9313362994
 20
-117.7632109004
 30
0.0
  0
SPLINE
  5
868
330
24F
100
AcDbEntity
  8
0
  6
Continuous
 62
     7
100
AcDbSpline
210
0.0
220
0.0
230
1.0
 70
     8
 71
     3
 72
     9
 73
     5
 74
     0
 42
0.0000000001
 43
0.0000000001
 40
0.0
 40
0.0
 40
0.0
 40
0.0
 40
0.4160877654
 40
1.0
 40
1.0
 40
1.0
 40
1.0
 10
2734.9443971507
 20
-119.1524855291
 30
0.0
 10
2736.8962272432
 20
-119.4735280184
 30
0.0
 10
2741.623346297
 20
-120.0131448061
 30
0.0
 10
2746.3621176086
 20
-120.3885538242
 30
0.0
 10
2749.1313498754
 20
-120.580615822
 30
0.0
  0
LINE
  5
869
330
24F
100
AcDbEntity
  8
0
  6
Continuous
 62
     7
100
AcDbLine
 10
2749.1313498754
 20
-120.580615822
 30
0.0
 11
2749.2034606761
 21
-120.5856106489
 31
0.0
  0
SPLINE
  5
86A
330
24F
100
AcDbEntity
  8
0
  6
Continuous
 62
     7
100
AcDbSpline
210
0.0
220
0.0
230
1.0
 70
     8
 71
     3
 72
     9
 73
     5
 74
     0
 42
0.0000000001
 43
0.0000000001
 40
0.0
 40
0.0
 40
0.0
 40
0.0
 40
0.5572349071
 40
1.0
 40
1.0
 40
1.0
 40
1.0
 10
2838.4053534075
 20
-122.9073978767
 30
0.0
 10
2854.4676240086
 20
-122.9073890043
 30
0.0
 10
2883.2892506327
 20
-122.7187681635
 30
0.0
 10
2912.1160690011
 20
-121.759666105
 30
0.0
 10
2924.841650647
 20
-120.7872151099
 30
0.0
  0
SPLINE
  5
86B
330
24F
100
AcDbEntity
  8
0
  6
Continuous
 62
     7
100
AcDbSpline
210
0.0
220
0.0
230
1.0
 70
     8
 71
     3
 72
     9
 73
     5
 74
     0
 42
0.0000000001
 43
0.0000000001
 40
0.0
 40
0.0
 40
0.0
 40
0.0
 40
0.2881065002
 40
1.0
 40
1.0
 40
1.0
 40
1.0
 10
2943.4410822119
 20
-118.895461793
 30
0.0
 10
2943.6423996583
 20
-118.8624064964
 30
0.0
 10
2944.3403214569
 20
-118.7430871618
 30
0.0
 10
2945.0358468917
 20
-118.6065861002
 30
0.0
 10
2945.5254424291
 20
-118.4865150877
 30
0.0
  0
SPLINE
  5
86C
330
24F
100
AcDbEntity
  8
0
  6
Continuous
 62
     7
100
AcDbSpline
210
0.0
220
0.0
230
1.0
 70
     8
 71
     3
 72
    18
 73
    14
 74
     0
 42
0.0000000001
 43
0.0000000001
 40
0.0
 40
0.0
 40
0.0
 40
0.0
 40
0.1513157902
 40
0.2752227928
 40
0.3713555223
 40
0.4404445407
 40
0.4885127636
 40
0.5275117218
 40
0.6109201769000001
 40
0.7075292532999999
 40
0.8046282468999999
 40
0.9010871153
 40
1.0
 40
1.0
 40
1.0
 40
1.0
 10
2945.5254424291
 20
-118.4865150877
 30
0.0
 10
2945.6838892084
 20
-118.4476567571
 30
0.0
 10
2945.9710033176
 20
-118.3722659185
 30
0.0
 10
2946.3525467192
 20
-118.2501379096
 30
0.0
 10
2946.6408637141
 20
-118.1297804627
 30
0.0
 10
2946.8384310321
 20
-118.0097518361
 30
0.0
 10
2946.951382120201
 20
-117.8766477562
 30
0.0
 10
2946.9799623031
 20
-117.6865857956
 30
0.0
 10
2946.862134787
 20
-117.4670493141
 30
0.0
 10
2946.6817503209
 20
-117.233770969
 30
0.0
 10
2946.5019148282
 20
-116.9762405721
 30
0.0
 10
2946.3332959758
 20
-116.7101049299
 30
0.0
 10
2946.2159984118
 20
-116.5350475201
 30
0.0
 10
2946.157718485
 20
-116.445737366
 30
0.0
  0
SPLINE
  5
86D
330
24F
100
AcDbEntity
  8
0
  6
Continuous
 62
     7
100
AcDbSpline
210
0.0
220
0.0
230
1.0
 70
     8
 71
     3
 72
    20
 73
    16
 74
     0
 42
0.0000000001
 43
0.0000000001
 40
0.0
 40
0.0
 40
0.0
 40
0.0
 40
0.0319086449
 40
0.0631244311
 40
0.0786777323
 40
0.0952716292
 40
0.1153429726
 40
0.146840484
 40
0.1971242947
 40
0.2662709267999999
 40
0.35232844
 40
0.4533349845
 40
0.5684072497
 40
0.6976030332
 40
1.0
 40
1.0
 40
1.0
 40
1.0
 10
2946.157718485
 20
-116.445737366
 30
0.0
 10
2946.0304806667
 20
-116.2507537794
 30
0.0
 10
2945.7821910982
 20
-115.8622524098
 30
0.0
 10
2945.524264549
 20
-115.3481815015
 30
0.0
 10
2945.3352849476
 20
-114.9267655166
 30
0.0
 10
2945.1681972504
 20
-114.5825084782
 30
0.0
 10
2944.8173368492
 20
-114.2128662723
 30
0.0
 10
2944.1176343375
 20
-113.9248744535
 30
0.0
 10
2943.0598580622
 20
-113.6321649776
 30
0.0
 10
2941.5870420311
 20
-113.3362053083
 30
0.0
 10
2939.742280254601
 20
-113.0368952256
 30
0.0
 10
2937.5571558238
 20
-112.7410143604
 30
0.0
 10
2935.0544869645
 20
-112.4513523438
 30
0.0
 10
2931.0851746502
 20
-112.0556545619
 30
0.0
 10
2927.9454036069
 20
-111.807736359
 30
0.0
 10
2925.744374507701
 20
-111.6526634552
 30
0.0
  0
SPLINE
  5
86E
330
24F
100
AcDbEntity
  8
0
  6
Continuous
 62
     7
100
AcDbSpline
210
0.0
220
0.0
230
1.0
 70
     8
 71
     3
 72
    11
 73
     7
 74
     0
 42
0.0000000001
 43
0.0000000001
 40
0.0
 40
0.0
 40
0.0
 40
0.0
 40
0.1979369325
 40
0.4396167631
 40
0.7119876174
 40
1.0
 40
1.0
 40
1.0
 40
1.0
 10
2925.0722658226
 20
-120.7534536405
 30
0.0
 10
2919.3632203664
 20
-121.1154467303
 30
0.0
 10
2906.6705786842
 20
-121.7122987033
 30
0.0
 10
2886.1023366926
 20
-122.3264006832
 30
0.0
 10
2862.9246513115
 20
-122.7052967939
 30
0.0
 10
2846.7291048332
 20
-122.7952924985
 30
0.0
 10
2838.4053534075
 20
-122.7952924985
 30
0.0
  0
SPLINE
  5
86F
330
24F
100
AcDbEntity
  8
0
  6
Continuous
 62
     7
100
AcDbSpline
210
0.0
220
0.0
230
1.0
 70
     8
 71
     3
 72
     9
 73
     5
 74
     0
 42
0.0000000001
 43
0.0000000001
 40
0.0
 40
0.0
 40
0.0
 40
0.0
 40
0.5565926419000001
 40
1.0
 40
1.0
 40
1.0
 40
1.0
 10
2838.4053534075
 20
-122.9073978767
 30
0.0
 10
2822.4190148171
 20
-122.9073890462
 30
0.0
 10
2793.700554180701
 20
-122.7183846181
 30
0.0
 10
2764.9767695956
 20
-121.7736832593
 30
0.0
 10
2752.2777739485
 20
-120.8107159812
 30
0.0
  0
SPLINE
  5
870
330
24F
100
AcDbEntity
  8
0
  6
Continuous
 62
     7
100
AcDbSpline
210
0.0
220
0.0
230
1.0
 70
     8
 71
     3
 72
    30
 73
    26
 74
     0
 42
0.0000000001
 43
0.0000000001
 40
0.0
 40
0.0
 40
0.0
 40
0.0
 40
0.0017812743
 40
0.0036736434
 40
0.0057202131
 40
0.0080233628
 40
0.0134034537
 40
0.0197996015
 40
0.0238043213
 40
0.0292765052
 40
0.033255189
 40
0.038326719
 40
0.0518106581
 40
0.0694444124
 40
0.0907287282
 40
0.1153369004
 40
0.1432042916
 40
0.1744222573
 40
0.2090822282
 40
0.2889664279
 40
0.3829249467
 40
0.4902325450000001
 40
0.7357827474
 40
0.8671718159999999
 40
1.0
 40
1.0
 40
1.0
 40
1.0
 10
2725.1685790602
 20
-113.5869286662
 30
0.0
 10
2725.1563233485
 20
-113.5195004219
 30
0.0
 10
2725.2022236297
 20
-113.3775905747
 30
0.0
 10
2725.252803611001
 20
-113.1666750975
 30
0.0
 10
2725.2976314083
 20
-112.9293667209
 30
0.0
 10
2725.4208234123
 20
-112.5754208717
 30
0.0
 10
2725.6249931933
 20
-112.0734242095
 30
0.0
 10
2725.8455498938
 20
-111.5090672476
 30
0.0
 10
2726.143218091
 20
-110.9672989387
 30
0.0
 10
2726.5718633209
 20
-110.6479472742
 30
0.0
 10
2727.084828594501
 20
-110.4274641444
 30
0.0
 10
2727.9090014181
 20
-110.1542547137
 30
0.0
 10
2729.2673499184
 20
-109.8408659021
 30
0.0
 10
2731.2520059108
 20
-109.4852428224
 30
0.0
 10
2733.6709611089
 20
-109.1325279119
 30
0.0
 10
2736.4880240893
 20
-108.7883445069
 30
0.0
 10
2739.6916075715
 20
-108.4613077934
 30
0.0
 10
2743.2856264862
 20
-108.1564744694
 30
0.0
 10
2748.8804394276
 20
-107.7683568202
 30
0.0
 10
2756.8930305925
 20
-107.3681822286
 30
0.0
 10
2767.7034489548
 20
-106.9860227435
 30
0.0
 10
2784.88840179
 20
-106.5308087602
 30
0.0
 10
2803.5168110819
 20
-106.1903194114
 30
0.0
 10
2823.1293202549
 20
-106.0400276176
 30
0.0
 10
2833.294903958499
 20
-106.0482505611
 30
0.0
 10
2838.4053534075
 20
-106.0483007957
 30
0.0
  0
SPLINE
  5
871
330
24F
100
AcDbEntity
  8
0
  6
Continuous
 62
     7
100
AcDbSpline
210
0.0
220
0.0
230
1.0
 70
     8
 71
     3
 72
    12
 73
     8
 74
     0
 42
0.0000000001
 43
0.0000000001
 40
0.0
 40
0.0
 40
0.0
 40
0.0
 40
0.1073058368
 40
0.1851208917
 40
0.2898038325
 40
0.5864192126
 40
1.0
 40
1.0
 40
1.0
 40
1.0
 10
2945.879370702601
 20
-117.763217335
 30
0.0
 10
2945.882219442
 20
-117.8612421856
 30
0.0
 10
2945.8038375278
 20
-118.0333029655
 30
0.0
 10
2945.5911121961
 20
-118.1928053237
 30
0.0
 10
2945.2009311332
 20
-118.3949465829
 30
0.0
 10
2944.4886586125
 20
-118.6228911646
 30
0.0
 10
2943.8574206434
 20
-118.772807137
 30
0.0
 10
2943.4877247665
 20
-118.8514566376
 30
0.0
  0
SPLINE
  5
872
330
24F
100
AcDbEntity
  8
0
  6
Continuous
 62
     7
100
AcDbSpline
210
0.0
220
0.0
230
1.0
 70
     8
 71
     3
 72
     9
 73
     5
 74
     0
 42
0.0000000001
 43
0.0000000001
 40
0.0
 40
0.0
 40
0.0
 40
0.0
 40
0.2296011409
 40
1.0
 40
1.0
 40
1.0
 40
1.0
 10
2943.3898536075
 20
-118.8720721624
 30
0.0
 10
2943.2737853135
 20
-118.8962816731
 30
0.0
 10
2942.7675369121
 20
-118.9982367154
 30
0.0
 10
2942.2588694524
 20
-119.0879161938
 30
0.0
 10
2941.8663096643
 20
-119.1524855291
 30
0.0
  0
SPLINE
  5
873
330
24F
100
AcDbEntity
  8
0
  6
Continuous
 62
     7
100
AcDbSpline
210
0.0
220
0.0
230
1.0
 70
     8
 71
     3
 72
     9
 73
     5
 74
     0
 42
0.0000000001
 43
0.0000000001
 40
0.0
 40
0.0
 40
0.0
 40
0.0
 40
0.2878482588
 40
1.0
 40
1.0
 40
1.0
 40
1.0
 10
2733.3479866683
 20
-118.8919040097
 30
0.0
 10
2733.1489399655
 20
-118.8591304494
 30
0.0
 10
2732.4582689642
 20
-118.7407517458
 30
0.0
 10
2731.7699831296
 20
-118.6053900894
 30
0.0
 10
2731.2852643859
 20
-118.4865150877
 30
0.0
  0
SPLINE
  5
874
330
24F
100
AcDbEntity
  8
0
  6
Continuous
 62
     7
100
AcDbSpline
210
0.0
220
0.0
230
1.0
 70
     8
 71
     3
 72
    18
 73
    14
 74
     0
 42
0.0000000001
 43
0.0000000001
 40
0.0
 40
0.0
 40
0.0
 40
0.0
 40
0.1513157902
 40
0.2752227928
 40
0.3713555223
 40
0.4404445407
 40
0.4885127636
 40
0.5275117218
 40
0.6109201769000001
 40
0.7075292532999999
 40
0.8046282468999999
 40
0.9010871153
 40
1.0
 40
1.0
 40
1.0
 40
1.0
 10
2731.2852643859
 20
-118.4865150877
 30
0.0
 10
2731.1268176066
 20
-118.4476567571
 30
0.0
 10
2730.8397034973
 20
-118.3722659185
 30
0.0
 10
2730.4581600958
 20
-118.2501379096
 30
0.0
 10
2730.1698431009
 20
-118.1297804627
 30
0.0
 10
2729.9722757829
 20
-118.0097518361
 30
0.0
 10
2729.8593246947
 20
-117.8766477562
 30
0.0
 10
2729.8307445119
 20
-117.6865857956
 30
0.0
 10
2729.948572028
 20
-117.4670493141
 30
0.0
 10
2730.1289564941
 20
-117.233770969
 30
0.0
 10
2730.3087919868
 20
-116.9762405721
 30
0.0
 10
2730.4774108392
 20
-116.7101049299
 30
0.0
 10
2730.5947084032
 20
-116.5350475201
 30
0.0
 10
2730.65298833
 20
-116.445737366
 30
0.0
  0
SPLINE
  5
875
330
24F
100
AcDbEntity
  8
0
  6
Continuous
 62
     7
100
AcDbSpline
210
0.0
220
0.0
230
1.0
 70
     8
 71
     3
 72
    20
 73
    16
 74
     0
 42
0.0000000001
 43
0.0000000001
 40
0.0
 40
0.0
 40
0.0
 40
0.0
 40
0.0319082275
 40
0.0631235941
 40
0.0786767102
 40
0.0952704716
 40
0.1153418664
 40
0.1468399604
 40
0.1971244136
 40
0.2662714877
 40
0.3523291785
 40
0.4533357052000001
 40
0.5684078390999999
 40
0.6976034595999999
 40
1.0
 40
1.0
 40
1.0
 40
1.0
 10
2730.65298833
 20
-116.445737366
 30
0.0
 10
2730.7802271456
 20
-116.250752251
 30
0.0
 10
2731.028518717
 20
-115.8622479515
 30
0.0
 10
2731.28644623
 20
-115.3481723569
 30
0.0
 10
2731.475427782001
 20
-114.9267527179
 30
0.0
 10
2731.642519535701
 20
-114.5824904169
 30
0.0
 10
2731.9933995407
 20
-114.2128463901
 30
0.0
 10
2732.6931288962
 20
-113.924856364
 30
0.0
 10
2733.7509406789
 20
-113.6321430464
 30
0.0
 10
2735.223797656701
 20
-113.336181449
 30
0.0
 10
2737.068603115
 20
-113.0368689648
 30
0.0
 10
2739.2537740598
 20
-112.7409863839
 30
0.0
 10
2741.7564935063
 20
-112.4513228394
 30
0.0
 10
2745.7258842332
 20
-112.0556234209
 30
0.0
 10
2748.8657169913
 20
-111.8077045017
 30
0.0
 10
2751.0667892225
 20
-111.6526312637
 30
0.0
  0
SPLINE
  5
876
330
24F
100
AcDbEntity
  8
0
  6
Continuous
 62
     7
100
AcDbSpline
210
0.0
220
0.0
230
1.0
 70
     8
 71
     3
 72
    11
 73
     7
 74
     0
 42
0.0000000001
 43
0.0000000001
 40
0.0
 40
0.0
 40
0.0
 40
0.0
 40
0.1979369325
 40
0.4396167631
 40
0.7119876174
 40
1.0
 40
1.0
 40
1.0
 40
1.0
 10
2751.7384409924
 20
-120.7534536405
 30
0.0
 10
2757.4474864486
 20
-121.1154467303
 30
0.0
 10
2770.140128130801
 20
-121.7122987033
 30
0.0
 10
2790.7083701224
 20
-122.3264006832
 30
0.0
 10
2813.8860555035
 20
-122.7052967939
 30
0.0
 10
2830.0816019818
 20
-122.7952924985
 30
0.0
 10
2838.4053534075
 20
-122.7952924985
 30
0.0
  0
SPLINE
  5
877
330
24F
100
AcDbEntity
  8
0
  6
Continuous
 62
     7
100
AcDbSpline
210
0.0
220
0.0
230
1.0
 70
     8
 71
     3
 72
    12
 73
     8
 74
     0
 42
0.0000000001
 43
0.0000000001
 40
0.0
 40
0.0
 40
0.0
 40
0.0
 40
0.1073055469
 40
0.1851201063
 40
0.2898026702
 40
0.5864180736
 40
1.0
 40
1.0
 40
1.0
 40
1.0
 10
2730.9313362994
 20
-117.7632109004
 30
0.0
 10
2730.9284859833
 20
-117.8612356642
 30
0.0
 10
2731.006864482
 20
-118.0332978708
 30
0.0
 10
2731.2195885255
 20
-118.192801663
 30
0.0
 10
2731.609769086301
 20
-118.3949442871
 30
0.0
 10
2732.3220439306
 20
-118.6228901025
 30
0.0
 10
2732.9532843086
 20
-118.7728067407
 30
0.0
 10
2733.3229820484
 20
-118.8514566376
 30
0.0
  0
SPLINE
  5
878
330
24F
100
AcDbEntity
  8
0
  6
Continuous
 62
     7
100
AcDbSpline
210
0.0
220
0.0
230
1.0
 70
     8
 71
     3
 72
     9
 73
     5
 74
     0
 42
0.0000000001
 43
0.0000000001
 40
0.0
 40
0.0
 40
0.0
 40
0.0
 40
0.2295785026
 40
1.0
 40
1.0
 40
1.0
 40
1.0
 10
2733.4195168844
 20
-118.8717933954
 30
0.0
 10
2733.5356747066
 20
-118.8960279852
 30
0.0
 10
2734.042364898
 20
-118.9980941297
 30
0.0
 10
2734.5514799488
 20
-119.0878574054
 30
0.0
 10
2734.9443971507
 20
-119.1524855291
 30
0.0
  0
SPLINE
  5
879
330
24F
100
AcDbEntity
  8
0
  6
Continuous
 62
     7
100
AcDbSpline
210
0.0
220
0.0
230
1.0
 70
     8
 71
     3
 72
    30
 73
    26
 74
     0
 42
0.0000000001
 43
0.0000000001
 40
0.0
 40
0.0
 40
0.0
 40
0.0
 40
0.0017809421
 40
0.0036732091
 40
0.0057190362
 40
0.0080213469
 40
0.0134001546
 40
0.0197945435
 40
0.0237967216
 40
0.0292611703
 40
0.0332332804
 40
0.0382981253
 40
0.0517699813
 40
0.0693944169
 40
0.0906718903
 40
0.1152748118
 40
0.1431377862
 40
0.1743521187
 40
0.2090093042
 40
0.2888908968
 40
0.3828513312
 40
0.4901660061000001
 40
0.7357444035
 40
0.8671522176999999
 40
1.0
 40
1.0
 40
1.0
 40
1.0
 10
2951.6419380875
 20
-113.5879587496
 30
0.0
 10
2951.6545007048
 20
-113.520599403
 30
0.0
 10
2951.6089475458
 20
-113.3785008905
 30
0.0
 10
2951.5579858235
 20
-113.1677739176
 30
0.0
 10
2951.5134315485
 20
-112.9304538959
 30
0.0
 10
2951.3903124546
 20
-112.5765927411
 30
0.0
 10
2951.1862459849
 20
-112.0747128951
 30
0.0
 10
2950.9657551165
 20
-111.5105503317
 30
0.0
 10
2950.6687603852
 20
-110.9690081582
 30
0.0
 10
2950.2412611966
 20
-110.6492637701
 30
0.0
 10
2949.729163828
 20
-110.4287039019
 30
0.0
 10
2948.9060519618
 20
-110.1553994267
 30
0.0
 10
2947.5487916187
 20
-109.8419639643
 30
0.0
 10
2945.5652376335
 20
-109.4862855535
 30
0.0
 10
2943.1470991898
 20
-109.1335080213
 30
0.0
 10
2940.3306629702
 20
-108.7892337267
 30
0.0
 10
2937.1275754394
 20
-108.4620950224
 30
0.0
 10
2933.5339522526
 20
-108.1571545535
 30
0.0
 10
2927.9394489204
 20
-107.7688777825
 30
0.0
 10
2919.9269275572
 20
-107.3685607335
 30
0.0
 10
2909.1161724184
 20
-106.9862864447
 30
0.0
 10
2891.9296404697
 20
-106.530956707
 30
0.0
 10
2873.2989906377
 20
-106.1903830483
 30
0.0
 10
2853.6837498131
 20
-106.0400264757
 30
0.0
 10
2843.5166016903
 20
-106.0482505533
 30
0.0
 10
2838.4053534075
 20
-106.0483007957
 30
0.0
  0
SPLINE
  5
87A
330
24F
100
AcDbEntity
  8
0
  6
Continuous
 62
     7
100
AcDbSpline
210
0.0
220
0.0
230
1.0
 70
     8
 71
     3
 72
     9
 73
     5
 74
     0
 42
0.0000000001
 43
0.0000000001
 40
0.0
 40
0.0
 40
0.0
 40
0.0
 40
0.4203404350000001
 40
1.0
 40
1.0
 40
1.0
 40
1.0
 10
2931.4053534075
 20
-295.6318881328
 30
0.0
 10
2931.4053534075
 20
-295.7849482682
 30
0.0
 10
2931.2633641041
 20
-296.1417538523
 30
0.0
 10
2931.0199336741
 20
-296.4145450369
 30
0.0
 10
2930.8672602747
 20
-296.5602944808
 30
0.0
  0
SPLINE
  5
87B
330
24F
100
AcDbEntity
  8
0
  6
Continuous
 62
     7
100
AcDbSpline
210
0.0
220
0.0
230
1.0
 70
     8
 71
     3
 72
     9
 73
     5
 74
     0
 42
0.0000000001
 43
0.0000000001
 40
0.0
 40
0.0
 40
0.0
 40
0.0
 40
0.5796595243000001
 40
1.0
 40
1.0
 40
1.0
 40
1.0
 10
2921.9434465298
 20
-296.5602944789
 30
0.0
 10
2921.7907731439
 20
-296.4145450461
 30
0.0
 10
2921.5473427455
 20
-296.1417538489
 30
0.0
 10
2921.4053534075
 20
-295.7849482811
 30
0.0
 10
2921.4053534075
 20
-295.6318881328
 30
0.0
  0
SPLINE
  5
87C
330
24F
100
AcDbEntity
  8
0
  6
Continuous
 62
     7
100
AcDbSpline
210
0.0
220
0.0
230
1.0
 70
     8
 71
     3
 72
     9
 73
     5
 74
     0
 42
0.0000000001
 43
0.0000000001
 40
0.0
 40
0.0
 40
0.0
 40
0.0
 40
0.4203404350000001
 40
1.0
 40
1.0
 40
1.0
 40
1.0
 10
2745.4053534075
 20
-295.6318881328
 30
0.0
 10
2745.4053534075
 20
-295.7849482682
 30
0.0
 10
2745.5473427109
 20
-296.1417538523
 30
0.0
 10
2745.7907731409
 20
-296.4145450369
 30
0.0
 10
2745.9434465403
 20
-296.5602944808
 30
0.0
  0
SPLINE
  5
87D
330
24F
100
AcDbEntity
  8
0
  6
Continuous
 62
     7
100
AcDbSpline
210
0.0
220
0.0
230
1.0
 70
     8
 71
     3
 72
     9
 73
     5
 74
     0
 42
0.0000000001
 43
0.0000000001
 40
0.0
 40
0.0
 40
0.0
 40
0.0
 40
0.5796595243000001
 40
1.0
 40
1.0
 40
1.0
 40
1.0
 10
2754.8672602852
 20
-296.5602944789
 30
0.0
 10
2755.0199336711
 20
-296.4145450461
 30
0.0
 10
2755.263364069501
 20
-296.1417538489
 30
0.0
 10
2755.4053534075
 20
-295.7849482811
 30
0.0
 10
2755.4053534075
 20
-295.6318881328
 30
0.0
  0
SPLINE
  5
87E
330
24F
100
AcDbEntity
  8
0
  6
Continuous
 62
     7
100
AcDbSpline
210
0.0
220
0.0
230
1.0
 70
     8
 71
     3
 72
    13
 73
     9
 74
     0
 42
0.0000000001
 43
0.0000000001
 40
0.0
 40
0.0
 40
0.0
 40
0.0
 40
0.3078037898
 40
0.5386889861000001
 40
0.6405449335000001
 40
0.7459936571
 40
0.8641880621
 40
1.0
 40
1.0
 40
1.0
 40
1.0
 10
2966.4053534075
 20
-294.7279482687
 30
0.0
 10
2966.0788771441
 20
-294.7279482687
 30
0.0
 10
2965.507209155
 20
-294.7560136747
 30
0.0
 10
2964.8453993679
 20
-295.0173433267
 30
0.0
 10
2964.5430092881
 20
-295.3826033396
 30
0.0
 10
2964.4208214533
 20
-295.7119726105
 30
0.0
 10
2964.3969939124
 20
-296.095229735
 30
0.0
 10
2964.4061446151
 20
-296.3641230159
 30
0.0
 10
2964.4060182959
 20
-296.5081737341
 30
0.0
  0
SPLINE
  5
87F
330
24F
100
AcDbEntity
  8
0
  6
Continuous
 62
     7
100
AcDbSpline
210
0.0
220
0.0
230
1.0
 70
     8
 71
     3
 72
    13
 73
     9
 74
     0
 42
0.0000000001
 43
0.0000000001
 40
0.0
 40
0.0
 40
0.0
 40
0.0
 40
0.3078037898
 40
0.5386889861000001
 40
0.6405449335000001
 40
0.7459936571
 40
0.8641880621
 40
1.0
 40
1.0
 40
1.0
 40
1.0
 10
2710.4053534075
 20
-294.7279482687
 30
0.0
 10
2710.7318296709
 20
-294.7279482687
 30
0.0
 10
2711.30349766
 20
-294.7560136747
 30
0.0
 10
2711.9653074471
 20
-295.0173433267
 30
0.0
 10
2712.2676975269
 20
-295.3826033396
 30
0.0
 10
2712.3898853617
 20
-295.7119726105
 30
0.0
 10
2712.413712902601
 20
-296.095229735
 30
0.0
 10
2712.4045621999
 20
-296.3641230159
 30
0.0
 10
2712.404688519101
 20
-296.5081737341
 30
0.0
  0
SPLINE
  5
880
330
24F
100
AcDbEntity
  8
0
  6
Continuous
 62
     7
100
AcDbSpline
210
0.0
220
0.0
230
1.0
 70
     8
 71
     3
 72
    12
 73
     8
 74
     0
 42
0.0000000001
 43
0.0000000001
 40
0.0
 40
0.0
 40
0.0
 40
0.0
 40
0.2289519857
 40
0.4603618404
 40
0.7094330553
 40
0.8483949965
 40
1.0
 40
1.0
 40
1.0
 40
1.0
 10
3009.4435768442
 20
-294.7279466485
 30
0.0
 10
3010.4496980716
 20
-294.7279373733
 30
0.0
 10
3012.488497878
 20
-295.0124599401
 30
0.0
 10
3015.3297294885
 20
-296.4433215984
 30
0.0
 10
3017.1547571805
 20
-298.5844019336
 30
0.0
 10
3018.0238799211
 20
-300.8099783799
 30
0.0
 10
3018.1972138561
 20
-302.0904815136
 30
0.0
 10
3018.208812580901
 20
-302.7566032501
 30
0.0
  0
SPLINE
  5
881
330
24F
100
AcDbEntity
  8
0
  6
Continuous
 62
     7
100
AcDbSpline
210
0.0
220
0.0
230
1.0
 70
     8
 71
     3
 72
    12
 73
     8
 74
     0
 42
0.0000000001
 43
0.0000000001
 40
0.0
 40
0.0
 40
0.0
 40
0.0
 40
0.2289519857
 40
0.4603618404
 40
0.7094330553
 40
0.8483949965
 40
1.0
 40
1.0
 40
1.0
 40
1.0
 10
2667.3671299708
 20
-294.7279466485
 30
0.0
 10
2666.3610087434
 20
-294.7279373733
 30
0.0
 10
2664.322208937
 20
-295.0124599401
 30
0.0
 10
2661.4809773264
 20
-296.4433215984
 30
0.0
 10
2659.655949634501
 20
-298.5844019336
 30
0.0
 10
2658.7868268939
 20
-300.8099783799
 30
0.0
 10
2658.6134929588
 20
-302.0904815136
 30
0.0
 10
2658.6018942341
 20
-302.7566032501
 30
0.0
  0
SPLINE
  5
882
330
24F
100
AcDbEntity
  8
0
  6
Continuous
 62
     7
100
AcDbSpline
210
0.0
220
0.0
230
1.0
 70
     8
 71
     3
 72
     8
 73
     4
 74
     0
 42
0.0000000001
 43
0.0000000001
 40
0.0
 40
0.0
 40
0.0
 40
0.0
 40
1.0
 40
1.0
 40
1.0
 40
1.0
 10
2967.0304337733
 20
-294.7717832463
 30
0.0
 10
2967.0067188342
 20
-294.7548716591
 30
0.0
 10
2966.9799358301
 20
-294.741064637
 30
0.0
 10
2966.9517176731
 20
-294.733844129
 30
0.0
  0
SPLINE
  5
883
330
24F
100
AcDbEntity
  8
0
  6
Continuous
 62
     7
100
AcDbSpline
210
0.0
220
0.0
230
1.0
 70
     8
 71
     3
 72
     8
 73
     4
 74
     0
 42
0.0000000001
 43
0.0000000001
 40
0.0
 40
0.0
 40
0.0
 40
0.0
 40
1.0
 40
1.0
 40
1.0
 40
1.0
 10
2966.9517176731
 20
-294.733844129
 30
0.0
 10
2966.9366247368
 20
-294.7299821238
 30
0.0
 10
2966.9209326183
 20
-294.7279482687
 30
0.0
 10
2966.9053534075
 20
-294.7279482687
 30
0.0
  0
SPLINE
  5
884
330
24F
100
AcDbEntity
  8
0
  6
Continuous
 62
     7
100
AcDbSpline
210
0.0
220
0.0
230
1.0
 70
     8
 71
     3
 72
     8
 73
     4
 74
     0
 42
0.0000000001
 43
0.0000000001
 40
0.0
 40
0.0
 40
0.0
 40
0.0
 40
1.0
 40
1.0
 40
1.0
 40
1.0
 10
2709.7802730417
 20
-294.7717832463
 30
0.0
 10
2709.8039879808
 20
-294.7548716591
 30
0.0
 10
2709.8307709849
 20
-294.741064637
 30
0.0
 10
2709.8589891419
 20
-294.733844129
 30
0.0
  0
SPLINE
  5
885
330
24F
100
AcDbEntity
  8
0
  6
Continuous
 62
     7
100
AcDbSpline
210
0.0
220
0.0
230
1.0
 70
     8
 71
     3
 72
     8
 73
     4
 74
     0
 42
0.0000000001
 43
0.0000000001
 40
0.0
 40
0.0
 40
0.0
 40
0.0
 40
1.0
 40
1.0
 40
1.0
 40
1.0
 10
2709.8589891419
 20
-294.733844129
 30
0.0
 10
2709.8740820782
 20
-294.7299821238
 30
0.0
 10
2709.889774196601
 20
-294.7279482687
 30
0.0
 10
2709.9053534075
 20
-294.7279482687
 30
0.0
  0
SPLINE
  5
886
330
24F
100
AcDbEntity
  8
0
  6
Continuous
 62
     7
100
AcDbSpline
210
0.0
220
0.0
230
1.0
 70
     8
 71
     3
 72
     8
 73
     4
 74
     0
 42
0.0000000001
 43
0.0000000001
 40
0.0
 40
0.0
 40
0.0
 40
0.0
 40
1.0
 40
1.0
 40
1.0
 40
1.0
 10
2659.7494900606
 20
-306.2660791507
 30
0.0
 10
2659.749143578701
 20
-400.7866727188999
 30
0.0
 10
2659.7139107155
 20
-495.3072713253
 30
0.0
 10
2659.6473595434
 20
-589.8278414651001
 30
0.0
  0
SPLINE
  5
887
330
24F
100
AcDbEntity
  8
0
  6
Continuous
 62
     7
100
AcDbSpline
210
0.0
220
0.0
230
1.0
 70
     8
 71
     3
 72
     9
 73
     5
 74
     0
 42
0.0000000001
 43
0.0000000001
 40
0.0
 40
0.0
 40
0.0
 40
0.0
 40
0.2552335607
 40
1.0
 40
1.0
 40
1.0
 40
1.0
 10
2659.7494900606
 20
-306.2660791507
 30
0.0
 10
2659.628267111
 20
-305.9760616643
 30
0.0
 10
2659.1751884704
 20
-304.8308228453
 30
0.0
 10
2658.8126721772
 20
-303.6492704738
 30
0.0
 10
2658.601894272801
 20
-302.7566004781001
 30
0.0
  0
SPLINE
  5
888
330
24F
100
AcDbEntity
  8
0
  6
Continuous
 62
     7
100
AcDbSpline
210
0.0
220
0.0
230
1.0
 70
     8
 71
     3
 72
    14
 73
    10
 74
     0
 42
0.0000000001
 43
0.0000000001
 40
0.0
 40
0.0
 40
0.0
 40
0.0
 40
0.3717713777
 40
0.5401963507000001
 40
0.6890704919
 40
0.813310642
 40
0.9085252793999998
 40
0.9714668287999998
 40
1.0
 40
1.0
 40
1.0
 40
1.0
 10
3009.365601154
 20
-589.9269157645
 30
0.0
 10
3010.3321119637
 20
-589.9259569226999
 30
0.0
 10
3011.7365085374
 20
-589.9216617920999
 30
0.0
 10
3013.5278186501
 20
-589.9086048882
 30
0.0
 10
3014.675780986
 20
-589.8973048962999
 30
0.0
 10
3015.6328702425
 20
-589.8815822351
 30
0.0
 10
3016.367811948401
 20
-589.8705911475
 30
0.0
 10
3016.851043758701
 20
-589.8462909212001
 30
0.0
 10
3017.0909082912
 20
-589.8439247284999
 30
0.0
 10
3017.1633463885
 20
-589.8279482687001
 30
0.0
  0
SPLINE
  5
889
330
24F
100
AcDbEntity
  8
0
  6
Continuous
 62
     7
100
AcDbSpline
210
0.0
220
0.0
230
1.0
 70
     8
 71
     3
 72
    12
 73
     8
 74
     0
 42
0.0000000001
 43
0.0000000001
 40
0.0
 40
0.0
 40
0.0
 40
0.0
 40
0.3468643704
 40
0.6494669962
 40
0.8720065366
 40
0.947133305
 40
1.0
 40
1.0
 40
1.0
 40
1.0
 10
3007.228060550801
 20
-303.74775535
 30
0.0
 10
3007.3934502618
 20
-302.8959320075
 30
0.0
 10
3007.6374279053
 20
-301.2854279027
 30
0.0
 10
3007.754996258
 20
-299.1088734773
 30
0.0
 10
3007.644401524601
 20
-297.5928241324
 30
0.0
 10
3007.3678322331
 20
-296.75905895
 30
0.0
 10
3007.1669664174
 20
-296.4894640617
 30
0.0
 10
3007.0548749976
 20
-296.4192748372
 30
0.0
  0
SPLINE
  5
88A
330
24F
100
AcDbEntity
  8
0
  6
Continuous
 62
     7
100
AcDbSpline
210
0.0
220
0.0
230
1.0
 70
     8
 71
     3
 72
    11
 73
     7
 74
     0
 42
0.0000000001
 43
0.0000000001
 40
0.0
 40
0.0
 40
0.0
 40
0.0
 40
0.2507424636
 40
0.5010260167000001
 40
0.7506990754000001
 40
1.0
 40
1.0
 40
1.0
 40
1.0
 10
3007.055096712101
 20
-296.4192744206
 30
0.0
 10
3008.3493634473
 20
-296.4164734863
 30
0.0
 10
3010.9645731081
 20
-296.9211836976
 30
0.0
 10
3014.2824270717
 20
-299.1039340056
 30
0.0
 10
3016.5180696188
 20
-302.3786741615
 30
0.0
 10
3017.052867895
 20
-304.9792770673
 30
0.0
 10
3017.0612166124
 20
-306.2660788874
 30
0.0
  0
SPLINE
  5
88B
330
24F
100
AcDbEntity
  8
0
  6
Continuous
 62
     7
100
AcDbSpline
210
0.0
220
0.0
230
1.0
 70
     8
 71
     3
 72
    26
 73
    22
 74
     0
 42
0.0000000001
 43
0.0000000001
 40
0.0
 40
0.0
 40
0.0
 40
0.0
 40
0.1250025986
 40
0.2500040724
 40
0.3750033954999999
 40
0.4999995217000001
 40
0.5624960169
 40
0.6249913535000001
 40
0.6874853633
 40
0.7499776462000001
 40
0.7812243553
 40
0.8124690892
 40
0.8437102143
 40
0.8749602904000001
 40
0.90621187
 40
0.9218174872
 40
0.9374134376
 40
0.9530387437000001
 40
0.9687329854999999
 40
0.9844155795999999
 40
1.0
 40
1.0
 40
1.0
 40
1.0
 10
2838.4053534062
 20
-301.937896796
 30
0.0
 10
2831.3697230641
 20
-301.9398232584
 30
0.0
 10
2817.2984892333
 20
-301.9903920248
 30
0.0
 10
2796.1927997518
 20
-302.1998790625
 30
0.0
 10
2775.0884334796
 20
-302.4853155016
 30
0.0
 10
2757.5021527103
 20
-302.7490072225
 30
0.0
 10
2743.4333153561
 20
-302.9513117184
 30
0.0
 10
2732.8818328309
 20
-303.0929118215
 30
0.0
 10
2722.330378250001
 20
-303.2181019663
 30
0.0
 10
2713.5373973138
 20
-303.3048337608
 30
0.0
 10
2706.5030340473
 20
-303.3588924407
 30
0.0
 10
2701.2275051579
 20
-303.3920604885
 30
0.0
 10
2695.9517549719
 20
-303.4198520484
 30
0.0
 10
2690.675555236
 20
-303.4338983987
 30
0.0
 10
2686.2793760206
 20
-303.4306034219
 30
0.0
 10
2682.7642671817
 20
-303.437759851
 30
0.0
 10
2680.1287093433
 20
-303.4457174241
 30
0.0
 10
2677.488001877601
 20
-303.4424283581
 30
0.0
 10
2674.8430989494
 20
-303.3878802194
 30
0.0
 10
2672.1995257473
 20
-303.3767149894
 30
0.0
 10
2670.4411656348
 20
-303.5679238835
 30
0.0
 10
2669.5826462641
 20
-303.74775535
 30
0.0
  0
SPLINE
  5
88C
330
24F
100
AcDbEntity
  8
0
  6
Continuous
 62
     7
100
AcDbSpline
210
0.0
220
0.0
230
1.0
 70
     8
 71
     3
 72
    26
 73
    22
 74
     0
 42
0.0000000001
 43
0.0000000001
 40
0.0
 40
0.0
 40
0.0
 40
0.0
 40
0.1250025986
 40
0.2500040724
 40
0.3750033954999999
 40
0.4999995217000001
 40
0.5624960169
 40
0.6249913535000001
 40
0.6874853633
 40
0.7499776462000001
 40
0.7812243553
 40
0.8124690892
 40
0.8437102143
 40
0.8749602904000001
 40
0.90621187
 40
0.9218174872
 40
0.9374134376
 40
0.9530387437000001
 40
0.9687329854999999
 40
0.9844155795999999
 40
1.0
 40
1.0
 40
1.0
 40
1.0
 10
2838.4053534062
 20
-301.937896796
 30
0.0
 10
2845.4409837484
 20
-301.9398232584
 30
0.0
 10
2859.5122175794
 20
-301.9903920248
 30
0.0
 10
2880.6179070611
 20
-302.1998790624
 30
0.0
 10
2901.7222733337
 20
-302.4853155016
 30
0.0
 10
2919.308554103301
 20
-302.7490072225
 30
0.0
 10
2933.3773914577
 20
-302.9513117184
 30
0.0
 10
2943.9288739831
 20
-303.0929118215
 30
0.0
 10
2954.4803285641
 20
-303.2181019663
 30
0.0
 10
2963.2733095005
 20
-303.3048337608
 30
0.0
 10
2970.307672767
 20
-303.3588924406
 30
0.0
 10
2975.5832016566
 20
-303.3920604885
 30
0.0
 10
2980.8589518427
 20
-303.4198520484
 30
0.0
 10
2986.1351515787
 20
-303.4338983987
 30
0.0
 10
2990.5313307941
 20
-303.4306034219
 30
0.0
 10
2994.0464396331
 20
-303.4377598509
 30
0.0
 10
2996.681997471501
 20
-303.4457174241
 30
0.0
 10
2999.3227049372
 20
-303.4424283581
 30
0.0
 10
3001.9676078655
 20
-303.3878802194
 30
0.0
 10
3004.611181067601
 20
-303.3767149894
 30
0.0
 10
3006.3695411802
 20
-303.5679238835
 30
0.0
 10
3007.228060550801
 20
-303.74775535
 30
0.0
  0
SPLINE
  5
88D
330
24F
100
AcDbEntity
  8
0
  6
Continuous
 62
     7
100
AcDbSpline
210
0.0
220
0.0
230
1.0
 70
     8
 71
     3
 72
    11
 73
     7
 74
     0
 42
0.0000000001
 43
0.0000000001
 40
0.0
 40
0.0
 40
0.0
 40
0.0
 40
0.2500053372
 40
0.4999078422000001
 40
0.7498332349
 40
1.0
 40
1.0
 40
1.0
 40
1.0
 10
3007.228060550801
 20
-303.74775535
 30
0.0
 10
3007.514933932001
 20
-303.8034667234
 30
0.0
 10
3008.0749544133
 20
-304.0126619635
 30
0.0
 10
3008.753290316401
 20
-304.5967560388
 30
0.0
 10
3009.1800983826
 20
-305.3840832861
 30
0.0
 10
3009.267970090701
 20
-305.9741387717
 30
0.0
 10
3009.267972026901
 20
-306.2665604105
 30
0.0
  0
SPLINE
  5
88E
330
24F
100
AcDbEntity
  8
0
  6
Continuous
 62
     7
100
AcDbSpline
210
0.0
220
0.0
230
1.0
 70
     8
 71
     3
 72
     8
 73
     4
 74
     0
 42
0.0000000001
 43
0.0000000001
 40
0.0
 40
0.0
 40
0.0
 40
0.0
 40
1.0
 40
1.0
 40
1.0
 40
1.0
 10
3009.267972026901
 20
-306.2665604105
 30
0.0
 10
3009.2683161434
 20
-400.820017795
 30
0.0
 10
3009.2995090899
 20
-495.3734814788999
 30
0.0
 10
3009.3656011553
 20
-589.9269157651999
 30
0.0
  0
SPLINE
  5
88F
330
24F
100
AcDbEntity
  8
0
  6
Continuous
 62
     7
100
AcDbSpline
210
0.0
220
0.0
230
1.0
 70
     8
 71
     3
 72
    15
 73
    11
 74
     0
 42
0.0000000001
 43
0.0000000001
 40
0.0
 40
0.0
 40
0.0
 40
0.0
 40
0.1249935671
 40
0.2499910744
 40
0.3749910647999999
 40
0.4999922533
 40
0.6249938958
 40
0.7499957503
 40
0.8749978019
 40
1.0
 40
1.0
 40
1.0
 40
1.0
 10
3009.3656011553
 20
-589.9269157651999
 30
0.0
 10
3009.3733948087
 20
-601.0958068881999
 30
0.0
 10
3007.180361899
 20
-623.4976511503
 30
0.0
 10
2997.392410570301
 20
-655.7599290939
 30
0.0
 10
2981.4860759165
 20
-685.5009097252999
 30
0.0
 10
2960.0775391186
 20
-711.5589259166
 30
0.0
 10
2933.9957305586
 20
-732.9382450634
 30
0.0
 10
2904.241661759
 20
-748.8194637250999
 30
0.0
 10
2871.9760796178
 20
-758.5968047699999
 30
0.0
 10
2849.5750184723
 20
-760.7974284431
 30
0.0
 10
2838.405353408
 20
-760.7974418193999
 30
0.0
  0
SPLINE
  5
890
330
24F
100
AcDbEntity
  8
0
  6
Continuous
 62
     7
100
AcDbSpline
210
0.0
220
0.0
230
1.0
 70
     8
 71
     3
 72
    15
 73
    11
 74
     0
 42
0.0000000001
 43
0.0000000001
 40
0.0
 40
0.0
 40
0.0
 40
0.0
 40
0.1249935671
 40
0.2499910744
 40
0.3749910647999999
 40
0.4999922533
 40
0.6249938958
 40
0.7499957503
 40
0.8749978019
 40
1.0
 40
1.0
 40
1.0
 40
1.0
 10
2667.4451056597
 20
-589.9269157651999
 30
0.0
 10
2667.4373120063
 20
-601.0958068883
 30
0.0
 10
2669.6303449159
 20
-623.4976511503999
 30
0.0
 10
2679.418296244801
 20
-655.7599290940999
 30
0.0
 10
2695.3246308987
 20
-685.5009097255999
 30
0.0
 10
2716.733167696701
 20
-711.5589259172
 30
0.0
 10
2742.8149762569
 20
-732.938245063
 30
0.0
 10
2772.5690450567
 20
-748.8194637282999
 30
0.0
 10
2804.8346271981
 20
-758.5968047593
 30
0.0
 10
2827.2356883437
 20
-760.7974284666
 30
0.0
 10
2838.405353408
 20
-760.7974418193999
 30
0.0
  0
SPLINE
  5
891
330
24F
100
AcDbEntity
  8
0
  6
Continuous
 62
     7
100
AcDbSpline
210
0.0
220
0.0
230
1.0
 70
     8
 71
     3
 72
     9
 73
     5
 74
     0
 42
0.0000000001
 43
0.0000000001
 40
0.0
 40
0.0
 40
0.0
 40
0.0
 40
0.2552335607
 40
1.0
 40
1.0
 40
1.0
 40
1.0
 10
3017.0612167544
 20
-306.2660791507
 30
0.0
 10
3017.182439704001
 20
-305.9760616643
 30
0.0
 10
3017.6355183446
 20
-304.8308228453
 30
0.0
 10
3017.998034637801
 20
-303.6492704738
 30
0.0
 10
3018.2088125422
 20
-302.7566004781001
 30
0.0
  0
SPLINE
  5
892
330
24F
100
AcDbEntity
  8
0
  6
Continuous
 62
     7
100
AcDbSpline
210
0.0
220
0.0
230
1.0
 70
     8
 71
     3
 72
     8
 73
     4
 74
     0
 42
0.0000000001
 43
0.0000000001
 40
0.0
 40
0.0
 40
0.0
 40
0.0
 40
1.0
 40
1.0
 40
1.0
 40
1.0
 10
3017.0612167544
 20
-306.2660791507
 30
0.0
 10
3017.0615632363
 20
-400.7866727188999
 30
0.0
 10
3017.0967960994
 20
-495.3072713253
 30
0.0
 10
3017.1633472716
 20
-589.8278414651001
 30
0.0
  0
SPLINE
  5
893
330
24F
100
AcDbEntity
  8
0
  6
Continuous
 62
     7
100
AcDbSpline
210
0.0
220
0.0
230
1.0
 70
     8
 71
     3
 72
     8
 73
     4
 74
     0
 42
0.0000000001
 43
0.0000000001
 40
0.0
 40
0.0
 40
0.0
 40
0.0
 40
1.0
 40
1.0
 40
1.0
 40
1.0
 10
2667.5427347881
 20
-306.2665604105
 30
0.0
 10
2667.5423906716
 20
-400.820017795
 30
0.0
 10
2667.5111977251
 20
-495.3734814788999
 30
0.0
 10
2667.4451056597
 20
-589.9269157651999
 30
0.0
  0
SPLINE
  5
894
330
24F
100
AcDbEntity
  8
0
  6
Continuous
 62
     7
100
AcDbSpline
210
0.0
220
0.0
230
1.0
 70
     8
 71
     3
 72
    14
 73
    10
 74
     0
 42
0.0000000001
 43
0.0000000001
 40
0.0
 40
0.0
 40
0.0
 40
0.0
 40
0.3717713777
 40
0.5401963507000001
 40
0.6890704919
 40
0.813310642
 40
0.9085252793999998
 40
0.9714668287999998
 40
1.0
 40
1.0
 40
1.0
 40
1.0
 10
2667.445105661
 20
-589.9269157645
 30
0.0
 10
2666.4785948513
 20
-589.9259569226999
 30
0.0
 10
2665.074198277601
 20
-589.9216617920999
 30
0.0
 10
2663.2828881649
 20
-589.9086048882
 30
0.0
 10
2662.1349258289
 20
-589.8973048962999
 30
0.0
 10
2661.1778365725
 20
-589.8815822351
 30
0.0
 10
2660.4428948666
 20
-589.8705911475
 30
0.0
 10
2659.9596630562
 20
-589.8462909212001
 30
0.0
 10
2659.7197985237
 20
-589.8439247284999
 30
0.0
 10
2659.6473604265
 20
-589.8279482687001
 30
0.0
  0
SPLINE
  5
895
330
24F
100
AcDbEntity
  8
0
  6
Continuous
 62
     7
100
AcDbSpline
210
0.0
220
0.0
230
1.0
 70
     8
 71
     3
 72
    11
 73
     7
 74
     0
 42
0.0000000001
 43
0.0000000001
 40
0.0
 40
0.0
 40
0.0
 40
0.0
 40
0.2500053372
 40
0.4999078422000001
 40
0.7498332349
 40
1.0
 40
1.0
 40
1.0
 40
1.0
 10
2669.5826462641
 20
-303.74775535
 30
0.0
 10
2669.2957728829
 20
-303.8034667234
 30
0.0
 10
2668.7357524017
 20
-304.0126619635
 30
0.0
 10
2668.0574164986
 20
-304.5967560388
 30
0.0
 10
2667.6306084324
 20
-305.3840832861
 30
0.0
 10
2667.5427367242
 20
-305.9741387717
 30
0.0
 10
2667.5427347881
 20
-306.2665604105
 30
0.0
  0
SPLINE
  5
896
330
24F
100
AcDbEntity
  8
0
  6
Continuous
 62
     7
100
AcDbSpline
210
0.0
220
0.0
230
1.0
 70
     8
 71
     3
 72
    19
 73
    15
 74
     0
 42
0.0000000001
 43
0.0000000001
 40
0.0
 40
0.0
 40
0.0
 40
0.0
 40
0.2500780515
 40
0.3750957471
 40
0.5000993242
 40
0.6250942372
 40
0.6875908181999999
 40
0.7500878458
 40
0.8125874226999998
 40
0.8750911375999999
 40
0.9063514770000001
 40
0.9375590078
 40
0.9688936706999998
 40
1.0
 40
1.0
 40
1.0
 40
1.0
 10
2838.4053534075
 20
-296.9870579027
 30
0.0
 10
2852.463994705
 20
-296.986521924
 30
0.0
 10
2873.550762327701
 20
-296.9542498809
 30
0.0
 10
2901.6647208378
 20
-296.8680598465
 30
0.0
 10
2922.7468662003
 20
-296.7895477109
 30
0.0
 10
2940.3142595034
 20
-296.7177795048
 30
0.0
 10
2954.3677485654
 20
-296.6600088936
 30
0.0
 10
2964.9079693645
 20
-296.617067834
 30
0.0
 10
2975.4485938435
 20
-296.576235865
 30
0.0
 10
2984.2332170082
 20
-296.5422641314
 30
0.0
 10
2991.258686885
 20
-296.5208860557
 30
0.0
 10
2996.5320171792
 20
-296.4967057107
 30
0.0
 10
3001.796343800301
 20
-296.4888426699
 30
0.0
 10
3005.307344303
 20
-296.4769555566
 30
0.0
 10
3007.055097617
 20
-296.4192724629
 30
0.0
  0
SPLINE
  5
897
330
24F
100
AcDbEntity
  8
0
  6
Continuous
 62
     7
100
AcDbSpline
210
0.0
220
0.0
230
1.0
 70
     8
 71
     3
 72
    19
 73
    15
 74
     0
 42
0.0000000001
 43
0.0000000001
 40
0.0
 40
0.0
 40
0.0
 40
0.0
 40
0.2500780515
 40
0.3750957471
 40
0.5000993242
 40
0.6250942372
 40
0.6875908181999999
 40
0.7500878458
 40
0.8125874226999998
 40
0.8750911375999999
 40
0.9063514770000001
 40
0.9375590078
 40
0.9688936706999998
 40
1.0
 40
1.0
 40
1.0
 40
1.0
 10
2838.4053534075
 20
-296.9870579027
 30
0.0
 10
2824.3467121099
 20
-296.986521924
 30
0.0
 10
2803.2599444873
 20
-296.9542498809
 30
0.0
 10
2775.1459859772
 20
-296.8680598465
 30
0.0
 10
2754.0638406147
 20
-296.7895477109
 30
0.0
 10
2736.4964473116
 20
-296.7177795048
 30
0.0
 10
2722.4429582496
 20
-296.6600088936
 30
0.0
 10
2711.902737450401
 20
-296.617067834
 30
0.0
 10
2701.3621129715
 20
-296.576235865
 30
0.0
 10
2692.5774898068
 20
-296.5422641314
 30
0.0
 10
2685.55201993
 20
-296.5208860557
 30
0.0
 10
2680.2786896358
 20
-296.4967057107
 30
0.0
 10
2675.0143630147
 20
-296.4888426699
 30
0.0
 10
2671.5033625119
 20
-296.4769555566
 30
0.0
 10
2669.755609198
 20
-296.4192724629
 30
0.0
  0
SPLINE
  5
898
330
24F
100
AcDbEntity
  8
0
  6
Continuous
 62
     7
100
AcDbSpline
210
0.0
220
0.0
230
1.0
 70
     8
 71
     3
 72
    15
 73
    11
 74
     0
 42
0.0000000001
 43
0.0000000001
 40
0.0
 40
0.0
 40
0.0
 40
0.0
 40
0.1249944283
 40
0.2499924473
 40
0.3749926584
 40
0.4999938381000001
 40
0.6249952840999999
 40
0.7499967826000001
 40
0.8749983532999999
 40
1.0
 40
1.0
 40
1.0
 40
1.0
 10
2659.6473595505
 20
-589.8278414651001
 30
0.0
 10
2659.6395049064
 20
-601.5106059992
 30
0.0
 10
2661.9312495051
 20
-624.9429038214
 30
0.0
 10
2672.1589055604
 20
-658.6922195114
 30
0.0
 10
2688.7819873449
 20
-689.8090770438
 30
0.0
 10
2711.1597537716
 20
-717.0784914325999
 30
0.0
 10
2738.428597941001
 20
-739.4569600088
 30
0.0
 10
2769.5435023979
 20
-756.0839950449
 30
0.0
 10
2803.2903086637
 20
-766.3222004651999
 30
0.0
 10
2826.7219115572
 20
-768.6267710216
 30
0.0
 10
2838.405353407101
 20
-768.6267780814
 30
0.0
  0
SPLINE
  5
899
330
24F
100
AcDbEntity
  8
0
  6
Continuous
 62
     7
100
AcDbSpline
210
0.0
220
0.0
230
1.0
 70
     8
 71
     3
 72
    15
 73
    11
 74
     0
 42
0.0000000001
 43
0.0000000001
 40
0.0
 40
0.0
 40
0.0
 40
0.0
 40
0.1249944283
 40
0.2499924473
 40
0.3749926584
 40
0.4999938381000001
 40
0.6249952840999999
 40
0.7499967826000001
 40
0.8749983532999999
 40
1.0
 40
1.0
 40
1.0
 40
1.0
 10
3017.1633472644
 20
-589.8278414651001
 30
0.0
 10
3017.1712019086
 20
-601.5106059992
 30
0.0
 10
3014.8794573099
 20
-624.9429038215001
 30
0.0
 10
3004.6518012546
 20
-658.6922195116
 30
0.0
 10
2988.0287194699
 20
-689.8090770439999
 30
0.0
 10
2965.6509530431
 20
-717.0784914328999
 30
0.0
 10
2938.3821088736
 20
-739.4569600091
 30
0.0
 10
2907.267204416501
 20
-756.0839950451
 30
0.0
 10
2873.520398150601
 20
-766.3222004652999
 30
0.0
 10
2850.088795257
 20
-768.6267710216999
 30
0.0
 10
2838.405353407101
 20
-768.6267780814
 30
0.0
  0
SPLINE
  5
89A
330
24F
100
AcDbEntity
  8
0
  6
Continuous
 62
     7
100
AcDbSpline
210
0.0
220
0.0
230
1.0
 70
     8
 71
     3
 72
    12
 73
     8
 74
     0
 42
0.0000000001
 43
0.0000000001
 40
0.0
 40
0.0
 40
0.0
 40
0.0
 40
0.3468643704
 40
0.6494669962
 40
0.8720065366
 40
0.947133305
 40
1.0
 40
1.0
 40
1.0
 40
1.0
 10
2669.5826462641
 20
-303.74775535
 30
0.0
 10
2669.4172565532
 20
-302.8959320075
 30
0.0
 10
2669.1732789097
 20
-301.2854279027
 30
0.0
 10
2669.055710557
 20
-299.1088734773
 30
0.0
 10
2669.1663052903
 20
-297.5928241324
 30
0.0
 10
2669.4428745818
 20
-296.75905895
 30
0.0
 10
2669.6437403976
 20
-296.4894640617
 30
0.0
 10
2669.7558318173
 20
-296.4192748372
 30
0.0
  0
SPLINE
  5
89B
330
24F
100
AcDbEntity
  8
0
  6
Continuous
 62
     7
100
AcDbSpline
210
0.0
220
0.0
230
1.0
 70
     8
 71
     3
 72
    11
 73
     7
 74
     0
 42
0.0000000001
 43
0.0000000001
 40
0.0
 40
0.0
 40
0.0
 40
0.0
 40
0.2507424636
 40
0.5010260167000001
 40
0.7506990754000001
 40
1.0
 40
1.0
 40
1.0
 40
1.0
 10
2669.7556101028
 20
-296.4192744206
 30
0.0
 10
2668.4613433677
 20
-296.4164734863
 30
0.0
 10
2665.8461337069
 20
-296.9211836976
 30
0.0
 10
2662.5282797433
 20
-299.1039340056
 30
0.0
 10
2660.2926371961
 20
-302.3786741615
 30
0.0
 10
2659.75783892
 20
-304.9792770673
 30
0.0
 10
2659.7494902025
 20
-306.2660788874
 30
0.0
  0
SPLINE
  5
89C
330
24F
100
AcDbEntity
  8
0
  6
Continuous
 62
     7
100
AcDbSpline
210
0.0
220
0.0
230
1.0
 70
     8
 71
     3
 72
    11
 73
     7
 74
     0
 42
0.0000000001
 43
0.0000000001
 40
0.0
 40
0.0
 40
0.0
 40
0.0
 40
0.2503134131
 40
0.5003828659
 40
0.7502464609000001
 40
1.0
 40
1.0
 40
1.0
 40
1.0
 10
3388.224568477
 20
-105.6467042537
 30
0.0
 10
3387.7518862952
 20
-106.40497135
 30
0.0
 10
3386.6097846299
 20
-107.8074415907
 30
0.0
 10
3384.4296930695
 20
-109.4102544562
 30
0.0
 10
3381.9196825028
 20
-110.4159055637
 30
0.0
 10
3380.128036512
 20
-110.644128307
 30
0.0
 10
3379.2365041848
 20
-110.6441297077
 30
0.0
  0
SPLINE
  5
89D
330
24F
100
AcDbEntity
  8
0
  6
Continuous
 62
     7
100
AcDbSpline
210
0.0
220
0.0
230
1.0
 70
     8
 71
     3
 72
    13
 73
     9
 74
     0
 42
0.0000000001
 43
0.0000000001
 40
0.0
 40
0.0
 40
0.0
 40
0.0
 40
0.1252879671
 40
0.2505451137
 40
0.375735409
 40
0.5008566709000001
 40
0.7504801431999999
 40
1.0
 40
1.0
 40
1.0
 40
1.0
 10
3385.7837181419
 20
-105.6467042537
 30
0.0
 10
3385.546909336
 20
-106.0266139436
 30
0.0
 10
3385.0251019902
 20
-106.7575249417
 30
0.0
 10
3384.1104839161
 20
-107.7449780843
 30
0.0
 10
3383.0790045955
 20
-108.6092588858
 30
0.0
 10
3381.572657404099
 20
-109.5769530517
 30
0.0
 10
3379.4789882652
 20
-110.4161938198
 30
0.0
 10
3377.6876963241
 20
-110.6441297077
 30
0.0
 10
3376.7961268124
 20
-110.6441297078
 30
0.0
  0
SPLINE
  5
89E
330
24F
100
AcDbEntity
  8
0
  6
Continuous
 62
     7
100
AcDbSpline
210
0.0
220
0.0
230
1.0
 70
     8
 71
     3
 72
    14
 73
    10
 74
     0
 42
0.0000000001
 43
0.0000000001
 40
0.0
 40
0.0
 40
0.0
 40
0.0
 40
0.2550585063
 40
0.3812514783
 40
0.5065318938000001
 40
0.6307721863
 40
0.7543307937
 40
0.8773058603
 40
1.0
 40
1.0
 40
1.0
 40
1.0
 10
3525.4710297929
 20
-105.651637486
 30
0.0
 10
3525.895634451501
 20
-106.4703367798
 30
0.0
 10
3526.6955532568
 20
-107.6184702777
 30
0.0
 10
3528.0194838352
 20
-108.8896186926
 30
0.0
 10
3529.121941905901
 20
-109.6911950818
 30
0.0
 10
3530.3139102204
 20
-110.3316994146
 30
0.0
 10
3531.5760541315
 20
-110.7969391421
 30
0.0
 10
3532.885015088901
 20
-111.0802278685
 30
0.0
 10
3533.774578285301
 20
-111.1438708576
 30
0.0
 10
3534.2182235112
 20
-111.1441281293
 30
0.0
  0
SPLINE
  5
89F
330
24F
100
AcDbEntity
  8
0
  6
Continuous
 62
     7
100
AcDbSpline
210
0.0
220
0.0
230
1.0
 70
     8
 71
     3
 72
    14
 73
    10
 74
     0
 42
0.0000000001
 43
0.0000000001
 40
0.0
 40
0.0
 40
0.0
 40
0.0
 40
0.1282605242
 40
0.2555367263
 40
0.3818378834
 40
0.5070051455
 40
0.7542718204000001
 40
0.8772792962
 40
1.0
 40
1.0
 40
1.0
 40
1.0
 10
3535.048924723301
 20
-105.651637486
 30
0.0
 10
3535.263182728401
 20
-106.0631518977
 30
0.0
 10
3535.7417188249
 20
-106.8574886709
 30
0.0
 10
3536.6057468901
 20
-107.9400134569
 30
0.0
 10
3537.5988028723
 20
-108.8901743972
 30
0.0
 10
3539.0593759287
 20
-109.9559644787
 30
0.0
 10
3540.7184854842
 20
-110.7042197664
 30
0.0
 10
3542.4659800852
 20
-111.0807709271
 30
0.0
 10
3543.3563192967
 20
-111.1441297077
 30
0.0
 10
3543.800231430301
 20
-111.1441297078
 30
0.0
  0
LINE
  5
8A0
330
24F
100
AcDbEntity
  8
0
  6
Continuous
 62
     7
100
AcDbLine
 10
3194.0994633436
 20
-136.9441297078
 30
0.0
 11
3194.0180915673
 21
-136.8262097969
 31
0.0
  0
LINE
  5
8A1
330
24F
100
AcDbEntity
  8
0
  6
Continuous
 62
     7
100
AcDbLine
 10
3205.405807280201
 20
-136.8262097969
 30
0.0
 11
3205.3244355039
 21
-136.9441297078
 31
0.0
  0
SPLINE
  5
8A2
330
24F
100
AcDbEntity
  8
0
  6
Continuous
 62
     7
100
AcDbSpline
210
0.0
220
0.0
230
1.0
 70
     8
 71
     3
 72
    10
 73
     6
 74
     0
 42
0.0000000001
 43
0.0000000001
 40
0.0
 40
0.0
 40
0.0
 40
0.0
 40
0.1232773477
 40
0.350692468
 40
1.0
 40
1.0
 40
1.0
 40
1.0
 10
3211.9317565051
 20
-65.8849951479
 30
0.0
 10
3212.0345523817
 20
-65.89738031899999
 30
0.0
 10
3212.3294076183
 20
-65.9074201588
 30
0.0
 10
3213.168524811401
 20
-65.9311019293
 30
0.0
 10
3213.9052153004
 20
-65.9330177912
 30
0.0
 10
3214.4505615656
 20
-65.93305192879999
 30
0.0
  0
LINE
  5
8A3
330
24F
100
AcDbEntity
  8
0
  6
Continuous
 62
     7
100
AcDbLine
 10
3541.884444325801
 20
-75.6852886055
 30
0.0
 11
3542.0852952222
 21
-75.68690939799999
 31
0.0
  0
SPLINE
  5
8A4
330
24F
100
AcDbEntity
  8
0
  6
Continuous
 62
     7
100
AcDbSpline
210
0.0
220
0.0
230
1.0
 70
     8
 71
     3
 72
     9
 73
     5
 74
     0
 42
0.0000000001
 43
0.0000000001
 40
0.0
 40
0.0
 40
0.0
 40
0.0
 40
0.2527066466
 40
1.0
 40
1.0
 40
1.0
 40
1.0
 10
3542.0852952222
 20
-75.68690939799999
 30
0.0
 10
3543.478123443601
 20
-75.6981367091
 30
0.0
 10
3548.9897721877
 20
-75.7415530298
 30
0.0
 10
3554.5014524532
 20
-75.78096577939999
 30
0.0
 10
3558.620308754001
 20
-75.80818244449999
 30
0.0
  0
SPLINE
  5
8A5
330
24F
100
AcDbEntity
  8
0
  6
Continuous
 62
     7
100
AcDbSpline
210
0.0
220
0.0
230
1.0
 70
     8
 71
     3
 72
    14
 73
    10
 74
     0
 42
0.0000000001
 43
0.0000000001
 40
0.0
 40
0.0
 40
0.0
 40
0.0
 40
0.4052533654000001
 40
0.5779148652
 40
0.7250443602
 40
0.8432022025
 40
0.9296279839
 40
0.9823037484
 40
1.0
 40
1.0
 40
1.0
 40
1.0
 10
3558.620308754001
 20
-75.80818244449999
 30
0.0
 10
3574.585737684099
 20
-75.9136791406
 30
0.0
 10
3597.3537241691
 20
-76.01605170239999
 30
0.0
 10
3625.918292652301
 20
-76.05936347869999
 30
0.0
 10
3643.1721812836
 20
-76.0558064927
 30
0.0
 10
3657.028621117801
 20
-76.03683419859999
 30
0.0
 10
3667.1638388512
 20
-76.00519197140001
 30
0.0
 10
3673.3411799559
 20
-75.994241797
 30
0.0
 10
3676.1136011296
 20
-75.9740534483
 30
0.0
 10
3676.810779236501
 20
-75.9755384528
 30
0.0
  0
LINE
  5
8A6
330
24F
100
AcDbEntity
  8
0
  6
Continuous
 62
     7
100
AcDbLine
 10
3214.4500803057
 20
-73.4626761993
 30
0.0
 11
3210.9406016332
 21
-98.68602014
 31
0.0
  0
SPLINE
  5
8A7
330
24F
100
AcDbEntity
  8
0
  6
Continuous
 62
     7
100
AcDbSpline
210
0.0
220
0.0
230
1.0
 70
     8
 71
     3
 72
    27
 73
    23
 74
     0
 42
0.0000000001
 43
0.0000000001
 40
0.0
 40
0.0
 40
0.0
 40
0.0
 40
0.0072672435
 40
0.0270275029
 40
0.0587366345
 40
0.1006257585
 40
0.2068352457
 40
0.3326296197
 40
0.4671105775
 40
0.6035408913
 40
0.6726021862999999
 40
0.7077858588
 40
0.7436743848999999
 40
0.7806361517
 40
0.8176884692999999
 40
0.8375683646999998
 40
0.8494815103
 40
0.8629673795999998
 40
0.8744701078
 40
0.8910883168000001
 40
0.9291554093
 40
1.0
 40
1.0
 40
1.0
 40
1.0
 10
3210.121897951
 20
-63.9095908483
 30
0.0
 10
3210.1291489501
 20
-63.9095868027
 30
0.0
 10
3210.1533669789
 20
-63.924851024
 30
0.0
 10
3210.207918515
 20
-63.94333905649999
 30
0.0
 10
3210.2927194932
 20
-63.9835414089
 30
0.0
 10
3210.4548950468
 20
-64.0594173686
 30
0.0
 10
3210.6940374368
 20
-64.1930152855
 30
0.0
 10
3210.9955442723
 20
-64.4013311229
 30
0.0
 10
3211.2858207604
 20
-64.6728477605
 30
0.0
 10
3211.4825627821
 20
-64.9551327728
 30
0.0
 10
3211.5674327414
 20
-65.1808149494
 30
0.0
 10
3211.6039460999
 20
-65.3158974853
 30
0.0
 10
3211.6184354742
 20
-65.423258847
 30
0.0
 10
3211.612086718901
 20
-65.53333927779999
 30
0.0
 10
3211.632708773401
 20
-65.6258370412
 30
0.0
 10
3211.623171347
 20
-65.695337161
 30
0.0
 10
3211.6018412624
 20
-65.7360848947
 30
0.0
 10
3211.5780167158
 20
-65.7630210944
 30
0.0
 10
3211.5647342814
 20
-65.80922384209999
 30
0.0
 10
3211.6334988996
 20
-65.84803998409999
 30
0.0
 10
3211.7502636866
 20
-65.867582567
 30
0.0
 10
3211.8612564399
 20
-65.8798681714
 30
0.0
 10
3211.9317565051
 20
-65.8849951479
 30
0.0
  0
SPLINE
  5
8A8
330
24F
100
AcDbEntity
  8
0
  6
Continuous
 62
     7
100
AcDbSpline
210
0.0
220
0.0
230
1.0
 70
     8
 71
     3
 72
    21
 73
    17
 74
     0
 42
0.0000000001
 43
0.0000000001
 40
0.0
 40
0.0
 40
0.0
 40
0.0
 40
0.0013934969
 40
0.0050334062
 40
0.011026606
 40
0.019380041
 40
0.0431087594
 40
0.0760228758
 40
0.117822117
 40
0.1681164382
 40
0.226431749
 40
0.2922151703
 40
0.4436156699
 40
0.6165492025
 40
0.8044074006999998
 40
1.0
 40
1.0
 40
1.0
 40
1.0
 10
3204.603275575701
 20
-72.2538239727
 30
0.0
 10
3204.6026307482
 20
-72.2583884388
 30
0.0
 10
3204.624445369601
 20
-72.2662915392
 30
0.0
 10
3204.6537080087
 20
-72.27546428550001
 30
0.0
 10
3204.715151098901
 20
-72.28833722800001
 30
0.0
 10
3204.837122535
 20
-72.3106571321
 30
0.0
 10
3205.0511259596
 20
-72.3434142265
 30
0.0
 10
3205.3729664625
 20
-72.38830698689999
 30
0.0
 10
3205.7832675893
 20
-72.44205464310001
 30
0.0
 10
3206.2768198075
 20
-72.5043584138
 30
0.0
 10
3206.8494297279
 20
-72.5748874361
 30
0.0
 10
3207.7541685903
 20
-72.68453405310001
 30
0.0
 10
3209.0356435973
 20
-72.8372724187
 30
0.0
 10
3210.7183835137
 20
-73.0354244146
 30
0.0
 10
3212.5466384581
 20
-73.2479117005
 30
0.0
 10
3213.8070336643
 20
-73.39094955490001
 30
0.0
 10
3214.4500800424
 20
-73.4626781064
 30
0.0
  0
SPLINE
  5
8A9
330
24F
100
AcDbEntity
  8
0
  6
Continuous
 62
     7
100
AcDbSpline
210
0.0
220
0.0
230
1.0
 70
     8
 71
     3
 72
    21
 73
    17
 74
     0
 42
0.0000000001
 43
0.0000000001
 40
0.0
 40
0.0
 40
0.0
 40
0.0
 40
0.195166457
 40
0.3828283353
 40
0.5557504042
 40
0.7072785688
 40
0.7731634765999999
 40
0.8315970610999999
 40
0.8820193043999999
 40
0.9239475846999999
 40
0.9569810579
 40
0.9808041775999999
 40
0.989187296
 40
0.9951895656000001
 40
0.9987966763999999
 40
1.0
 40
1.0
 40
1.0
 40
1.0
 10
3498.1109169202
 20
-67.69935409609999
 30
0.0
 10
3509.2263484456
 20
-67.837095862
 30
0.0
 10
3531.0302455172
 20
-68.07253737599999
 30
0.0
 10
3562.683775415801
 20
-68.3153769116
 30
0.0
 10
3591.8523539447
 20
-68.4532594817
 30
0.0
 10
3614.0850271745
 20
-68.49946735489999
 30
0.0
 10
3629.7966937691
 20
-68.50421498590001
 30
0.0
 10
3639.7495710155
 20
-68.49716542500001
 30
0.0
 10
3648.3379150067
 20
-68.4833176348
 30
0.0
 10
3655.4795205102
 20
-68.46679972859999
 30
0.0
 10
3661.1060635495
 20
-68.4493452929
 30
0.0
 10
3664.8220013782
 20
-68.4382088237
 30
0.0
 10
3666.998213885
 20
-68.42799569989999
 30
0.0
 10
3668.0231079396
 20
-68.4276873005
 30
0.0
 10
3668.6388219868
 20
-68.4189290673
 30
0.0
 10
3668.9129689323
 20
-68.4244496443
 30
0.0
 10
3668.981442974401
 20
-68.42146936
 30
0.0
  0
SPLINE
  5
8AA
330
24F
100
AcDbEntity
  8
0
  6
Continuous
 62
     7
100
AcDbSpline
210
0.0
220
0.0
230
1.0
 70
     8
 71
     3
 72
    11
 73
     7
 74
     0
 42
0.0000000001
 43
0.0000000001
 40
0.0
 40
0.0
 40
0.0
 40
0.0
 40
0.2492369286
 40
0.5008623655
 40
0.7519963265000001
 40
1.0
 40
1.0
 40
1.0
 40
1.0
 10
3211.9317565051
 20
-65.8849951479
 30
0.0
 10
3211.0584473816
 20
-65.88900504449999
 30
0.0
 10
3209.290109527
 20
-66.22365892149999
 30
0.0
 10
3206.9874614024
 20
-67.6091499561
 30
0.0
 10
3205.2961790922
 20
-69.6924076177
 30
0.0
 10
3204.724217009
 20
-71.39328096859999
 30
0.0
 10
3204.6032759923
 20
-72.25382099079999
 30
0.0
  0
SPLINE
  5
8AB
330
24F
100
AcDbEntity
  8
0
  6
Continuous
 62
     7
100
AcDbSpline
210
0.0
220
0.0
230
1.0
 70
     8
 71
     3
 72
    11
 73
     7
 74
     0
 42
0.0000000001
 43
0.0000000001
 40
0.0
 40
0.0
 40
0.0
 40
0.0
 40
0.212979226
 40
0.4581459620000001
 40
0.7245593252
 40
1.0
 40
1.0
 40
1.0
 40
1.0
 10
3313.6888312463
 20
-119.8719444705
 30
0.0
 10
3313.1012502442
 20
-118.4808614499
 30
0.0
 10
3311.275270250801
 20
-115.7308195706
 30
0.0
 10
3307.5936820887
 20
-112.1260031038
 30
0.0
 10
3303.1332293923
 20
-108.756613326
 30
0.0
 10
3299.9142150792
 20
-106.6563261562
 30
0.0
 10
3298.250726357701
 20
-105.6331695348
 30
0.0
  0
SPLINE
  5
8AC
330
24F
100
AcDbEntity
  8
0
  6
Continuous
 62
     7
100
AcDbSpline
210
0.0
220
0.0
230
1.0
 70
     8
 71
     3
 72
    13
 73
     9
 74
     0
 42
0.0000000001
 43
0.0000000001
 40
0.0
 40
0.0
 40
0.0
 40
0.0
 40
0.3443723148
 40
0.4934202281000001
 40
0.6262662094
 40
0.7423982379
 40
0.8417867418000001
 40
1.0
 40
1.0
 40
1.0
 40
1.0
 10
3240.7740100342
 20
-103.2850381466
 30
0.0
 10
3240.1466666404
 20
-103.1878209974
 30
0.0
 10
3239.2485141413
 20
-103.0440997794
 30
0.0
 10
3238.1096331428
 20
-102.8544469891
 30
0.0
 10
3237.3866969667
 20
-102.730029221
 30
0.0
 10
3236.7530582689
 20
-102.6222764799
 30
0.0
 10
3236.0783985607
 20
-102.4921994888
 30
0.0
 10
3235.6332631421
 20
-102.2673440319
 30
0.0
 10
3235.4254245075
 20
-102.0627293731
 30
0.0
  0
LINE
  5
8AD
330
24F
100
AcDbEntity
  8
0
  6
Continuous
 62
     7
100
AcDbLine
 10
3437.9957416168
 20
-117.307675865
 30
0.0
 11
3355.1691098081
 21
-121.1600762213
 31
0.0
  0
LINE
  5
8AE
330
24F
100
AcDbEntity
  8
0
  6
Continuous
 62
     7
100
AcDbLine
 10
3259.7020795782
 20
-105.3016188049
 30
0.0
 11
3259.7581163898
 21
-103.7911463943
 31
0.0
  0
LINE
  5
8AF
330
24F
100
AcDbEntity
  8
0
  6
Continuous
 62
     7
100
AcDbLine
 10
3353.440385690201
 20
-121.2501480893
 30
0.0
 11
3355.1113833256
 21
-121.1521728495
 31
0.0
  0
SPLINE
  5
8B0
330
24F
100
AcDbEntity
  8
0
  6
Continuous
 62
     7
100
AcDbSpline
210
0.0
220
0.0
230
1.0
 70
     8
 71
     3
 72
    11
 73
     7
 74
     0
 42
0.0000000001
 43
0.0000000001
 40
0.0
 40
0.0
 40
0.0
 40
0.0
 40
0.2192724849
 40
0.4661427575000001
 40
0.7300314489000001
 40
1.0
 40
1.0
 40
1.0
 40
1.0
 10
3355.1113833256
 20
-121.1521728495
 30
0.0
 10
3361.1651568509
 20
-120.7958981749
 30
0.0
 10
3374.0351663843
 20
-120.044414096
 30
0.0
 10
3394.2037149923
 20
-119.10888076
 30
0.0
 10
3415.7763533341
 20
-118.1960836468
 30
0.0
 10
3430.529443287701
 20
-117.6157028214
 30
0.0
 10
3437.9894086724
 20
-117.3079735954
 30
0.0
  0
SPLINE
  5
8B1
330
24F
100
AcDbEntity
  8
0
  6
Continuous
 62
     7
100
AcDbSpline
210
0.0
220
0.0
230
1.0
 70
     8
 71
     3
 72
    33
 73
    29
 74
     0
 42
0.0000000001
 43
0.0000000001
 40
0.0
 40
0.0
 40
0.0
 40
0.0
 40
0.0003677573
 40
0.0014878217
 40
0.0033850913
 40
0.0060698151
 40
0.0095412795
 40
0.0137794305
 40
0.0244528371
 40
0.0380623151
 40
0.0546797954
 40
0.0741677273
 40
0.0964226866
 40
0.1213973136
 40
0.1489346324
 40
0.1788792571
 40
0.210997216
 40
0.2449353764
 40
0.2803923824
 40
0.3550099222
 40
0.5141306365000001
 40
0.5954580286
 40
0.6767797290999999
 40
0.758095321
 40
0.8394032754000001
 40
0.8800333693
 40
0.9205210943999999
 40
1.0
 40
1.0
 40
1.0
 40
1.0
 10
3313.6888312463
 20
-119.8719444705
 30
0.0
 10
3313.7144643149
 20
-119.8782502587
 30
0.0
 10
3313.823124153901
 20
-119.8648385887
 30
0.0
 10
3314.0642556152
 20
-119.8816860351
 30
0.0
 10
3314.4745927037
 20
-119.8770004521
 30
0.0
 10
3315.0521775485
 20
-119.8840482595
 30
0.0
 10
3315.7984616563
 20
-119.8837587989
 30
0.0
 10
3317.1178899317
 20
-119.8802853694
 30
0.0
 10
3319.1650541395
 20
-119.8561128463
 30
0.0
 10
3322.1003525025
 20
-119.8025066375
 30
0.0
 10
3325.667585994501
 20
-119.7058221168
 30
0.0
 10
3329.8541756887
 20
-119.560630388
 30
0.0
 10
3334.6379910124
 20
-119.3354142914
 30
0.0
 10
3339.9941354393
 20
-118.9957728802
 30
0.0
 10
3345.895791589501
 20
-118.5453455035
 30
0.0
 10
3352.3017457277
 20
-117.9722386934
 30
0.0
 10
3359.1603614701
 20
-117.3066243339
 30
0.0
 10
3366.4168094199
 20
-116.6441588188
 30
0.0
 10
3376.7225672725
 20
-115.8347683439
 30
0.0
 10
3396.0150558463
 20
-114.7303828853
 30
0.0
 10
3418.616161650901
 20
-113.8845287524
 30
0.0
 10
3441.705375073301
 20
-113.3129896084
 30
0.0
 10
3459.209300051301
 20
-112.7896973626
 30
0.0
 10
3476.707260536301
 20
-112.1341357368
 30
0.0
 10
3491.2831618192
 20
-111.5000876856
 30
0.0
 10
3502.9247880031
 20
-110.8667835379
 30
0.0
 10
3514.4380690851
 20
-110.2943839762
 30
0.0
 10
3523.0385540042
 20
-109.8670671096
 30
0.0
 10
3528.7364416861
 20
-109.5837873688
 30
0.0
  0
SPLINE
  5
8B2
330
24F
100
AcDbEntity
  8
0
  6
Continuous
 62
     7
100
AcDbSpline
210
0.0
220
0.0
230
1.0
 70
     8
 71
     3
 72
    21
 73
    17
 74
     0
 42
0.0000000001
 43
0.0000000001
 40
0.0
 40
0.0
 40
0.0
 40
0.0
 40
0.2225076347
 40
0.4273728297
 40
0.6087470002000001
 40
0.7600800225
 40
0.8227748006999998
 40
0.8756915393999999
 40
0.9187427706999999
 40
0.9520125011000001
 40
0.9757452108999999
 40
0.990587404
 40
0.9950896999999997
 40
0.9979878978
 40
0.9995401431999999
 40
1.0
 40
1.0
 40
1.0
 40
1.0
 10
3550.7782734185
 20
-108.5111716885
 30
0.0
 10
3555.256017053301
 20
-108.3028469383
 30
0.0
 10
3563.8573009831
 20
-107.9201479215
 30
0.0
 10
3576.111728045301
 20
-107.4421822182
 30
0.0
 10
3586.9344125521
 20
-107.0517726263
 30
0.0
 10
3594.895001728
 20
-106.761272682
 30
0.0
 10
3600.2682128379
 20
-106.5469646109
 30
0.0
 10
3603.4623192695
 20
-106.4080763257
 30
0.0
 10
3606.061079266
 20
-106.2872973545
 30
0.0
 10
3608.079441327801
 20
-106.1874043848
 30
0.0
 10
3609.513140100301
 20
-106.1133958082
 30
0.0
 10
3610.4008474472
 20
-106.0679102571
 30
0.0
 10
3610.8244304384
 20
-106.0542650482
 30
0.0
 10
3611.0376583701
 20
-106.0457250338
 30
0.0
 10
3611.0855326425
 20
-106.051024684
 30
0.0
 10
3611.1736956628
 20
-106.0458342893
 30
0.0
 10
3611.1647658718
 20
-106.0483007957
 30
0.0
  0
ELLIPSE
  5
8B5
330
24F
100
AcDbEntity
  8
0
  6
Continuous
 62
     7
100
AcDbEllipse
 10
2926.405353407501
 20
-119.7139083602
 30
0.0
 11
0.0
 21
17.2810308479
 31
0.0
210
0.0
220
0.0
230
1.0
 40
0.3327347802
 41
-3.218295080199999
 42
-3.064890226999999
  0
ELLIPSE
  5
8B6
330
24F
100
AcDbEntity
  8
0
  6
Continuous
 62
     7
100
AcDbEllipse
 10
2750.4053534075
 20
-119.7139083602
 30
0.0
 11
0.0
 21
17.2810308479
 31
0.0
210
0.0
220
0.0
230
1.0
 40
0.3327347802
 41
-3.218295080199999
 42
-3.064890226999999
  0
ELLIPSE
  5
8B7
330
24F
100
AcDbEntity
  8
0
  6
Continuous
 62
     7
100
AcDbEllipse
 10
2962.9053534075
 20
-295.9990143541
 30
0.0
 11
4.0
 21
0.0
 31
0.0
210
0.0
220
0.0
230
1.0
 40
0.1405408347
 41
-1.5707963268
 42
0.0
  0
ELLIPSE
  5
8B8
330
24F
100
AcDbEntity
  8
0
  6
Continuous
 62
     7
100
AcDbEllipse
 10
2713.905353407501
 20
-295.9990143541
 30
0.0
 11
4.0
 21
0.0
 31
0.0
210
0.0
220
0.0
230
1.0
 40
0.1405408347
 41
-3.1415926536
 42
-1.5707963268
  0
MTEXT
  5
921
330
24F
100
AcDbEntity
  8
0
100
AcDbMText
 10
2738.832950053126
 20
111.4908489411536
 30
0.0
 40
32.0
 41
84909.77225689189
 71
     1
 72
     5
  1
{\fSimSun|b0|i0|c134|p2;SCALE\P1:1}
 73
     1
 44
1.0
  0
ENDSEC
  0
SECTION
  2
OBJECTS
  0
DICTIONARY
  5
C
330
0
100
AcDbDictionary
281
     1
  3
ACAD_COLOR
350
8E7
  3
ACAD_GROUP
350
D
  3
ACAD_LAYOUT
350
1A
  3
ACAD_MATERIAL
350
8BD
  3
ACAD_MLEADERSTYLE
350
90C
  3
ACAD_MLINESTYLE
350
17
  3
ACAD_PLOTSETTINGS
350
19
  3
ACAD_PLOTSTYLENAME
350
E
  3
ACAD_SCALELIST
350
8EA
  3
ACAD_TABLESTYLE
350
8E8
  3
ACAD_VISUALSTYLE
350
8D6
  3
ACDB_RECOMPOSE_DATA
350
911
  3
ACDBHEADERROUNDTRIPXREC
350
9FE
  3
AcDbVariableDictionary
350
912
  0
DICTIONARY
  5
8E7
102
{ACAD_REACTORS
330
C
102
}
330
C
100
AcDbDictionary
281
     1
  0
DICTIONARY
  5
D
102
{ACAD_REACTORS
330
C
102
}
330
C
100
AcDbDictionary
281
     1
  0
DICTIONARY
  5
1A
102
{ACAD_REACTORS
330
C
102
}
330
C
100
AcDbDictionary
281
     1
  3
Layout1
350
8BA
  3
Model
350
8B9
  0
DICTIONARY
  5
8BD
102
{ACAD_REACTORS
330
C
102
}
330
C
100
AcDbDictionary
281
     1
  3
ByBlock
350
8C6
  3
ByLayer
350
8BE
  3
Global
350
8CE
  0
DICTIONARY
  5
90C
102
{ACAD_REACTORS
330
C
102
}
330
C
100
AcDbDictionary
281
     1
  3
Standard
350
90D
  0
DICTIONARY
  5
17
102
{ACAD_REACTORS
330
C
102
}
330
C
100
AcDbDictionary
281
     1
  3
Standard
350
18
  0
DICTIONARY
  5
19
102
{ACAD_REACTORS
330
C
102
}
330
C
100
AcDbDictionary
281
     1
  0
ACDBDICTIONARYWDFLT
  5
E
102
{ACAD_REACTORS
330
C
102
}
330
C
100
AcDbDictionary
281
     1
  3
Normal
350
F
100
AcDbDictionaryWithDefault
340
F
  0
DICTIONARY
  5
8EA
102
{ACAD_REACTORS
330
C
102
}
330
C
100
AcDbDictionary
281
     1
  3
A0
350
8EB
  3
A1
350
8EC
  3
A2
350
8ED
  3
A3
350
8EE
  3
A4
350
8EF
  3
A5
350
8F0
  3
A6
350
8F1
  3
A7
350
8F2
  3
A8
350
8F3
  3
A9
350
8F4
  3
B0
350
8F5
  3
B1
350
8F6
  3
B2
350
8F7
  3
B3
350
8F8
  3
B4
350
8F9
  3
B5
350
8FA
  3
B6
350
8FB
  3
B7
350
8FC
  3
B8
350
8FD
  3
B9
350
8FE
  3
C0
350
8FF
  3
C1
350
900
  3
C2
350
901
  3
C3
350
902
  3
C4
350
903
  3
C5
350
904
  3
C6
350
905
  3
C7
350
906
  3
C8
350
907
  3
C9
350
908
  3
D0
350
909
  3
D1
350
90A
  3
D2
350
90B
  0
DICTIONARY
  5
8E8
102
{ACAD_REACTORS
330
C
102
}
330
C
100
AcDbDictionary
281
     1
  3
Standard
350
8E9
  0
DICTIONARY
  5
8D6
102
{ACAD_REACTORS
330
C
102
}
330
C
100
AcDbDictionary
281
     1
  3
2dWireframe
350
8DC
  3
3D Hidden
350
8DE
  3
3dWireframe
350
8DD
  3
Basic
350
8DB
  3
Brighten
350
8E2
  3
ColorChange
350
8E6
  3
Conceptual
350
8DF
  3
Dim
350
8E1
  3
Facepattern
350
8E5
  3
Flat
350
8D7
  3
FlatWithEdges
350
8D8
  3
Gouraud
350
8D9
  3
GouraudWithEdges
350
8DA
  3
Linepattern
350
8E4
  3
Realistic
350
8E0
  3
Thicken
350
8E3
  0
XRECORD
  5
911
102
{ACAD_REACTORS
330
C
102
}
330
C
100
AcDbXrecord
280
     1
 90
        1
330
8E9
  0
DICTIONARY
  5
9FE
102
{ACAD_REACTORS
330
C
102
}
330
C
100
AcDbDictionary
281
     1
  0
DICTIONARY
  5
912
102
{ACAD_REACTORS
330
C
102
}
330
C
100
AcDbDictionary
281
     1
  3
CANNOSCALE
350
915
  3
CMLEADERSTYLE
350
914
  3
CTABLESTYLE
350
913
  0
LAYOUT
  5
8BA
102
{ACAD_REACTORS
330
1A
102
}
330
1A
100
AcDbPlotSettings
  1

  2
none_device
  4
ANSI_C_(22.00_x_17.00_Inches)
  6

 40
0.0
 41
0.0
 42
0.0
 43
0.0
 44
558.8
 45
431.8
 46
0.0
 47
0.0
 48
0.0
 49
0.0
140
0.0
141
0.0
142
1.0
143
1.0
 70
     0
 72
     1
 73
     0
 74
     0
  7

 75
     0
147
1.0
 76
     0
 77
     2
 78
   300
148
0.0
149
0.0
100
AcDbLayout
  1
Layout1
 70
     1
 71
     1
 10
0.0
 20
0.0
 11
12.0
 21
9.0
 12
0.0
 22
0.0
 32
0.0
 14
1.000000000000000E+20
 24
1.000000000000000E+20
 34
1.000000000000000E+20
 15
-1.000000000000000E+20
 25
-1.000000000000000E+20
 35
-1.000000000000000E+20
146
0.0
 13
0.0
 23
0.0
 33
0.0
 16
1.0
 26
0.0
 36
0.0
 17
0.0
 27
1.0
 37
0.0
 76
     0
330
250
  0
LAYOUT
  5
8B9
102
{ACAD_REACTORS
330
1A
102
}
330
1A
100
AcDbPlotSettings
  1

  2
none_device
  4
ANSI_C_(22.00_x_17.00_Inches)
  6

 40
0.0
 41
0.0
 42
0.0
 43
0.0
 44
558.8
 45
431.8
 46
0.0
 47
0.0
 48
0.0
 49
0.0
140
0.0
141
0.0
142
1.0
143
1.0
 70
  1024
 72
     1
 73
     0
 74
     0
  7

 75
     0
147
1.0
 76
     0
 77
     2
 78
   300
148
0.0
149
0.0
100
AcDbLayout
  1
Model
 70
     0
 71
     0
 10
0.0
 20
0.0
 11
558.8
 21
431.8
 12
0.0
 22
0.0
 32
0.0
 14
0.0
 24
0.0
 34
0.0
 15
0.0
 25
0.0
 35
0.0
146
0.0
 13
0.0
 23
0.0
 33
0.0
 16
1.0
 26
0.0
 36
0.0
 17
0.0
 27
1.0
 37
0.0
 76
     0
330
24F
331
1F4
  0
MATERIAL
  5
8C6
102
{ACAD_XDICTIONARY
360
8C7
102
}
102
{ACAD_REACTORS
330
8BD
102
}
330
8BD
100
AcDbMaterial
  1
ByBlock
  2

 72
     0
 73
     2
 43
0.0008202099737533
 43
0.0
 43
0.0
 43
0.0
 43
0.0
 43
0.0008202099737533
 43
0.0
 43
0.0
 43
0.0
 43
0.0
 43
1.0
 43
0.0
 43
0.0
 43
0.0
 43
0.0
 43
1.0
 77
     0
 78
     2
 47
0.0008202099737533
 47
0.0
 47
0.0
 47
0.0
 47
0.0
 47
0.0008202099737533
 47
0.0
 47
0.0
 47
0.0
 47
0.0
 47
1.0
 47
0.0
 47
0.0
 47
0.0
 47
0.0
 47
1.0
171
     0
172
     2
 49
0.0008202099737533
 49
0.0
 49
0.0
 49
0.0
 49
0.0
 49
0.0008202099737533
 49
0.0
 49
0.0
 49
0.0
 49
0.0
 49
1.0
 49
0.0
 49
0.0
 49
0.0
 49
0.0
 49
1.0
175
     0
176
     2
142
0.0008202099737533
142
0.0
142
0.0
142
0.0
142
0.0
142
0.0008202099737533
142
0.0
142
0.0
142
0.0
142
0.0
142
1.0
142
0.0
142
0.0
142
0.0
142
0.0
142
1.0
179
     0
270
     2
144
0.0008202099737533
144
0.0
144
0.0
144
0.0
144
0.0
144
0.0008202099737533
144
0.0
144
0.0
144
0.0
144
0.0
144
1.0
144
0.0
144
0.0
144
0.0
144
0.0
144
1.0
274
     2
147
0.0008202099737533
147
0.0
147
0.0
147
0.0
147
0.0
147
0.0008202099737533
147
0.0
147
0.0
147
0.0
147
0.0
147
1.0
147
0.0
147
0.0
147
0.0
147
0.0
147
1.0
  0
MATERIAL
  5
8BE
102
{ACAD_XDICTIONARY
360
8BF
102
}
102
{ACAD_REACTORS
330
8BD
102
}
330
8BD
100
AcDbMaterial
  1
ByLayer
  2

 72
     0
 73
     2
 43
0.0008202099737533
 43
0.0
 43
0.0
 43
0.0
 43
0.0
 43
0.0008202099737533
 43
0.0
 43
0.0
 43
0.0
 43
0.0
 43
1.0
 43
0.0
 43
0.0
 43
0.0
 43
0.0
 43
1.0
 77
     0
 78
     2
 47
0.0008202099737533
 47
0.0
 47
0.0
 47
0.0
 47
0.0
 47
0.0008202099737533
 47
0.0
 47
0.0
 47
0.0
 47
0.0
 47
1.0
 47
0.0
 47
0.0
 47
0.0
 47
0.0
 47
1.0
171
     0
172
     2
 49
0.0008202099737533
 49
0.0
 49
0.0
 49
0.0
 49
0.0
 49
0.0008202099737533
 49
0.0
 49
0.0
 49
0.0
 49
0.0
 49
1.0
 49
0.0
 49
0.0
 49
0.0
 49
0.0
 49
1.0
175
     0
176
     2
142
0.0008202099737533
142
0.0
142
0.0
142
0.0
142
0.0
142
0.0008202099737533
142
0.0
142
0.0
142
0.0
142
0.0
142
1.0
142
0.0
142
0.0
142
0.0
142
0.0
142
1.0
179
     0
270
     2
144
0.0008202099737533
144
0.0
144
0.0
144
0.0
144
0.0
144
0.0008202099737533
144
0.0
144
0.0
144
0.0
144
0.0
144
1.0
144
0.0
144
0.0
144
0.0
144
0.0
144
1.0
274
     2
147
0.0008202099737533
147
0.0
147
0.0
147
0.0
147
0.0
147
0.0008202099737533
147
0.0
147
0.0
147
0.0
147
0.0
147
1.0
147
0.0
147
0.0
147
0.0
147
0.0
147
1.0
  0
MATERIAL
  5
8CE
102
{ACAD_XDICTIONARY
360
8CF
102
}
102
{ACAD_REACTORS
330
8BD
102
}
330
8BD
100
AcDbMaterial
  1
Global
  2

 72
     0
 73
     2
 43
0.0008202099737533
 43
0.0
 43
0.0
 43
0.0
 43
0.0
 43
0.0008202099737533
 43
0.0
 43
0.0
 43
0.0
 43
0.0
 43
1.0
 43
0.0
 43
0.0
 43
0.0
 43
0.0
 43
1.0
 77
     0
 78
     2
 47
0.0008202099737533
 47
0.0
 47
0.0
 47
0.0
 47
0.0
 47
0.0008202099737533
 47
0.0
 47
0.0
 47
0.0
 47
0.0
 47
1.0
 47
0.0
 47
0.0
 47
0.0
 47
0.0
 47
1.0
171
     0
172
     2
 49
0.0008202099737533
 49
0.0
 49
0.0
 49
0.0
 49
0.0
 49
0.0008202099737533
 49
0.0
 49
0.0
 49
0.0
 49
0.0
 49
1.0
 49
0.0
 49
0.0
 49
0.0
 49
0.0
 49
1.0
175
     0
176
     2
142
0.0008202099737533
142
0.0
142
0.0
142
0.0
142
0.0
142
0.0008202099737533
142
0.0
142
0.0
142
0.0
142
0.0
142
1.0
142
0.0
142
0.0
142
0.0
142
0.0
142
1.0
179
     0
270
     2
144
0.0008202099737533
144
0.0
144
0.0
144
0.0
144
0.0
144
0.0008202099737533
144
0.0
144
0.0
144
0.0
144
0.0
144
1.0
144
0.0
144
0.0
144
0.0
144
0.0
144
1.0
274
     2
147
0.0008202099737533
147
0.0
147
0.0
147
0.0
147
0.0
147
0.0008202099737533
147
0.0
147
0.0
147
0.0
147
0.0
147
1.0
147
0.0
147
0.0
147
0.0
147
0.0
147
1.0
  0
MLEADERSTYLE
  5
90D
102
{ACAD_REACTORS
330
90C
102
}
330
90C
100
AcDbMLeaderStyle
170
     2
171
     1
172
     0
 90
        2
 40
0.0
 41
0.0
173
     1
 91
-1056964608
340
14
 92
       -2
290
     1
 42
2.0
291
     1
 43
0.36
  3
Standard
341
0
 44
4.0
300

342
11
174
     1
178
     6
175
     1
176
     0
 93
-1056964608
 45
4.0
292
     0
297
     0
 46
4.0
343
0
 94
-1056964608
 47
1.0
 49
1.0
140
1.0
293
     1
141
0.0
294
     1
177
     0
142
1.0
295
     0
296
     0
143
0.125
1001
ACAD_MLEADERVER
1070
     2
  0
MLINESTYLE
  5
18
102
{ACAD_REACTORS
330
17
102
}
330
17
100
AcDbMlineStyle
  2
STANDARD
 70
     0
  3

 62
   256
 51
90.0
 52
90.0
 71
     2
 49
0.5
 62
   256
  6
BYLAYER
 49
-0.5
 62
   256
  6
BYLAYER
  0
ACDBPLACEHOLDER
  5
F
102
{ACAD_REACTORS
330
E
102
}
330
E
  0
SCALE
  5
8EB
102
{ACAD_REACTORS
330
8EA
102
}
330
8EA
100
AcDbScale
 70
     0
300
1:1
140
1.0
141
1.0
290
     1
  0
SCALE
  5
8EC
102
{ACAD_REACTORS
330
8EA
102
}
330
8EA
100
AcDbScale
 70
     0
300
1:2
140
1.0
141
2.0
290
     0
  0
SCALE
  5
8ED
102
{ACAD_REACTORS
330
8EA
102
}
330
8EA
100
AcDbScale
 70
     0
300
1:4
140
1.0
141
4.0
290
     0
  0
SCALE
  5
8EE
102
{ACAD_REACTORS
330
8EA
102
}
330
8EA
100
AcDbScale
 70
     0
300
1:5
140
1.0
141
5.0
290
     0
  0
SCALE
  5
8EF
102
{ACAD_REACTORS
330
8EA
102
}
330
8EA
100
AcDbScale
 70
     0
300
1:8
140
1.0
141
8.0
290
     0
  0
SCALE
  5
8F0
102
{ACAD_REACTORS
330
8EA
102
}
330
8EA
100
AcDbScale
 70
     0
300
1:10
140
1.0
141
10.0
290
     0
  0
SCALE
  5
8F1
102
{ACAD_REACTORS
330
8EA
102
}
330
8EA
100
AcDbScale
 70
     0
300
1:16
140
1.0
141
16.0
290
     0
  0
SCALE
  5
8F2
102
{ACAD_REACTORS
330
8EA
102
}
330
8EA
100
AcDbScale
 70
     0
300
1:20
140
1.0
141
20.0
290
     0
  0
SCALE
  5
8F3
102
{ACAD_REACTORS
330
8EA
102
}
330
8EA
100
AcDbScale
 70
     0
300
1:30
140
1.0
141
30.0
290
     0
  0
SCALE
  5
8F4
102
{ACAD_REACTORS
330
8EA
102
}
330
8EA
100
AcDbScale
 70
     0
300
1:40
140
1.0
141
40.0
290
     0
  0
SCALE
  5
8F5
102
{ACAD_REACTORS
330
8EA
102
}
330
8EA
100
AcDbScale
 70
     0
300
1:50
140
1.0
141
50.0
290
     0
  0
SCALE
  5
8F6
102
{ACAD_REACTORS
330
8EA
102
}
330
8EA
100
AcDbScale
 70
     0
300
1:100
140
1.0
141
100.0
290
     0
  0
SCALE
  5
8F7
102
{ACAD_REACTORS
330
8EA
102
}
330
8EA
100
AcDbScale
 70
     0
300
2:1
140
2.0
141
1.0
290
     0
  0
SCALE
  5
8F8
102
{ACAD_REACTORS
330
8EA
102
}
330
8EA
100
AcDbScale
 70
     0
300
4:1
140
4.0
141
1.0
290
     0
  0
SCALE
  5
8F9
102
{ACAD_REACTORS
330
8EA
102
}
330
8EA
100
AcDbScale
 70
     0
300
8:1
140
8.0
141
1.0
290
     0
  0
SCALE
  5
8FA
102
{ACAD_REACTORS
330
8EA
102
}
330
8EA
100
AcDbScale
 70
     0
300
10:1
140
10.0
141
1.0
290
     0
  0
SCALE
  5
8FB
102
{ACAD_REACTORS
330
8EA
102
}
330
8EA
100
AcDbScale
 70
     0
300
100:1
140
100.0
141
1.0
290
     0
  0
SCALE
  5
8FC
102
{ACAD_REACTORS
330
8EA
102
}
330
8EA
100
AcDbScale
 70
     0
300
1/128" = 1'-0"
140
0.0078125
141
12.0
290
     0
  0
SCALE
  5
8FD
102
{ACAD_REACTORS
330
8EA
102
}
330
8EA
100
AcDbScale
 70
     0
300
1/64" = 1'-0"
140
0.015625
141
12.0
290
     0
  0
SCALE
  5
8FE
102
{ACAD_REACTORS
330
8EA
102
}
330
8EA
100
AcDbScale
 70
     0
300
1/32" = 1'-0"
140
0.03125
141
12.0
290
     0
  0
SCALE
  5
8FF
102
{ACAD_REACTORS
330
8EA
102
}
330
8EA
100
AcDbScale
 70
     0
300
1/16" = 1'-0"
140
0.0625
141
12.0
290
     0
  0
SCALE
  5
900
102
{ACAD_REACTORS
330
8EA
102
}
330
8EA
100
AcDbScale
 70
     0
300
3/32" = 1'-0"
140
0.09375
141
12.0
290
     0
  0
SCALE
  5
901
102
{ACAD_REACTORS
330
8EA
102
}
330
8EA
100
AcDbScale
 70
     0
300
1/8" = 1'-0"
140
0.125
141
12.0
290
     0
  0
SCALE
  5
902
102
{ACAD_REACTORS
330
8EA
102
}
330
8EA
100
AcDbScale
 70
     0
300
3/16" = 1'-0"
140
0.1875
141
12.0
290
     0
  0
SCALE
  5
903
102
{ACAD_REACTORS
330
8EA
102
}
330
8EA
100
AcDbScale
 70
     0
300
1/4" = 1'-0"
140
0.25
141
12.0
290
     0
  0
SCALE
  5
904
102
{ACAD_REACTORS
330
8EA
102
}
330
8EA
100
AcDbScale
 70
     0
300
3/8" = 1'-0"
140
0.375
141
12.0
290
     0
  0
SCALE
  5
905
102
{ACAD_REACTORS
330
8EA
102
}
330
8EA
100
AcDbScale
 70
     0
300
1/2" = 1'-0"
140
0.5
141
12.0
290
     0
  0
SCALE
  5
906
102
{ACAD_REACTORS
330
8EA
102
}
330
8EA
100
AcDbScale
 70
     0
300
3/4" = 1'-0"
140
0.75
141
12.0
290
     0
  0
SCALE
  5
907
102
{ACAD_REACTORS
330
8EA
102
}
330
8EA
100
AcDbScale
 70
     0
300
1" = 1'-0"
140
1.0
141
12.0
290
     0
  0
SCALE
  5
908
102
{ACAD_REACTORS
330
8EA
102
}
330
8EA
100
AcDbScale
 70
     0
300
1-1/2" = 1'-0"
140
1.5
141
12.0
290
     0
  0
SCALE
  5
909
102
{ACAD_REACTORS
330
8EA
102
}
330
8EA
100
AcDbScale
 70
     0
300
3" = 1'-0"
140
3.0
141
12.0
290
     0
  0
SCALE
  5
90A
102
{ACAD_REACTORS
330
8EA
102
}
330
8EA
100
AcDbScale
 70
     0
300
6" = 1'-0"
140
6.0
141
12.0
290
     0
  0
SCALE
  5
90B
102
{ACAD_REACTORS
330
8EA
102
}
330
8EA
100
AcDbScale
 70
     0
300
1'-0" = 1'-0"
140
12.0
141
12.0
290
     0
  0
TABLESTYLE
  5
8E9
102
{ACAD_XDICTIONARY
360
90F
102
}
102
{ACAD_REACTORS
330
8E8
102
}
330
8E8
100
AcDbTableStyle
  3
Standard
 70
     0
 71
     0
 40
1.5
 41
1.5
280
     0
281
     0
  7
STANDARD
140
4.5
170
     2
 62
     0
 63
   257
283
     1
274
    -2
284
     1
 64
     0
275
    -2
285
     1
 65
     0
276
    -2
286
     1
 66
     0
277
    -2
287
     1
 67
     0
278
    -2
288
     1
 68
     0
279
    -2
289
     1
 69
     0
  7
STANDARD
140
6.0
170
     5
 62
     0
 63
   257
283
     1
274
    -2
284
     1
 64
     0
275
    -2
285
     1
 65
     0
276
    -2
286
     1
 66
     0
277
    -2
287
     1
 67
     0
278
    -2
288
     1
 68
     0
279
    -2
289
     1
 69
     0
  7
STANDARD
140
4.5
170
     5
 62
     0
 63
   257
283
     1
274
    -2
284
     1
 64
     0
275
    -2
285
     1
 65
     0
276
    -2
286
     1
 66
     0
277
    -2
287
     1
 67
     0
278
    -2
288
     1
 68
     0
279
    -2
289
     1
 69
     0
  0
VISUALSTYLE
  5
8DC
102
{ACAD_XDICTIONARY
360
A09
102
}
102
{ACAD_REACTORS
330
8D6
102
}
330
8D6
100
AcDbVisualStyle
  2
2dWireframe
 70
     4
 71
     0
 72
     2
 73
     0
 90
        0
 40
-0.6
 41
-30.0
 62
     5
 63
     7
421
 16777215
 74
     1
 91
        4
 64
     7
 65
   257
 75
     1
175
     1
 42
1.0
 92
        0
 66
   257
 43
1.0
 76
     1
 77
     6
 78
     2
 67
     7
 79
     5
170
     0
171
     0
290
     0
174
     0
 93
        1
 44
0.0
173
     0
291
     0
 45
0.0
1001
ACAD
1000
AcDbSavedByObjectVersion
1070
     0
  0
VISUALSTYLE
  5
8DE
102
{ACAD_XDICTIONARY
360
A0D
102
}
102
{ACAD_REACTORS
330
8D6
102
}
330
8D6
100
AcDbVisualStyle
  2
3D Hidden
 70
     6
 71
     1
 72
     2
 73
     2
 90
        0
 40
-0.6
 41
-30.0
 62
     5
 63
     7
421
 16777215
 74
     2
 91
        2
 64
     7
 65
   257
 75
     2
175
     1
 42
40.0
 92
        0
 66
   257
 43
1.0
 76
     1
 77
     6
 78
     2
 67
     7
 79
     3
170
     0
171
     0
290
     0
174
     0
 93
        1
 44
0.0
173
     0
291
     0
 45
0.0
1001
ACAD
1000
AcDbSavedByObjectVersion
1070
     0
  0
VISUALSTYLE
  5
8DD
102
{ACAD_XDICTIONARY
360
A0B
102
}
102
{ACAD_REACTORS
330
8D6
102
}
330
8D6
100
AcDbVisualStyle
  2
3dWireframe
 70
     5
 71
     0
 72
     2
 73
     0
 90
        0
 40
-0.6
 41
-30.0
 62
     5
 63
     7
421
 16777215
 74
     1
 91
        4
 64
     7
 65
   257
 75
     1
175
     1
 42
1.0
 92
        0
 66
   257
 43
1.0
 76
     1
 77
     6
 78
     2
 67
     7
 79
     5
170
     0
171
     0
290
     0
174
     0
 93
        1
 44
0.0
173
     0
291
     0
 45
0.0
1001
ACAD
1000
AcDbSavedByObjectVersion
1070
     0
  0
VISUALSTYLE
  5
8DB
102
{ACAD_XDICTIONARY
360
A07
102
}
102
{ACAD_REACTORS
330
8D6
102
}
330
8D6
100
AcDbVisualStyle
  2
Basic
 70
     7
 71
     1
 72
     0
 73
     1
 90
        0
 40
-0.6
 41
-30.0
 62
     5
 63
     7
421
 16777215
 74
     0
 91
        4
 64
     7
 65
   257
 75
     1
175
     1
 42
1.0
 92
        8
 66
     7
 43
1.0
 76
     1
 77
     6
 78
     2
 67
     7
 79
     5
170
     0
171
     0
290
     0
174
     0
 93
        1
 44
0.0
173
     0
291
     1
 45
0.0
1001
ACAD
1000
AcDbSavedByObjectVersion
1070
     0
  0
VISUALSTYLE
  5
8E2
102
{ACAD_XDICTIONARY
360
A15
102
}
102
{ACAD_REACTORS
330
8D6
102
}
330
8D6
100
AcDbVisualStyle
  2
Brighten
 70
    12
 71
     2
 72
     2
 73
     0
 90
        0
 40
-0.6
 41
-30.0
 62
     5
 63
     7
421
 16777215
 74
     1
 91
        4
 64
     7
 65
   257
 75
     1
175
     1
 42
1.0
 92
        8
 66
     7
 43
1.0
 76
     1
 77
     6
 78
     2
 67
     7
 79
     5
170
     0
171
     0
290
     0
174
     0
 93
        1
 44
50.0
173
     0
291
     1
 45
0.0
1001
ACAD
1000
AcDbSavedByObjectVersion
1070
     0
  0
VISUALSTYLE
  5
8E6
102
{ACAD_XDICTIONARY
360
A1D
102
}
102
{ACAD_REACTORS
330
8D6
102
}
330
8D6
100
AcDbVisualStyle
  2
ColorChange
 70
    16
 71
     2
 72
     2
 73
     3
 90
        0
 40
-0.6
 41
-30.0
 62
     5
 63
     8
421
  8421504
 74
     1
 91
        4
 64
     7
 65
   257
 75
     1
175
     1
 42
1.0
 92
        8
 66
     8
424
  8421504
 43
1.0
 76
     1
 77
     6
 78
     2
 67
     7
 79
     5
170
     0
171
     0
290
     0
174
     0
 93
        1
 44
0.0
173
     0
291
     1
 45
0.0
1001
ACAD
1000
AcDbSavedByObjectVersion
1070
     0
  0
VISUALSTYLE
  5
8DF
102
{ACAD_XDICTIONARY
360
A0F
102
}
102
{ACAD_REACTORS
330
8D6
102
}
330
8D6
100
AcDbVisualStyle
  2
Conceptual
 70
     9
 71
     3
 72
     2
 73
     0
 90
        0
 40
-0.6
 41
-30.0
 62
     5
 63
     7
421
 16777215
 74
     2
 91
        2
 64
     7
 65
   257
 75
     1
175
     1
 42
40.0
 92
        8
 66
     7
 43
1.0
 76
     1
 77
     6
 78
     2
 67
     7
 79
     3
170
     0
171
     0
290
     0
174
     0
 93
        1
 44
0.0
173
     0
291
     0
 45
0.0
1001
ACAD
1000
AcDbSavedByObjectVersion
1070
     0
  0
VISUALSTYLE
  5
8E1
102
{ACAD_XDICTIONARY
360
A13
102
}
102
{ACAD_REACTORS
330
8D6
102
}
330
8D6
100
AcDbVisualStyle
  2
Dim
 70
    11
 71
     2
 72
     2
 73
     0
 90
        0
 40
-0.6
 41
-30.0
 62
     5
 63
     7
421
 16777215
 74
     1
 91
        4
 64
     7
 65
   257
 75
     1
175
     1
 42
1.0
 92
        8
 66
     7
 43
1.0
 76
     1
 77
     6
 78
     2
 67
     7
 79
     5
170
     0
171
     0
290
     0
174
     0
 93
        1
 44
-50.0
173
     0
291
     1
 45
0.0
1001
ACAD
1000
AcDbSavedByObjectVersion
1070
     0
  0
VISUALSTYLE
  5
8E5
102
{ACAD_XDICTIONARY
360
A1B
102
}
102
{ACAD_REACTORS
330
8D6
102
}
330
8D6
100
AcDbVisualStyle
  2
Facepattern
 70
    15
 71
     2
 72
     2
 73
     0
 90
        0
 40
-0.6
 41
-30.0
 62
     5
 63
     7
421
 16777215
 74
     1
 91
        4
 64
     7
 65
   257
 75
     1
175
     1
 42
1.0
 92
        8
 66
     7
 43
1.0
 76
     1
 77
     6
 78
     2
 67
     7
 79
     5
170
     0
171
     0
290
     0
174
     0
 93
        1
 44
0.0
173
     0
291
     1
 45
0.0
1001
ACAD
1000
AcDbSavedByObjectVersion
1070
     0
  0
VISUALSTYLE
  5
8D7
102
{ACAD_XDICTIONARY
360
9FF
102
}
102
{ACAD_REACTORS
330
8D6
102
}
330
8D6
100
AcDbVisualStyle
  2
Flat
 70
     0
 71
     2
 72
     1
 73
     1
 90
        2
 40
-0.6
 41
30.0
 62
     5
 63
     7
421
 16777215
 74
     0
 91
        4
 64
     7
 65
   257
 75
     1
175
     1
 42
1.0
 92
        8
 66
     7
 43
1.0
 76
     1
 77
     6
 78
     2
 67
     7
 79
     5
170
     0
171
     0
290
     0
174
     0
 93
       13
 44
0.0
173
     0
291
     1
 45
0.0
1001
ACAD
1000
AcDbSavedByObjectVersion
1070
     0
  0
VISUALSTYLE
  5
8D8
102
{ACAD_XDICTIONARY
360
A01
102
}
102
{ACAD_REACTORS
330
8D6
102
}
330
8D6
100
AcDbVisualStyle
  2
FlatWithEdges
 70
     1
 71
     2
 72
     1
 73
     1
 90
        2
 40
-0.6
 41
30.0
 62
     5
 63
     7
421
 16777215
 74
     1
 91
        4
 64
     7
 65
   257
 75
     1
175
     1
 42
1.0
 92
        0
 66
   257
 43
1.0
 76
     1
 77
     6
 78
     2
 67
     7
 79
     5
170
     0
171
     0
290
     0
174
     0
 93
       13
 44
0.0
173
     0
291
     1
 45
0.0
1001
ACAD
1000
AcDbSavedByObjectVersion
1070
     0
  0
VISUALSTYLE
  5
8D9
102
{ACAD_XDICTIONARY
360
A03
102
}
102
{ACAD_REACTORS
330
8D6
102
}
330
8D6
100
AcDbVisualStyle
  2
Gouraud
 70
     2
 71
     2
 72
     2
 73
     1
 90
        2
 40
-0.6
 41
30.0
 62
     5
 63
     7
421
 16777215
 74
     0
 91
        4
 64
     7
 65
   257
 75
     1
175
     1
 42
1.0
 92
        0
 66
     7
 43
1.0
 76
     1
 77
     6
 78
     2
 67
     7
 79
     5
170
     0
171
     0
290
     0
174
     0
 93
       13
 44
0.0
173
     0
291
     1
 45
0.0
1001
ACAD
1000
AcDbSavedByObjectVersion
1070
     0
  0
VISUALSTYLE
  5
8DA
102
{ACAD_XDICTIONARY
360
A05
102
}
102
{ACAD_REACTORS
330
8D6
102
}
330
8D6
100
AcDbVisualStyle
  2
GouraudWithEdges
 70
     3
 71
     2
 72
     2
 73
     1
 90
        2
 40
-0.6
 41
30.0
 62
     5
 63
     7
421
 16777215
 74
     1
 91
        4
 64
     7
 65
   257
 75
     1
175
     1
 42
1.0
 92
        0
 66
   257
 43
1.0
 76
     1
 77
     6
 78
     2
 67
     7
 79
     5
170
     0
171
     0
290
     0
174
     0
 93
       13
 44
0.0
173
     0
291
     1
 45
0.0
1001
ACAD
1000
AcDbSavedByObjectVersion
1070
     0
  0
VISUALSTYLE
  5
8E4
102
{ACAD_XDICTIONARY
360
A19
102
}
102
{ACAD_REACTORS
330
8D6
102
}
330
8D6
100
AcDbVisualStyle
  2
Linepattern
 70
    14
 71
     2
 72
     2
 73
     0
 90
        0
 40
-0.6
 41
-30.0
 62
     5
 63
     7
421
 16777215
 74
     1
 91
        4
 64
     7
 65
   257
 75
     7
175
     7
 42
1.0
 92
        8
 66
     7
 43
1.0
 76
     1
 77
     6
 78
     2
 67
     7
 79
     5
170
     0
171
     0
290
     0
174
     0
 93
        1
 44
0.0
173
     0
291
     1
 45
0.0
1001
ACAD
1000
AcDbSavedByObjectVersion
1070
     0
  0
VISUALSTYLE
  5
8E0
102
{ACAD_XDICTIONARY
360
A11
102
}
102
{ACAD_REACTORS
330
8D6
102
}
330
8D6
100
AcDbVisualStyle
  2
Realistic
 70
     8
 71
     2
 72
     2
 73
     0
 90
        0
 40
-0.6
 41
-30.0
 62
     5
 63
     7
421
 16777215
 74
     1
 91
        0
 64
     7
 65
   257
 75
     1
175
     1
 42
1.0
 92
        8
 66
     8
424
  7895160
 43
1.0
 76
     1
 77
     6
 78
     2
 67
     7
 79
     5
170
     0
171
     0
290
     0
174
     0
 93
       13
 44
0.0
173
     0
291
     0
 45
0.0
1001
ACAD
1000
AcDbSavedByObjectVersion
1070
     0
  0
VISUALSTYLE
  5
8E3
102
{ACAD_XDICTIONARY
360
A17
102
}
102
{ACAD_REACTORS
330
8D6
102
}
330
8D6
100
AcDbVisualStyle
  2
Thicken
 70
    13
 71
     2
 72
     2
 73
     0
 90
        0
 40
-0.6
 41
-30.0
 62
     5
 63
     7
421
 16777215
 74
     1
 91
        4
 64
     7
 65
   257
 75
     1
175
     1
 42
1.0
 92
       12
 66
     7
 43
1.0
 76
     1
 77
     6
 78
     2
 67
     7
 79
     5
170
     0
171
     0
290
     0
174
     0
 93
        1
 44
0.0
173
     0
291
     1
 45
0.0
1001
ACAD
1000
AcDbSavedByObjectVersion
1070
     0
  0
DICTIONARYVAR
  5
915
102
{ACAD_REACTORS
330
912
102
}
330
912
100
DictionaryVariables
280
     0
  1
1:1
  0
DICTIONARYVAR
  5
914
102
{ACAD_REACTORS
330
912
102
}
330
912
100
DictionaryVariables
280
     0
  1
STANDARD
  0
DICTIONARYVAR
  5
913
102
{ACAD_REACTORS
330
912
102
}
330
912
100
DictionaryVariables
280
     0
  1
STANDARD
  0
DICTIONARY
  5
8C7
330
8C6
100
AcDbDictionary
280
     1
281
     1
  3
BUMPTILE
360
8C9
  3
DIFFUSETILE
360
8C8
  3
OPACITYTILE
360
8CC
  3
REFLECTIONTILE
360
8CB
  3
REFRACTIONTILE
360
8CD
  3
SPECULARTILE
360
8CA
  0
DICTIONARY
  5
8BF
330
8BE
100
AcDbDictionary
280
     1
281
     1
  3
BUMPTILE
360
8C1
  3
DIFFUSETILE
360
8C0
  3
OPACITYTILE
360
8C4
  3
REFLECTIONTILE
360
8C3
  3
REFRACTIONTILE
360
8C5
  3
SPECULARTILE
360
8C2
  0
DICTIONARY
  5
8CF
330
8CE
100
AcDbDictionary
280
     1
281
     1
  3
BUMPTILE
360
8D1
  3
DIFFUSETILE
360
8D0
  3
OPACITYTILE
360
8D4
  3
REFLECTIONTILE
360
8D3
  3
REFRACTIONTILE
360
8D5
  3
SPECULARTILE
360
8D2
  0
DICTIONARY
  5
90F
330
8E9
100
AcDbDictionary
280
     1
281
     1
  3
ACAD_ROUNDTRIP_2008_TABLESTYLE_CELLSTYLEMAP
360
A20
  3
ACAD_XREC_ROUNDTRIP
360
A1F
  0
DICTIONARY
  5
A09
330
8DC
100
AcDbDictionary
280
     1
281
     1
  3
ACAD_XREC_ROUNDTRIP
360
A0A
  0
DICTIONARY
  5
A0D
330
8DE
100
AcDbDictionary
280
     1
281
     1
  3
ACAD_XREC_ROUNDTRIP
360
A0E
  0
DICTIONARY
  5
A0B
330
8DD
100
AcDbDictionary
280
     1
281
     1
  3
ACAD_XREC_ROUNDTRIP
360
A0C
  0
DICTIONARY
  5
A07
330
8DB
100
AcDbDictionary
280
     1
281
     1
  3
ACAD_XREC_ROUNDTRIP
360
A08
  0
DICTIONARY
  5
A15
330
8E2
100
AcDbDictionary
280
     1
281
     1
  3
ACAD_XREC_ROUNDTRIP
360
A16
  0
DICTIONARY
  5
A1D
330
8E6
100
AcDbDictionary
280
     1
281
     1
  3
ACAD_XREC_ROUNDTRIP
360
A1E
  0
DICTIONARY
  5
A0F
330
8DF
100
AcDbDictionary
280
     1
281
     1
  3
ACAD_XREC_ROUNDTRIP
360
A10
  0
DICTIONARY
  5
A13
330
8E1
100
AcDbDictionary
280
     1
281
     1
  3
ACAD_XREC_ROUNDTRIP
360
A14
  0
DICTIONARY
  5
A1B
330
8E5
100
AcDbDictionary
280
     1
281
     1
  3
ACAD_XREC_ROUNDTRIP
360
A1C
  0
DICTIONARY
  5
9FF
330
8D7
100
AcDbDictionary
280
     1
281
     1
  3
ACAD_XREC_ROUNDTRIP
360
A00
  0
DICTIONARY
  5
A01
330
8D8
100
AcDbDictionary
280
     1
281
     1
  3
ACAD_XREC_ROUNDTRIP
360
A02
  0
DICTIONARY
  5
A03
330
8D9
100
AcDbDictionary
280
     1
281
     1
  3
ACAD_XREC_ROUNDTRIP
360
A04
  0
DICTIONARY
  5
A05
330
8DA
100
AcDbDictionary
280
     1
281
     1
  3
ACAD_XREC_ROUNDTRIP
360
A06
  0
DICTIONARY
  5
A19
330
8E4
100
AcDbDictionary
280
     1
281
     1
  3
ACAD_XREC_ROUNDTRIP
360
A1A
  0
DICTIONARY
  5
A11
330
8E0
100
AcDbDictionary
280
     1
281
     1
  3
ACAD_XREC_ROUNDTRIP
360
A12
  0
DICTIONARY
  5
A17
330
8E3
100
AcDbDictionary
280
     1
281
     1
  3
ACAD_XREC_ROUNDTRIP
360
A18
  0
XRECORD
  5
8C9
102
{ACAD_REACTORS
330
8C7
102
}
330
8C7
100
AcDbXrecord
280
     1
270
     1
271
     1
  0
XRECORD
  5
8C8
102
{ACAD_REACTORS
330
8C7
102
}
330
8C7
100
AcDbXrecord
280
     1
270
     1
271
     1
  0
XRECORD
  5
8CC
102
{ACAD_REACTORS
330
8C7
102
}
330
8C7
100
AcDbXrecord
280
     1
270
     1
271
     1
  0
XRECORD
  5
8CB
102
{ACAD_REACTORS
330
8C7
102
}
330
8C7
100
AcDbXrecord
280
     1
270
     1
271
     1
  0
XRECORD
  5
8CD
102
{ACAD_REACTORS
330
8C7
102
}
330
8C7
100
AcDbXrecord
280
     1
270
     1
271
     1
  0
XRECORD
  5
8CA
102
{ACAD_REACTORS
330
8C7
102
}
330
8C7
100
AcDbXrecord
280
     1
270
     1
271
     1
  0
XRECORD
  5
8C1
102
{ACAD_REACTORS
330
8BF
102
}
330
8BF
100
AcDbXrecord
280
     1
270
     1
271
     1
  0
XRECORD
  5
8C0
102
{ACAD_REACTORS
330
8BF
102
}
330
8BF
100
AcDbXrecord
280
     1
270
     1
271
     1
  0
XRECORD
  5
8C4
102
{ACAD_REACTORS
330
8BF
102
}
330
8BF
100
AcDbXrecord
280
     1
270
     1
271
     1
  0
XRECORD
  5
8C3
102
{ACAD_REACTORS
330
8BF
102
}
330
8BF
100
AcDbXrecord
280
     1
270
     1
271
     1
  0
XRECORD
  5
8C5
102
{ACAD_REACTORS
330
8BF
102
}
330
8BF
100
AcDbXrecord
280
     1
270
     1
271
     1
  0
XRECORD
  5
8C2
102
{ACAD_REACTORS
330
8BF
102
}
330
8BF
100
AcDbXrecord
280
     1
270
     1
271
     1
  0
XRECORD
  5
8D1
102
{ACAD_REACTORS
330
8CF
102
}
330
8CF
100
AcDbXrecord
280
     1
270
     1
271
     1
  0
XRECORD
  5
8D0
102
{ACAD_REACTORS
330
8CF
102
}
330
8CF
100
AcDbXrecord
280
     1
270
     1
271
     1
  0
XRECORD
  5
8D4
102
{ACAD_REACTORS
330
8CF
102
}
330
8CF
100
AcDbXrecord
280
     1
270
     1
271
     1
  0
XRECORD
  5
8D3
102
{ACAD_REACTORS
330
8CF
102
}
330
8CF
100
AcDbXrecord
280
     1
270
     1
271
     1
  0
XRECORD
  5
8D5
102
{ACAD_REACTORS
330
8CF
102
}
330
8CF
100
AcDbXrecord
280
     1
270
     1
271
     1
  0
XRECORD
  5
8D2
102
{ACAD_REACTORS
330
8CF
102
}
330
8CF
100
AcDbXrecord
280
     1
270
     1
271
     1
  0
CELLSTYLEMAP
  5
A20
102
{ACAD_REACTORS
330
90F
102
}
330
90F
100
AcDbCellStyleMap
 90
        3
300
CELLSTYLE
  1
TABLEFORMAT_BEGIN
 90
        5
170
     1
 91
        0
 92
        0
 62
   257
 93
        1
300
CONTENTFORMAT
  1
CONTENTFORMAT_BEGIN
 90
        0
 91
        0
 92
      512
 93
        0
300

 40
0.0
140
1.0
 94
        5
 62
     0
340
11
144
6.0
309
CONTENTFORMAT_END
171
     1
301
MARGIN
  1
CELLMARGIN_BEGIN
 40
1.5
 40
1.5
 40
1.5
 40
1.5
 40
4.5
 40
4.5
309
CELLMARGIN_END
 94
        6
 95
        1
302
GRIDFORMAT
  1
GRIDFORMAT_BEGIN
 90
        0
 91
        1
 62
     0
 92
       -2
340
0
 93
        0
 40
1.125
309
GRIDFORMAT_END
 95
        2
302
GRIDFORMAT
  1
GRIDFORMAT_BEGIN
 90
        0
 91
        1
 62
     0
 92
       -2
340
0
 93
        0
 40
1.125
309
GRIDFORMAT_END
 95
        4
302
GRIDFORMAT
  1
GRIDFORMAT_BEGIN
 90
        0
 91
        1
 62
     0
 92
       -2
340
0
 93
        0
 40
1.125
309
GRIDFORMAT_END
 95
        8
302
GRIDFORMAT
  1
GRIDFORMAT_BEGIN
 90
        0
 91
        1
 62
     0
 92
       -2
340
0
 93
        0
 40
1.125
309
GRIDFORMAT_END
 95
       16
302
GRIDFORMAT
  1
GRIDFORMAT_BEGIN
 90
        0
 91
        1
 62
     0
 92
       -2
340
0
 93
        0
 40
1.125
309
GRIDFORMAT_END
 95
       32
302
GRIDFORMAT
  1
GRIDFORMAT_BEGIN
 90
        0
 91
        1
 62
     0
 92
       -2
340
0
 93
        0
 40
1.125
309
GRIDFORMAT_END
309
TABLEFORMAT_END
  1
CELLSTYLE_BEGIN
 90
        1
 91
        1
300
_TITLE
309
CELLSTYLE_END
300
CELLSTYLE
  1
TABLEFORMAT_BEGIN
 90
        5
170
     1
 91
        0
 92
        0
 62
   257
 93
        1
300
CONTENTFORMAT
  1
CONTENTFORMAT_BEGIN
 90
        0
 91
        0
 92
      512
 93
        0
300

 40
0.0
140
1.0
 94
        5
 62
     0
340
11
144
4.5
309
CONTENTFORMAT_END
171
     1
301
MARGIN
  1
CELLMARGIN_BEGIN
 40
1.5
 40
1.5
 40
1.5
 40
1.5
 40
4.5
 40
4.5
309
CELLMARGIN_END
 94
        6
 95
        1
302
GRIDFORMAT
  1
GRIDFORMAT_BEGIN
 90
        0
 91
        1
 62
     0
 92
       -2
340
0
 93
        0
 40
1.125
309
GRIDFORMAT_END
 95
        2
302
GRIDFORMAT
  1
GRIDFORMAT_BEGIN
 90
        0
 91
        1
 62
     0
 92
       -2
340
0
 93
        0
 40
1.125
309
GRIDFORMAT_END
 95
        4
302
GRIDFORMAT
  1
GRIDFORMAT_BEGIN
 90
        0
 91
        1
 62
     0
 92
       -2
340
0
 93
        0
 40
1.125
309
GRIDFORMAT_END
 95
        8
302
GRIDFORMAT
  1
GRIDFORMAT_BEGIN
 90
        0
 91
        1
 62
     0
 92
       -2
340
0
 93
        0
 40
1.125
309
GRIDFORMAT_END
 95
       16
302
GRIDFORMAT
  1
GRIDFORMAT_BEGIN
 90
        0
 91
        1
 62
     0
 92
       -2
340
0
 93
        0
 40
1.125
309
GRIDFORMAT_END
 95
       32
302
GRIDFORMAT
  1
GRIDFORMAT_BEGIN
 90
        0
 91
        1
 62
     0
 92
       -2
340
0
 93
        0
 40
1.125
309
GRIDFORMAT_END
309
TABLEFORMAT_END
  1
CELLSTYLE_BEGIN
 90
        2
 91
        1
300
_HEADER
309
CELLSTYLE_END
300
CELLSTYLE
  1
TABLEFORMAT_BEGIN
 90
        5
170
     1
 91
        0
 92
        0
 62
   257
 93
        1
300
CONTENTFORMAT
  1
CONTENTFORMAT_BEGIN
 90
        0
 91
        0
 92
      512
 93
        0
300

 40
0.0
140
1.0
 94
        2
 62
     0
340
11
144
4.5
309
CONTENTFORMAT_END
171
     1
301
MARGIN
  1
CELLMARGIN_BEGIN
 40
1.5
 40
1.5
 40
1.5
 40
1.5
 40
4.5
 40
4.5
309
CELLMARGIN_END
 94
        6
 95
        1
302
GRIDFORMAT
  1
GRIDFORMAT_BEGIN
 90
        0
 91
        1
 62
     0
 92
       -2
340
0
 93
        0
 40
1.125
309
GRIDFORMAT_END
 95
        2
302
GRIDFORMAT
  1
GRIDFORMAT_BEGIN
 90
        0
 91
        1
 62
     0
 92
       -2
340
0
 93
        0
 40
1.125
309
GRIDFORMAT_END
 95
        4
302
GRIDFORMAT
  1
GRIDFORMAT_BEGIN
 90
        0
 91
        1
 62
     0
 92
       -2
340
0
 93
        0
 40
1.125
309
GRIDFORMAT_END
 95
        8
302
GRIDFORMAT
  1
GRIDFORMAT_BEGIN
 90
        0
 91
        1
 62
     0
 92
       -2
340
0
 93
        0
 40
1.125
309
GRIDFORMAT_END
 95
       16
302
GRIDFORMAT
  1
GRIDFORMAT_BEGIN
 90
        0
 91
        1
 62
     0
 92
       -2
340
0
 93
        0
 40
1.125
309
GRIDFORMAT_END
 95
       32
302
GRIDFORMAT
  1
GRIDFORMAT_BEGIN
 90
        0
 91
        1
 62
     0
 92
       -2
340
0
 93
        0
 40
1.125
309
GRIDFORMAT_END
309
TABLEFORMAT_END
  1
CELLSTYLE_BEGIN
 90
        3
 91
        2
300
_DATA
309
CELLSTYLE_END
  0
XRECORD
  5
A1F
102
{ACAD_REACTORS
330
90F
102
}
330
90F
100
AcDbXrecord
280
     1
102
ACAD_ROUNDTRIP_PRE2007_TABLESTYLE
 90
      512
 91
        0
  1

 92
      512
 93
        0
  2

 94
      512
 95
        0
  3

  0
XRECORD
  5
A0A
102
{ACAD_REACTORS
330
A09
102
}
330
A09
100
AcDbXrecord
280
     1
102
RTVSPropertyOp0
 70
     1
102
RTVSPropertyOp1
 70
     1
102
RTVSPropertyOp2
 70
     1
102
RTVSPropertyOp3
 70
     1
102
RTVSPropertyOp4
 70
     1
102
RTVSPropertyOp5
 70
     1
102
RTVSPropertyOp6
 70
     1
102
RTVSPropertyOp7
 70
     1
102
RTVSPropertyOp8
 70
     1
102
RTVSPropertyOp9
 70
     1
102
RTVSPropertyOp10
 70
     1
102
RTVSPropertyOp11
 70
     1
102
RTVSPropertyOp12
 70
     1
102
RTVSPropertyOp13
 70
     1
102
RTVSPropertyOp14
 70
     1
102
RTVSPropertyOp15
 70
     1
102
RTVSPropertyOp16
 70
     1
102
RTVSPropertyOp17
 70
     1
102
RTVSPropertyOp18
 70
     1
102
RTVSPropertyOp19
 70
     1
102
RTVSPropertyOp20
 70
     1
102
RTVSPropertyOp21
 70
     1
102
RTVSPropertyOp22
 70
     1
102
RTVSPropertyOp23
 70
     1
102
RTVSPropertyOp24
 70
     1
102
RTVSPropertyOp25
 70
     1
102
RTVSPropertyOp26
 70
     1
102
RTVSPropertyOp27
 70
     1
  0
XRECORD
  5
A0E
102
{ACAD_REACTORS
330
A0D
102
}
330
A0D
100
AcDbXrecord
280
     1
102
RTVSPropertyOp0
 70
     1
102
RTVSPropertyOp1
 70
     1
102
RTVSPropertyOp2
 70
     1
102
RTVSPropertyOp3
 70
     1
102
RTVSPropertyOp4
 70
     1
102
RTVSPropertyOp5
 70
     1
102
RTVSPropertyOp6
 70
     1
102
RTVSPropertyOp7
 70
     1
102
RTVSPropertyOp8
 70
     1
102
RTVSPropertyOp9
 70
     1
102
RTVSPropertyOp10
 70
     1
102
RTVSPropertyOp11
 70
     1
102
RTVSPropertyOp12
 70
     1
102
RTVSPropertyOp13
 70
     1
102
RTVSPropertyOp14
 70
     1
102
RTVSPropertyOp15
 70
     1
102
RTVSPropertyOp16
 70
     1
102
RTVSPropertyOp17
 70
     1
102
RTVSPropertyOp18
 70
     1
102
RTVSPropertyOp19
 70
     1
102
RTVSPropertyOp20
 70
     1
102
RTVSPropertyOp21
 70
     1
102
RTVSPropertyOp22
 70
     1
102
RTVSPropertyOp23
 70
     1
102
RTVSPropertyOp24
 70
     1
102
RTVSPropertyOp25
 70
     1
102
RTVSPropertyOp26
 70
     1
102
RTVSPropertyOp27
 70
     1
  0
XRECORD
  5
A0C
102
{ACAD_REACTORS
330
A0B
102
}
330
A0B
100
AcDbXrecord
280
     1
102
RTVSPropertyOp0
 70
     1
102
RTVSPropertyOp1
 70
     1
102
RTVSPropertyOp2
 70
     1
102
RTVSPropertyOp3
 70
     1
102
RTVSPropertyOp4
 70
     1
102
RTVSPropertyOp5
 70
     1
102
RTVSPropertyOp6
 70
     1
102
RTVSPropertyOp7
 70
     1
102
RTVSPropertyOp8
 70
     1
102
RTVSPropertyOp9
 70
     1
102
RTVSPropertyOp10
 70
     1
102
RTVSPropertyOp11
 70
     1
102
RTVSPropertyOp12
 70
     1
102
RTVSPropertyOp13
 70
     1
102
RTVSPropertyOp14
 70
     1
102
RTVSPropertyOp15
 70
     1
102
RTVSPropertyOp16
 70
     1
102
RTVSPropertyOp17
 70
     1
102
RTVSPropertyOp18
 70
     1
102
RTVSPropertyOp19
 70
     1
102
RTVSPropertyOp20
 70
     1
102
RTVSPropertyOp21
 70
     1
102
RTVSPropertyOp22
 70
     1
102
RTVSPropertyOp23
 70
     1
102
RTVSPropertyOp24
 70
     1
102
RTVSPropertyOp25
 70
     1
102
RTVSPropertyOp26
 70
     1
102
RTVSPropertyOp27
 70
     1
  0
XRECORD
  5
A08
102
{ACAD_REACTORS
330
A07
102
}
330
A07
100
AcDbXrecord
280
     1
102
RTVSPropertyOp0
 70
     1
102
RTVSPropertyOp1
 70
     1
102
RTVSPropertyOp2
 70
     1
102
RTVSPropertyOp3
 70
     1
102
RTVSPropertyOp4
 70
     1
102
RTVSPropertyOp5
 70
     1
102
RTVSPropertyOp6
 70
     1
102
RTVSPropertyOp7
 70
     1
102
RTVSPropertyOp8
 70
     1
102
RTVSPropertyOp9
 70
     1
102
RTVSPropertyOp10
 70
     1
102
RTVSPropertyOp11
 70
     1
102
RTVSPropertyOp12
 70
     1
102
RTVSPropertyOp13
 70
     1
102
RTVSPropertyOp14
 70
     1
102
RTVSPropertyOp15
 70
     1
102
RTVSPropertyOp16
 70
     1
102
RTVSPropertyOp17
 70
     1
102
RTVSPropertyOp18
 70
     1
102
RTVSPropertyOp19
 70
     1
102
RTVSPropertyOp20
 70
     1
102
RTVSPropertyOp21
 70
     1
102
RTVSPropertyOp22
 70
     1
102
RTVSPropertyOp23
 70
     1
102
RTVSPropertyOp24
 70
     1
102
RTVSPropertyOp25
 70
     1
102
RTVSPropertyOp26
 70
     1
102
RTVSPropertyOp27
 70
     1
  0
XRECORD
  5
A16
102
{ACAD_REACTORS
330
A15
102
}
330
A15
100
AcDbXrecord
280
     1
102
RTVSPropertyOp0
 70
     1
102
RTVSPropertyOp1
 70
     1
102
RTVSPropertyOp2
 70
     1
102
RTVSPropertyOp3
 70
     1
102
RTVSPropertyOp4
 70
     1
102
RTVSPropertyOp5
 70
     1
102
RTVSPropertyOp6
 70
     1
102
RTVSPropertyOp7
 70
     1
102
RTVSPropertyOp8
 70
     1
102
RTVSPropertyOp9
 70
     1
102
RTVSPropertyOp10
 70
     1
102
RTVSPropertyOp11
 70
     1
102
RTVSPropertyOp12
 70
     1
102
RTVSPropertyOp13
 70
     1
102
RTVSPropertyOp14
 70
     1
102
RTVSPropertyOp15
 70
     1
102
RTVSPropertyOp16
 70
     1
102
RTVSPropertyOp17
 70
     1
102
RTVSPropertyOp18
 70
     1
102
RTVSPropertyOp19
 70
     1
102
RTVSPropertyOp20
 70
     1
102
RTVSPropertyOp21
 70
     1
102
RTVSPropertyOp22
 70
     1
102
RTVSPropertyOp23
 70
     1
102
RTVSPropertyOp24
 70
     1
102
RTVSPropertyOp25
 70
     1
102
RTVSPropertyOp26
 70
     1
102
RTVSPropertyOp27
 70
     1
  0
XRECORD
  5
A1E
102
{ACAD_REACTORS
330
A1D
102
}
330
A1D
100
AcDbXrecord
280
     1
102
RTVSPropertyOp0
 70
     1
102
RTVSPropertyOp1
 70
     1
102
RTVSPropertyOp2
 70
     1
102
RTVSPropertyOp3
 70
     1
102
RTVSPropertyOp4
 70
     1
102
RTVSPropertyOp5
 70
     1
102
RTVSPropertyOp6
 70
     1
102
RTVSPropertyOp7
 70
     1
102
RTVSPropertyOp8
 70
     1
102
RTVSPropertyOp9
 70
     1
102
RTVSPropertyOp10
 70
     1
102
RTVSPropertyOp11
 70
     1
102
RTVSPropertyOp12
 70
     1
102
RTVSPropertyOp13
 70
     1
102
RTVSPropertyOp14
 70
     1
102
RTVSPropertyOp15
 70
     1
102
RTVSPropertyOp16
 70
     1
102
RTVSPropertyOp17
 70
     1
102
RTVSPropertyOp18
 70
     1
102
RTVSPropertyOp19
 70
     1
102
RTVSPropertyOp20
 70
     1
102
RTVSPropertyOp21
 70
     1
102
RTVSPropertyOp22
 70
     1
102
RTVSPropertyOp23
 70
     1
102
RTVSPropertyOp24
 70
     1
102
RTVSPropertyOp25
 70
     1
102
RTVSPropertyOp26
 70
     1
102
RTVSPropertyOp27
 70
     1
  0
XRECORD
  5
A10
102
{ACAD_REACTORS
330
A0F
102
}
330
A0F
100
AcDbXrecord
280
     1
102
RTVSPropertyOp0
 70
     1
102
RTVSPropertyOp1
 70
     1
102
RTVSPropertyOp2
 70
     1
102
RTVSPropertyOp3
 70
     1
102
RTVSPropertyOp4
 70
     1
102
RTVSPropertyOp5
 70
     1
102
RTVSPropertyOp6
 70
     1
102
RTVSPropertyOp7
 70
     1
102
RTVSPropertyOp8
 70
     1
102
RTVSPropertyOp9
 70
     1
102
RTVSPropertyOp10
 70
     1
102
RTVSPropertyOp11
 70
     1
102
RTVSPropertyOp12
 70
     1
102
RTVSPropertyOp13
 70
     1
102
RTVSPropertyOp14
 70
     1
102
RTVSPropertyOp15
 70
     1
102
RTVSPropertyOp16
 70
     1
102
RTVSPropertyOp17
 70
     1
102
RTVSPropertyOp18
 70
     1
102
RTVSPropertyOp19
 70
     1
102
RTVSPropertyOp20
 70
     1
102
RTVSPropertyOp21
 70
     1
102
RTVSPropertyOp22
 70
     1
102
RTVSPropertyOp23
 70
     1
102
RTVSPropertyOp24
 70
     1
102
RTVSPropertyOp25
 70
     1
102
RTVSPropertyOp26
 70
     1
102
RTVSPropertyOp27
 70
     1
  0
XRECORD
  5
A14
102
{ACAD_REACTORS
330
A13
102
}
330
A13
100
AcDbXrecord
280
     1
102
RTVSPropertyOp0
 70
     1
102
RTVSPropertyOp1
 70
     1
102
RTVSPropertyOp2
 70
     1
102
RTVSPropertyOp3
 70
     1
102
RTVSPropertyOp4
 70
     1
102
RTVSPropertyOp5
 70
     1
102
RTVSPropertyOp6
 70
     1
102
RTVSPropertyOp7
 70
     1
102
RTVSPropertyOp8
 70
     1
102
RTVSPropertyOp9
 70
     1
102
RTVSPropertyOp10
 70
     1
102
RTVSPropertyOp11
 70
     1
102
RTVSPropertyOp12
 70
     1
102
RTVSPropertyOp13
 70
     1
102
RTVSPropertyOp14
 70
     1
102
RTVSPropertyOp15
 70
     1
102
RTVSPropertyOp16
 70
     1
102
RTVSPropertyOp17
 70
     1
102
RTVSPropertyOp18
 70
     1
102
RTVSPropertyOp19
 70
     1
102
RTVSPropertyOp20
 70
     1
102
RTVSPropertyOp21
 70
     1
102
RTVSPropertyOp22
 70
     1
102
RTVSPropertyOp23
 70
     1
102
RTVSPropertyOp24
 70
     1
102
RTVSPropertyOp25
 70
     1
102
RTVSPropertyOp26
 70
     1
102
RTVSPropertyOp27
 70
     1
  0
XRECORD
  5
A1C
102
{ACAD_REACTORS
330
A1B
102
}
330
A1B
100
AcDbXrecord
280
     1
102
RTVSPropertyOp0
 70
     1
102
RTVSPropertyOp1
 70
     1
102
RTVSPropertyOp2
 70
     1
102
RTVSPropertyOp3
 70
     1
102
RTVSPropertyOp4
 70
     1
102
RTVSPropertyOp5
 70
     1
102
RTVSPropertyOp6
 70
     1
102
RTVSPropertyOp7
 70
     1
102
RTVSPropertyOp8
 70
     1
102
RTVSPropertyOp9
 70
     1
102
RTVSPropertyOp10
 70
     1
102
RTVSPropertyOp11
 70
     1
102
RTVSPropertyOp12
 70
     1
102
RTVSPropertyOp13
 70
     1
102
RTVSPropertyOp14
 70
     1
102
RTVSPropertyOp15
 70
     1
102
RTVSPropertyOp16
 70
     1
102
RTVSPropertyOp17
 70
     1
102
RTVSPropertyOp18
 70
     1
102
RTVSPropertyOp19
 70
     1
102
RTVSPropertyOp20
 70
     1
102
RTVSPropertyOp21
 70
     1
102
RTVSPropertyOp22
 70
     1
102
RTVSPropertyOp23
 70
     1
102
RTVSPropertyOp24
 70
     1
102
RTVSPropertyOp25
 70
     1
102
RTVSPropertyOp26
 70
     1
102
RTVSPropertyOp27
 70
     1
  0
XRECORD
  5
A00
102
{ACAD_REACTORS
330
9FF
102
}
330
9FF
100
AcDbXrecord
280
     1
102
RTVSPropertyOp0
 70
     1
102
RTVSPropertyOp1
 70
     1
102
RTVSPropertyOp2
 70
     1
102
RTVSPropertyOp3
 70
     1
102
RTVSPropertyOp4
 70
     1
102
RTVSPropertyOp5
 70
     1
102
RTVSPropertyOp6
 70
     1
102
RTVSPropertyOp7
 70
     1
102
RTVSPropertyOp8
 70
     1
102
RTVSPropertyOp9
 70
     1
102
RTVSPropertyOp10
 70
     1
102
RTVSPropertyOp11
 70
     1
102
RTVSPropertyOp12
 70
     1
102
RTVSPropertyOp13
 70
     1
102
RTVSPropertyOp14
 70
     1
102
RTVSPropertyOp15
 70
     1
102
RTVSPropertyOp16
 70
     1
102
RTVSPropertyOp17
 70
     1
102
RTVSPropertyOp18
 70
     1
102
RTVSPropertyOp19
 70
     1
102
RTVSPropertyOp20
 70
     1
102
RTVSPropertyOp21
 70
     1
102
RTVSPropertyOp22
 70
     1
102
RTVSPropertyOp23
 70
     1
102
RTVSPropertyOp24
 70
     1
102
RTVSPropertyOp25
 70
     1
102
RTVSPropertyOp26
 70
     1
102
RTVSPropertyOp27
 70
     1
  0
XRECORD
  5
A02
102
{ACAD_REACTORS
330
A01
102
}
330
A01
100
AcDbXrecord
280
     1
102
RTVSPropertyOp0
 70
     1
102
RTVSPropertyOp1
 70
     1
102
RTVSPropertyOp2
 70
     1
102
RTVSPropertyOp3
 70
     1
102
RTVSPropertyOp4
 70
     1
102
RTVSPropertyOp5
 70
     1
102
RTVSPropertyOp6
 70
     1
102
RTVSPropertyOp7
 70
     1
102
RTVSPropertyOp8
 70
     1
102
RTVSPropertyOp9
 70
     1
102
RTVSPropertyOp10
 70
     1
102
RTVSPropertyOp11
 70
     1
102
RTVSPropertyOp12
 70
     1
102
RTVSPropertyOp13
 70
     1
102
RTVSPropertyOp14
 70
     1
102
RTVSPropertyOp15
 70
     1
102
RTVSPropertyOp16
 70
     1
102
RTVSPropertyOp17
 70
     1
102
RTVSPropertyOp18
 70
     1
102
RTVSPropertyOp19
 70
     1
102
RTVSPropertyOp20
 70
     1
102
RTVSPropertyOp21
 70
     1
102
RTVSPropertyOp22
 70
     1
102
RTVSPropertyOp23
 70
     1
102
RTVSPropertyOp24
 70
     1
102
RTVSPropertyOp25
 70
     1
102
RTVSPropertyOp26
 70
     1
102
RTVSPropertyOp27
 70
     1
  0
XRECORD
  5
A04
102
{ACAD_REACTORS
330
A03
102
}
330
A03
100
AcDbXrecord
280
     1
102
RTVSPropertyOp0
 70
     1
102
RTVSPropertyOp1
 70
     1
102
RTVSPropertyOp2
 70
     1
102
RTVSPropertyOp3
 70
     1
102
RTVSPropertyOp4
 70
     1
102
RTVSPropertyOp5
 70
     1
102
RTVSPropertyOp6
 70
     1
102
RTVSPropertyOp7
 70
     1
102
RTVSPropertyOp8
 70
     1
102
RTVSPropertyOp9
 70
     1
102
RTVSPropertyOp10
 70
     1
102
RTVSPropertyOp11
 70
     1
102
RTVSPropertyOp12
 70
     1
102
RTVSPropertyOp13
 70
     1
102
RTVSPropertyOp14
 70
     1
102
RTVSPropertyOp15
 70
     1
102
RTVSPropertyOp16
 70
     1
102
RTVSPropertyOp17
 70
     1
102
RTVSPropertyOp18
 70
     1
102
RTVSPropertyOp19
 70
     1
102
RTVSPropertyOp20
 70
     1
102
RTVSPropertyOp21
 70
     1
102
RTVSPropertyOp22
 70
     1
102
RTVSPropertyOp23
 70
     1
102
RTVSPropertyOp24
 70
     1
102
RTVSPropertyOp25
 70
     1
102
RTVSPropertyOp26
 70
     1
102
RTVSPropertyOp27
 70
     1
  0
XRECORD
  5
A06
102
{ACAD_REACTORS
330
A05
102
}
330
A05
100
AcDbXrecord
280
     1
102
RTVSPropertyOp0
 70
     1
102
RTVSPropertyOp1
 70
     1
102
RTVSPropertyOp2
 70
     1
102
RTVSPropertyOp3
 70
     1
102
RTVSPropertyOp4
 70
     1
102
RTVSPropertyOp5
 70
     1
102
RTVSPropertyOp6
 70
     1
102
RTVSPropertyOp7
 70
     1
102
RTVSPropertyOp8
 70
     1
102
RTVSPropertyOp9
 70
     1
102
RTVSPropertyOp10
 70
     1
102
RTVSPropertyOp11
 70
     1
102
RTVSPropertyOp12
 70
     1
102
RTVSPropertyOp13
 70
     1
102
RTVSPropertyOp14
 70
     1
102
RTVSPropertyOp15
 70
     1
102
RTVSPropertyOp16
 70
     1
102
RTVSPropertyOp17
 70
     1
102
RTVSPropertyOp18
 70
     1
102
RTVSPropertyOp19
 70
     1
102
RTVSPropertyOp20
 70
     1
102
RTVSPropertyOp21
 70
     1
102
RTVSPropertyOp22
 70
     1
102
RTVSPropertyOp23
 70
     1
102
RTVSPropertyOp24
 70
     1
102
RTVSPropertyOp25
 70
     1
102
RTVSPropertyOp26
 70
     1
102
RTVSPropertyOp27
 70
     1
  0
XRECORD
  5
A1A
102
{ACAD_REACTORS
330
A19
102
}
330
A19
100
AcDbXrecord
280
     1
102
RTVSPropertyOp0
 70
     1
102
RTVSPropertyOp1
 70
     1
102
RTVSPropertyOp2
 70
     1
102
RTVSPropertyOp3
 70
     1
102
RTVSPropertyOp4
 70
     1
102
RTVSPropertyOp5
 70
     1
102
RTVSPropertyOp6
 70
     1
102
RTVSPropertyOp7
 70
     1
102
RTVSPropertyOp8
 70
     1
102
RTVSPropertyOp9
 70
     1
102
RTVSPropertyOp10
 70
     1
102
RTVSPropertyOp11
 70
     1
102
RTVSPropertyOp12
 70
     1
102
RTVSPropertyOp13
 70
     1
102
RTVSPropertyOp14
 70
     1
102
RTVSPropertyOp15
 70
     1
102
RTVSPropertyOp16
 70
     1
102
RTVSPropertyOp17
 70
     1
102
RTVSPropertyOp18
 70
     1
102
RTVSPropertyOp19
 70
     1
102
RTVSPropertyOp20
 70
     1
102
RTVSPropertyOp21
 70
     1
102
RTVSPropertyOp22
 70
     1
102
RTVSPropertyOp23
 70
     1
102
RTVSPropertyOp24
 70
     1
102
RTVSPropertyOp25
 70
     1
102
RTVSPropertyOp26
 70
     1
102
RTVSPropertyOp27
 70
     1
  0
XRECORD
  5
A12
102
{ACAD_REACTORS
330
A11
102
}
330
A11
100
AcDbXrecord
280
     1
102
RTVSPropertyOp0
 70
     1
102
RTVSPropertyOp1
 70
     1
102
RTVSPropertyOp2
 70
     1
102
RTVSPropertyOp3
 70
     1
102
RTVSPropertyOp4
 70
     1
102
RTVSPropertyOp5
 70
     1
102
RTVSPropertyOp6
 70
     1
102
RTVSPropertyOp7
 70
     1
102
RTVSPropertyOp8
 70
     1
102
RTVSPropertyOp9
 70
     1
102
RTVSPropertyOp10
 70
     1
102
RTVSPropertyOp11
 70
     1
102
RTVSPropertyOp12
 70
     1
102
RTVSPropertyOp13
 70
     1
102
RTVSPropertyOp14
 70
     1
102
RTVSPropertyOp15
 70
     1
102
RTVSPropertyOp16
 70
     1
102
RTVSPropertyOp17
 70
     1
102
RTVSPropertyOp18
 70
     1
102
RTVSPropertyOp19
 70
     1
102
RTVSPropertyOp20
 70
     1
102
RTVSPropertyOp21
 70
     1
102
RTVSPropertyOp22
 70
     1
102
RTVSPropertyOp23
 70
     1
102
RTVSPropertyOp24
 70
     1
102
RTVSPropertyOp25
 70
     1
102
RTVSPropertyOp26
 70
     1
102
RTVSPropertyOp27
 70
     1
  0
XRECORD
  5
A18
102
{ACAD_REACTORS
330
A17
102
}
330
A17
100
AcDbXrecord
280
     1
102
RTVSPropertyOp0
 70
     1
102
RTVSPropertyOp1
 70
     1
102
RTVSPropertyOp2
 70
     1
102
RTVSPropertyOp3
 70
     1
102
RTVSPropertyOp4
 70
     1
102
RTVSPropertyOp5
 70
     1
102
RTVSPropertyOp6
 70
     1
102
RTVSPropertyOp7
 70
     1
102
RTVSPropertyOp8
 70
     1
102
RTVSPropertyOp9
 70
     1
102
RTVSPropertyOp10
 70
     1
102
RTVSPropertyOp11
 70
     1
102
RTVSPropertyOp12
 70
     1
102
RTVSPropertyOp13
 70
     1
102
RTVSPropertyOp14
 70
     1
102
RTVSPropertyOp15
 70
     1
102
RTVSPropertyOp16
 70
     1
102
RTVSPropertyOp17
 70
     1
102
RTVSPropertyOp18
 70
     1
102
RTVSPropertyOp19
 70
     1
102
RTVSPropertyOp20
 70
     1
102
RTVSPropertyOp21
 70
     1
102
RTVSPropertyOp22
 70
     1
102
RTVSPropertyOp23
 70
     1
102
RTVSPropertyOp24
 70
     1
102
RTVSPropertyOp25
 70
     1
102
RTVSPropertyOp26
 70
     1
102
RTVSPropertyOp27
 70
     1
  0
ENDSEC
  0
EOF
