  0
SECTION
  2
HEADER
  9
$ACADVER
  1
AC1018
  9
$ACADMAINTVER
 70
   104
  9
$DWGCODEPAGE
  3
ANSI_936
  9
$LASTSAVEDBY
  1
chaxiu.zhu
  9
$INSBASE
 10
0.0
 20
0.0
 30
0.0
  9
$EXTMIN
 10
70784.14587013624
 20
-23546.27052801274
 30
-0.00000001
  9
$EXTMAX
 10
72138.89730167242
 20
-22195.07402502054
 30
0.00000001
  9
$LIMMIN
 10
0.0
 20
0.0
  9
$LIMMAX
 10
420.0
 20
297.0
  9
$ORTHOMODE
 70
     1
  9
$REGENMODE
 70
     1
  9
$FILLMODE
 70
     1
  9
$QTEXTMODE
 70
     0
  9
$MIRRTEXT
 70
     0
  9
$LTSCALE
 40
1.0
  9
$ATTMODE
 70
     1
  9
$TEXTSIZE
 40
2.5
  9
$TRACEWID
 40
1.0
  9
$TEXTSTYLE
  7
Standard
  9
$CLAYER
  8
尺寸标注
  9
$CELTYPE
  6
ByLayer
  9
$CECOLOR
 62
     0
  9
$CELTSCALE
 40
1.0
  9
$DISPSILH
 70
     0
  9
$DIMSCALE
 40
0.5
  9
$DIMASZ
 40
30.0
  9
$DIMEXO
 40
0.0
  9
$DIMDLI
 40
3.75
  9
$DIMRND
 40
0.0
  9
$DIMDLE
 40
0.0
  9
$DIMEXE
 40
10.0
  9
$DIMTP
 40
0.0
  9
$DIMTM
 40
0.0
  9
$DIMTXT
 40
40.0
  9
$DIMCEN
 40
0.0
  9
$DIMTSZ
 40
0.0
  9
$DIMTOL
 70
     0
  9
$DIMLIM
 70
     0
  9
$DIMTIH
 70
     0
  9
$DIMTOH
 70
     1
  9
$DIMSE1
 70
     0
  9
$DIMSE2
 70
     0
  9
$DIMTAD
 70
     0
  9
$DIMZIN
 70
     8
  9
$DIMBLK
  1

  9
$DIMASO
 70
     1
  9
$DIMSHO
 70
     1
  9
$DIMPOST
  1

  9
$DIMAPOST
  1

  9
$DIMALT
 70
     0
  9
$DIMALTD
 70
     3
  9
$DIMALTF
 40
0.03937007874016
  9
$DIMLFAC
 40
1.0
  9
$DIMTOFL
 70
     1
  9
$DIMTVP
 40
0.0
  9
$DIMTIX
 70
     0
  9
$DIMSOXD
 70
     0
  9
$DIMSAH
 70
     0
  9
$DIMBLK1
  1

  9
$DIMBLK2
  1

  9
$DIMSTYLE
  2
宋体
  9
$DIMCLRD
 70
   256
  9
$DIMCLRE
 70
   256
  9
$DIMCLRT
 70
   256
  9
$DIMTFAC
 40
1.0
  9
$DIMGAP
 40
20.0
  9
$DIMJUST
 70
     0
  9
$DIMSD1
 70
     0
  9
$DIMSD2
 70
     0
  9
$DIMTOLJ
 70
     1
  9
$DIMTZIN
 70
     8
  9
$DIMALTZ
 70
     0
  9
$DIMALTTZ
 70
     0
  9
$DIMUPT
 70
     0
  9
$DIMDEC
 70
     0
  9
$DIMTDEC
 70
     0
  9
$DIMALTU
 70
     2
  9
$DIMALTTD
 70
     3
  9
$DIMTXSTY
  7
Standard
  9
$DIMAUNIT
 70
     0
  9
$DIMADEC
 70
     0
  9
$DIMALTRND
 40
0.0
  9
$DIMAZIN
 70
     0
  9
$DIMDSEP
 70
    46
  9
$DIMATFIT
 70
     3
  9
$DIMFRAC
 70
     0
  9
$DIMLDRBLK
  1

  9
$DIMLUNIT
 70
     2
  9
$DIMLWD
 70
    -2
  9
$DIMLWE
 70
    -2
  9
$DIMTMOVE
 70
     1
  9
$LUNITS
 70
     2
  9
$LUPREC
 70
     4
  9
$SKETCHINC
 40
1.0
  9
$FILLETRAD
 40
30.0
  9
$AUNITS
 70
     0
  9
$AUPREC
 70
     0
  9
$MENU
  1
.
  9
$ELEVATION
 40
0.0
  9
$PELEVATION
 40
0.0
  9
$THICKNESS
 40
0.0
  9
$LIMCHECK
 70
     0
  9
$CHAMFERA
 40
0.0
  9
$CHAMFERB
 40
0.0
  9
$CHAMFERC
 40
0.0
  9
$CHAMFERD
 40
0.0
  9
$SKPOLY
 70
     0
  9
$TDCREATE
 40
2455843.370532037
  9
$TDUCREATE
 40
2455843.037198704
  9
$TDUPDATE
 40
2458858.406228970
  9
$TDUUPDATE
 40
2458858.072895637
  9
$TDINDWG
 40
4.1928026620
  9
$TDUSRTIMER
 40
4.1928024884
  9
$USRTIMER
 70
     1
  9
$ANGBASE
 50
0.0
  9
$ANGDIR
 70
     0
  9
$PDMODE
 70
     0
  9
$PDSIZE
 40
0.0
  9
$PLINEWID
 40
0.0
  9
$SPLFRAME
 70
     0
  9
$SPLINETYPE
 70
     6
  9
$SPLINESEGS
 70
     8
  9
$HANDSEED
  5
17C
  9
$SURFTAB1
 70
     6
  9
$SURFTAB2
 70
     6
  9
$SURFTYPE
 70
     6
  9
$SURFU
 70
     6
  9
$SURFV
 70
     6
  9
$UCSBASE
  2

  9
$UCSNAME
  2

  9
$UCSORG
 10
0.0
 20
0.0
 30
0.0
  9
$UCSXDIR
 10
1.0
 20
0.0
 30
0.0
  9
$UCSYDIR
 10
0.0
 20
1.0
 30
0.0
  9
$UCSORTHOREF
  2

  9
$UCSORTHOVIEW
 70
     0
  9
$UCSORGTOP
 10
0.0
 20
0.0
 30
0.0
  9
$UCSORGBOTTOM
 10
0.0
 20
0.0
 30
0.0
  9
$UCSORGLEFT
 10
0.0
 20
0.0
 30
0.0
  9
$UCSORGRIGHT
 10
0.0
 20
0.0
 30
0.0
  9
$UCSORGFRONT
 10
0.0
 20
0.0
 30
0.0
  9
$UCSORGBACK
 10
0.0
 20
0.0
 30
0.0
  9
$PUCSBASE
  2

  9
$PUCSNAME
  2

  9
$PUCSORG
 10
0.0
 20
0.0
 30
0.0
  9
$PUCSXDIR
 10
1.0
 20
0.0
 30
0.0
  9
$PUCSYDIR
 10
0.0
 20
1.0
 30
0.0
  9
$PUCSORTHOREF
  2

  9
$PUCSORTHOVIEW
 70
     0
  9
$PUCSORGTOP
 10
0.0
 20
0.0
 30
0.0
  9
$PUCSORGBOTTOM
 10
0.0
 20
0.0
 30
0.0
  9
$PUCSORGLEFT
 10
0.0
 20
0.0
 30
0.0
  9
$PUCSORGRIGHT
 10
0.0
 20
0.0
 30
0.0
  9
$PUCSORGFRONT
 10
0.0
 20
0.0
 30
0.0
  9
$PUCSORGBACK
 10
0.0
 20
0.0
 30
0.0
  9
$USERI1
 70
     0
  9
$USERI2
 70
     0
  9
$USERI3
 70
     0
  9
$USERI4
 70
     0
  9
$USERI5
 70
     0
  9
$USERR1
 40
0.0
  9
$USERR2
 40
0.0
  9
$USERR3
 40
0.0
  9
$USERR4
 40
0.0
  9
$USERR5
 40
2.5
  9
$WORLDVIEW
 70
     1
  9
$SHADEDGE
 70
     3
  9
$SHADEDIF
 70
    70
  9
$TILEMODE
 70
     1
  9
$MAXACTVP
 70
    64
  9
$PINSBASE
 10
0.0
 20
0.0
 30
0.0
  9
$PLIMCHECK
 70
     0
  9
$PEXTMIN
 10
0.0
 20
0.0
 30
0.0
  9
$PEXTMAX
 10
0.0
 20
0.0
 30
0.0
  9
$PLIMMIN
 10
0.0
 20
0.0
  9
$PLIMMAX
 10
12.0
 20
9.0
  9
$UNITMODE
 70
     0
  9
$VISRETAIN
 70
     1
  9
$PLINEGEN
 70
     0
  9
$PSLTSCALE
 70
     1
  9
$TREEDEPTH
 70
  3020
  9
$CMLSTYLE
  2
Standard
  9
$CMLJUST
 70
     0
  9
$CMLSCALE
 40
20.0
  9
$PROXYGRAPHICS
 70
     1
  9
$MEASUREMENT
 70
     1
  9
$CELWEIGHT
370
    -1
  9
$ENDCAPS
280
     0
  9
$JOINSTYLE
280
     0
  9
$LWDISPLAY
290
     0
  9
$INSUNITS
 70
     4
  9
$HYPERLINKBASE
  1

  9
$STYLESHEET
  1

  9
$XEDIT
290
     1
  9
$CEPSNTYPE
380
     0
  9
$PSTYLEMODE
290
     1
  9
$FINGERPRINTGUID
  2
{48881937-5AC3-4A9E-83CA-E5D82CC360F4}
  9
$VERSIONGUID
  2
{E708B5AD-984E-4403-A40C-FA44164AD598}
  9
$EXTNAMES
290
     1
  9
$PSVPSCALE
 40
0.0
  9
$OLESTARTUP
290
     0
  9
$SORTENTS
280
   127
  9
$INDEXCTL
280
     0
  9
$HIDETEXT
280
     1
  9
$XCLIPFRAME
290
     0
  9
$HALOGAP
280
     0
  9
$OBSCOLOR
 70
   257
  9
$OBSLTYPE
280
     0
  9
$INTERSECTIONDISPLAY
280
     0
  9
$INTERSECTIONCOLOR
 70
   257
  9
$DIMASSOC
280
     2
  9
$PROJECTNAME
  1

  0
ENDSEC
  0
SECTION
  2
CLASSES
  0
CLASS
  1
ACDBDICTIONARYWDFLT
  2
AcDbDictionaryWithDefault
  3
ObjectDBX Classes
 90
        0
 91
        1
280
     0
281
     0
  0
CLASS
  1
DICTIONARYVAR
  2
AcDbDictionaryVar
  3
ObjectDBX Classes
 90
        0
 91
        2
280
     0
281
     0
  0
CLASS
  1
TABLESTYLE
  2
AcDbTableStyle
  3
ObjectDBX Classes
 90
     4095
 91
        1
280
     0
281
     0
  0
CLASS
  1
MATERIAL
  2
AcDbMaterial
  3
ObjectDBX Classes
 90
        0
 91
        3
280
     0
281
     0
  0
CLASS
  1
VISUALSTYLE
  2
AcDbVisualStyle
  3
ObjectDBX Classes
 90
     4095
 91
       16
280
     0
281
     0
  0
CLASS
  1
VLO-VL
  2
vlo_VL
  3
VL|AutoLISP based application
 90
        0
 91
        0
280
     1
281
     0
  0
CLASS
  1
SORTENTSTABLE
  2
AcDbSortentsTable
  3
ObjectDBX Classes
 90
        0
 91
        1
280
     0
281
     0
  0
CLASS
  1
DIMASSOC
  2
AcDbDimAssoc
  3
"ZcDbDimAssoc|Product Desc:     ZwDim ZRX App For Dimension|Company:          ZwSoft.|WEB Address:      www.zwsoft.com"
 90
        0
 91
        0
280
     0
281
     0
  0
CLASS
  1
EXACXREFPANELOBJECT
  2
ExAcXREFPanelObject
  3
EXAC_ESW
 90
     1025
 91
        0
280
     1
281
     0
  0
CLASS
  1
NPOCOLLECTION
  2
AcDbImpNonPersistentObjectsCollection
  3
ObjectDBX Classes
 90
     1153
 91
        0
280
     0
281
     0
  0
CLASS
  1
SOLID_BACKGROUND
  2
AcDbSolidBackground
  3
SCENEOE
 90
     4095
 91
        0
280
     0
281
     0
  0
CLASS
  1
SCALE
  2
AcDbScale
  3
ObjectDBX Classes
 90
     1153
 91
       33
280
     0
281
     0
  0
CLASS
  1
MLEADERSTYLE
  2
AcDbMLeaderStyle
  3
ACDB_MLEADERSTYLE_CLASS
 90
     4095
 91
        1
280
     0
281
     0
  0
CLASS
  1
CELLSTYLEMAP
  2
AcDbCellStyleMap
  3
ObjectDBX Classes
 90
     1152
 91
        1
280
     0
281
     0
  0
ENDSEC
  0
SECTION
  2
TABLES
  0
TABLE
  2
VPORT
  5
23
102
{ACAD_XDICTIONARY
360
27
102
}
330
0
100
AcDbSymbolTable
 70
     2
  0
VPORT
  5
155
330
23
100
AcDbSymbolTableRecord
100
AcDbViewportTableRecord
  2
*Active
 70
     0
 10
0.0
 20
0.0
 11
1.0
 21
1.0
 12
72014.90762206563
 22
-22907.69151047341
 13
0.0
 23
0.0
 14
10.0
 24
10.0
 15
10.0
 25
10.0
 16
0.0
 26
0.0
 36
1.0
 17
0.0
 27
0.0
 37
0.0
 40
1892.14399080602
 41
1.857503152585119
 42
50.0
 43
0.0
 44
0.0
 50
0.0
 51
0.0
 71
     0
 72
  1000
 73
     1
 74
     3
 75
     0
 76
     1
 77
     0
 78
     0
281
     0
 65
     1
110
0.0
120
0.0
130
0.0
111
1.0
121
0.0
131
0.0
112
0.0
122
1.0
132
0.0
 79
     0
146
0.0
  0
ENDTAB
  0
TABLE
  2
LTYPE
  5
1E
330
0
100
AcDbSymbolTable
 70
     1
  0
LTYPE
  5
1F
330
1E
100
AcDbSymbolTableRecord
100
AcDbLinetypeTableRecord
  2
ByBlock
 70
     0
  3

 72
    65
 73
     0
 40
0.0
  0
LTYPE
  5
20
330
1E
100
AcDbSymbolTableRecord
100
AcDbLinetypeTableRecord
  2
ByLayer
 70
     0
  3

 72
    65
 73
     0
 40
0.0
  0
LTYPE
  5
C
330
1E
100
AcDbSymbolTableRecord
100
AcDbLinetypeTableRecord
  2
Continuous
 70
     0
  3
Solid line
 72
    65
 73
     0
 40
0.0
  0
ENDTAB
  0
TABLE
  2
LAYER
  5
15
102
{ACAD_XDICTIONARY
360
16
102
}
330
0
100
AcDbSymbolTable
 70
     5
  0
LAYER
  5
6
330
15
100
AcDbSymbolTableRecord
100
AcDbLayerTableRecord
  2
0
 70
     0
 62
     7
  6
Continuous
370
    -3
390
7
  0
LAYER
  5
38
330
15
100
AcDbSymbolTableRecord
100
AcDbLayerTableRecord
  2
尺寸标注
 70
     0
 62
    80
  6
Continuous
370
    18
390
7
1001
AcAecLayerStandard
1000

1000

  0
LAYER
  5
48
330
15
100
AcDbSymbolTableRecord
100
AcDbLayerTableRecord
  2
06___PRT_ALL_SURFS
 70
     0
 62
     7
  6
Continuous
370
    -3
390
7
  0
LAYER
  5
41
330
15
100
AcDbSymbolTableRecord
100
AcDbLayerTableRecord
  2
0000000000001
 70
     0
 62
     7
  6
Continuous
370
    -3
390
7
  0
LAYER
  5
E0
330
15
100
AcDbSymbolTableRecord
100
AcDbLayerTableRecord
  2
Defpoints
 70
     0
 62
     7
  6
Continuous
290
     0
370
    -3
390
7
  0
ENDTAB
  0
TABLE
  2
STYLE
  5
1B
330
0
100
AcDbSymbolTable
 70
     3
  0
STYLE
  5
1C
330
1B
100
AcDbSymbolTableRecord
100
AcDbTextStyleTableRecord
  2
Standard
 70
     0
 40
0.0
 41
1.0
 50
0.0
 71
     0
 42
2.5
  3

  4

1001
ACAD
1000
SimSun
1071
    34306
  0
STYLE
  5
2F
330
1B
100
AcDbSymbolTableRecord
100
AcDbTextStyleTableRecord
  2
Arial
 70
     0
 40
0.0
 41
1.0
 50
0.0
 71
     0
 42
2.5
  3
arial.ttf
  4

1001
ACAD
1000
Arial
1071
       34
  0
STYLE
  5
2D
330
1B
100
AcDbSymbolTableRecord
100
AcDbTextStyleTableRecord
  2
TXT
 70
     0
 40
0.0
 41
1.0
 50
0.0
 71
     0
 42
2.5
  3
txt.shx
  4

  0
ENDTAB
  0
TABLE
  2
VIEW
  5
21
330
0
100
AcDbSymbolTable
 70
     0
  0
ENDTAB
  0
TABLE
  2
UCS
  5
22
330
0
100
AcDbSymbolTable
 70
     0
  0
ENDTAB
  0
TABLE
  2
APPID
  5
28
330
0
100
AcDbSymbolTable
 70
     4
  0
APPID
  5
1A
330
28
100
AcDbSymbolTableRecord
100
AcDbRegAppTableRecord
  2
ACAD
 70
     0
  0
APPID
  5
10
330
28
100
AcDbSymbolTableRecord
100
AcDbRegAppTableRecord
  2
ACAD_PSEXT
 70
     0
  0
APPID
  5
39
330
28
100
AcDbSymbolTableRecord
100
AcDbRegAppTableRecord
  2
AcAecLayerStandard
 70
     0
  0
APPID
  5
17B
330
28
100
AcDbSymbolTableRecord
100
AcDbRegAppTableRecord
  2
ACAD_MLEADERVER
 70
     0
  0
ENDTAB
  0
TABLE
  2
DIMSTYLE
  5
29
330
0
100
AcDbSymbolTable
 70
     4
100
AcDbDimStyleTable
 71
     4
340
2A
340
2B
340
2C
340
2E
  0
DIMSTYLE
105
2A
330
29
100
AcDbSymbolTableRecord
100
AcDbDimStyleTableRecord
  2
宋体
 70
     0
 40
0.5
 41
30.0
 42
0.0
 43
3.75
 44
10.0
 73
     0
 78
     8
140
40.0
141
0.0
143
0.03937007874016
147
20.0
171
     3
172
     1
176
   256
177
   256
178
   256
271
     0
272
     0
274
     3
279
     1
284
     8
340
1C
  0
DIMSTYLE
105
2E
330
29
100
AcDbSymbolTableRecord
100
AcDbDimStyleTableRecord
  2
Arial
 70
     0
 40
0.7
 41
20.0
 42
0.0
 43
3.75
 44
10.0
 73
     0
 78
     8
140
30.0
141
0.0
143
0.03937007874016
147
20.0
171
     3
172
     1
271
     0
272
     0
274
     3
279
     1
284
     8
340
2F
  0
DIMSTYLE
105
2C
330
29
100
AcDbSymbolTableRecord
100
AcDbDimStyleTableRecord
  2
TXT
 70
     0
 40
0.7
 41
20.0
 42
0.0
 43
3.75
 44
10.0
 73
     0
 78
     8
140
30.0
141
0.0
143
0.03937007874016
147
20.0
171
     3
172
     1
271
     0
272
     0
274
     3
279
     1
284
     8
340
2D
  0
DIMSTYLE
105
2B
330
29
100
AcDbSymbolTableRecord
100
AcDbDimStyleTableRecord
  2
副本 ISO-25
 70
     0
 40
8.0
 41
3.0
 42
0.625
 43
3.75
 44
0.5
 73
     0
 77
     1
 78
     8
140
2.5
141
2.5
143
0.03937007874016
147
0.3
171
     3
172
     1
271
     0
272
     0
274
     3
283
     0
284
     8
340
1C
  0
ENDTAB
  0
TABLE
  2
BLOCK_RECORD
  5
1
330
0
100
AcDbSymbolTable
 70
     1
  0
BLOCK_RECORD
  5
2
102
{ACAD_XDICTIONARY
360
3
102
}
330
1
100
AcDbSymbolTableRecord
100
AcDbBlockTableRecord
  2
*Model_Space
340
E
  0
BLOCK_RECORD
  5
11
330
1
100
AcDbSymbolTableRecord
100
AcDbBlockTableRecord
  2
*Paper_Space
340
14
  0
ENDTAB
  0
ENDSEC
  0
SECTION
  2
BLOCKS
  0
BLOCK
  5
5
330
2
100
AcDbEntity
  8
0
100
AcDbBlockBegin
  2
*Model_Space
 70
     0
 10
0.0
 20
0.0
 30
0.0
  3
*Model_Space
  1

  0
ENDBLK
  5
D
330
2
100
AcDbEntity
  8
0
100
AcDbBlockEnd
  0
BLOCK
  5
12
330
11
100
AcDbEntity
 67
     1
  8
0
100
AcDbBlockBegin
  2
*Paper_Space
 70
     0
 10
0.0
 20
0.0
 30
0.0
  3
*Paper_Space
  1

  0
ENDBLK
  5
13
330
11
100
AcDbEntity
 67
     1
  8
0
100
AcDbBlockEnd
  0
ENDSEC
  0
SECTION
  2
ENTITIES
  0
LINE
  5
3E
330
2
100
AcDbEntity
  8
0
  6
Continuous
 62
     7
100
AcDbLine
 10
71149.32376454004
 20
-22815.09603731928
 30
0.0
 11
71218.11704173348
 21
-22815.09603731928
 31
0.0
  0
LINE
  5
3F
330
2
100
AcDbEntity
  8
0
  6
Continuous
 62
     7
100
AcDbLine
 10
70785.90267601028
 20
-22750.91778158665
 30
0.0
 11
70788.22057600999
 21
-22646.91778158604
 31
0.0
  0
LINE
  5
40
330
2
100
AcDbEntity
  8
0000000000001
  6
Continuous
 62
     7
100
AcDbLine
 10
70897.95255258064
 20
-22760.76578360764
 30
0.0
 11
70897.01469137786
 21
-22760.55489390495
 31
0.0
  0
LINE
  5
42
330
2
100
AcDbEntity
  8
0
  6
Continuous
 62
     7
100
AcDbLine
 10
70796.21858982088
 20
-22639.096037321
 30
0.0
 11
71571.22221645263
 21
-22639.096037321
 31
0.0
  0
LINE
  5
45
330
2
100
AcDbEntity
  8
0000000000001
  6
Continuous
 62
     7
100
AcDbLine
 10
71537.47543160447
 20
-22639.09520489953
 30
0.0
 11
71563.87298237286
 21
-22639.09594541617
 31
0.0
  0
LINE
  5
46
330
2
100
AcDbEntity
  8
0000000000001
  6
Continuous
 62
     7
100
AcDbLine
 10
70803.56631655544
 20
-22639.09594482437
 30
0.0
 11
70829.96537466651
 21
-22639.09520489953
 31
0.0
  0
LINE
  5
47
330
2
100
AcDbEntity
  8
06___PRT_ALL_SURFS
  6
Continuous
 62
     7
100
AcDbLine
 10
71144.34409637264
 20
-22810.54336611985
 30
0.0
 11
71139.72063691207
 21
-22759.09603732054
 31
0.0
  0
LINE
  5
49
330
2
100
AcDbEntity
  8
0
  6
Continuous
 62
     7
100
AcDbLine
 10
71140.33951878366
 20
-22765.98261656487
 30
0.0
 11
71140.33953089693
 21
-22765.98274807082
 31
0.0
  0
LINE
  5
4B
330
2
100
AcDbEntity
  8
0
  6
Continuous
 62
     7
100
AcDbLine
 10
71227.10127627324
 20
-22765.98273851534
 30
0.0
 11
71227.1012875026
 21
-22765.98261639977
 31
0.0
  0
LINE
  5
4C
330
2
100
AcDbEntity
  8
06___PRT_ALL_SURFS
  6
Continuous
 62
     7
100
AcDbLine
 10
71227.72016936011
 20
-22759.09603732054
 30
0.0
 11
71223.09670949196
 21
-22810.54337067155
 31
0.0
  0
LINE
  5
4D
330
2
100
AcDbEntity
  8
0000000000001
  6
Continuous
 62
     7
100
AcDbLine
 10
70890.54841493787
 20
-22759.63108482294
 30
0.0
 11
70888.39955687335
 21
-22759.09603732054
 31
0.0
  0
LWPOLYLINE
  5
4E
330
2
100
AcDbEntity
  8
0000000000001
  6
Continuous
 62
     7
100
AcDbPolyline
 90
        3
 70
     0
 43
0.0
 10
70907.50013537777
 20
-22763.14271955227
 10
70903.1012328954
 20
-22762.16354368232
 10
70897.95255258064
 20
-22760.76578360764
  0
LINE
  5
4F
330
2
100
AcDbEntity
  8
0
  6
Continuous
 62
     7
100
AcDbLine
 10
70907.67427385344
 20
-22763.17659395491
 30
0.0
 11
70907.50013537777
 21
-22763.14271955227
 31
0.0
  0
LINE
  5
50
330
2
100
AcDbEntity
  8
0000000000001
  6
Continuous
 62
     7
100
AcDbLine
 10
70908.31780407006
 20
-22763.29826366841
 30
0.0
 11
70907.67427385344
 21
-22763.17659395491
 31
0.0
  0
LINE
  5
51
330
2
100
AcDbEntity
  8
0000000000001
  6
Continuous
 62
     7
100
AcDbLine
 10
70911.04204028022
 20
-22763.75174581199
 30
0.0
 11
70908.31780407006
 21
-22763.29826366841
 31
0.0
  0
LINE
  5
52
330
2
100
AcDbEntity
  8
0000000000001
  6
Continuous
 62
     7
100
AcDbLine
 10
70941.9088198013
 20
-22768.19362841157
 30
0.0
 11
70941.90848995435
 21
-22768.19357589962
 31
0.0
  0
LINE
  5
53
330
2
100
AcDbEntity
  8
0000000000001
  6
Continuous
 62
     7
100
AcDbLine
 10
70955.67751781882
 20
-22770.20777235128
 30
0.0
 11
70941.90870198338
 21
-22768.19361371765
 31
0.0
  0
LINE
  5
54
330
2
100
AcDbEntity
  8
0000000000001
  6
Continuous
 62
     7
100
AcDbLine
 10
70921.43451471748
 20
-22765.2666025181
 30
0.0
 11
70911.04194789279
 21
-22763.75173231698
 31
0.0
  0
LINE
  5
55
330
2
100
AcDbEntity
  8
0000000000001
  6
Continuous
 62
     7
100
AcDbLine
 10
70941.9088198013
 20
-22768.19362841157
 30
0.0
 11
70921.43451471748
 21
-22765.2666025181
 31
0.0
  0
LWPOLYLINE
  5
56
330
2
100
AcDbEntity
  8
0000000000001
  6
Continuous
 62
     7
100
AcDbPolyline
 90
        3
 70
     0
 43
0.0
 10
70897.01469137786
 20
-22760.55489390495
 10
70894.15010541545
 20
-22760.23242192355
 10
70890.54841493787
 20
-22759.63108482294
  0
LWPOLYLINE
  5
57
330
2
100
AcDbEntity
  8
0000000000001
  6
Continuous
 62
     7
100
AcDbPolyline
 90
        4
 70
     0
 43
0.0
 10
71142.49789677064
 20
-22789.99612454232
 10
71088.95813205717
 20
-22787.19958133684
 10
71027.21412489265
 20
-22780.89219240225
 10
70955.67751781882
 20
-22770.20777235128
  0
LINE
  5
58
330
2
100
AcDbEntity
  8
0
  6
Continuous
 62
     7
100
AcDbLine
 10
71573.54011645233
 20
-22759.09603732054
 30
0.0
 11
70793.90068982121
 21
-22759.09603732054
 31
0.0
  0
LINE
  5
59
330
2
100
AcDbEntity
  8
0
  6
Continuous
 62
     7
100
AcDbLine
 10
71218.11716528544
 20
-22815.09603731928
 30
0.0
 11
71149.32388809456
 21
-22815.09603731928
 31
0.0
  0
LWPOLYLINE
  5
5A
330
2
100
AcDbEntity
  8
0000000000001
  6
Continuous
 62
     7
100
AcDbPolyline
 90
        3
 70
     0
 43
0.0
 10
71340.22668079669
 20
-22780.89219247844
 10
71278.48267290826
 20
-22787.19958143335
 10
71224.94290946984
 20
-22789.99612489794
  0
LINE
  5
5B
330
2
100
AcDbEntity
  8
0000000000001
  6
Continuous
 62
     7
100
AcDbLine
 10
71456.39885837821
 20
-22763.75173231698
 30
0.0
 11
71420.66903250499
 21
-22768.89667755919
 31
0.0
  0
LINE
  5
5C
330
2
100
AcDbEntity
  8
0000000000001
  6
Continuous
 62
     7
100
AcDbLine
 10
71455.66600138567
 20
-22763.85905633652
 30
0.0
 11
71455.66606773053
 21
-22763.85904647623
 31
0.0
  0
LINE
  5
5D
330
2
100
AcDbEntity
  8
0000000000001
  6
Continuous
 62
     7
100
AcDbLine
 10
71420.66903250499
 20
-22768.89667755919
 30
0.0
 11
71340.22668079669
 21
-22780.89219247844
 31
0.0
  0
LINE
  5
5E
330
2
100
AcDbEntity
  8
0000000000001
  6
Continuous
 62
     7
100
AcDbLine
 10
71425.53198647224
 20
-22768.19362841157
 30
0.0
 11
71425.53231631916
 21
-22768.19357589962
 31
0.0
  0
LWPOLYLINE
  5
5F
330
2
100
AcDbEntity
  8
0000000000001
  6
Continuous
 62
     7
100
AcDbPolyline
 90
        3
 70
     0
 43
0.0
 10
71459.76653241755
 20
-22763.17659395491
 10
71459.12300220346
 20
-22763.29826366841
 10
71456.39876599331
 20
-22763.75174581199
  0
LINE
  5
60
330
2
100
AcDbEntity
  8
0
  6
Continuous
 62
     7
100
AcDbLine
 10
71459.76653241755
 20
-22763.17659395491
 30
0.0
 11
71459.94067089328
 21
-22763.14271955227
 31
0.0
  0
LWPOLYLINE
  5
61
330
2
100
AcDbEntity
  8
0000000000001
  6
Continuous
 62
     7
100
AcDbPolyline
 90
        3
 70
     0
 43
0.0
 10
71471.8375704805
 20
-22760.23318545037
 10
71464.3395733781
 20
-22762.16354368232
 10
71459.94067089328
 20
-22763.14271955227
  0
LINE
  5
62
330
2
100
AcDbEntity
  8
0
  6
Continuous
 62
     7
100
AcDbLine
 10
71581.5381302607
 20
-22750.91778158665
 30
0.0
 11
71579.22023026102
 21
-22646.91778158604
 31
0.0
  0
ARC
  5
63
330
2
100
AcDbEntity
  8
0
  6
Continuous
 62
     7
100
AcDbCircle
 10
70793.90068982121
 20
-22751.09603732106
 30
0.0
 40
7.999999999459999
100
AcDbArc
 50
178.7232316902266
 51
270.0
  0
ARC
  5
64
330
2
100
AcDbEntity
  8
0
  6
Continuous
 62
     7
100
AcDbCircle
 10
70796.21917073919
 20
-22647.09603732048
 30
0.0
 40
7.999999999459999
100
AcDbArc
 50
90.00416052069065
 51
178.7233243881136
  0
ARC
  5
65
330
2
100
AcDbEntity
  8
0
  6
Continuous
 62
     7
100
AcDbCircle
 10
71149.32404915591
 20
-22810.09603731931
 30
0.0
 40
4.999999999979999
100
AcDbArc
 50
185.1328713627111
 51
269.9999999958312
  0
ARC
  5
66
330
2
100
AcDbEntity
  8
0
  6
Continuous
 62
     7
100
AcDbCircle
 10
71573.53949118815
 20
-22751.09603732106
 30
0.0
 40
7.999999999459999
100
AcDbArc
 50
270.0044781303243
 51
1.276668536066582
  0
ARC
  5
67
330
2
100
AcDbEntity
  8
0
  6
Continuous
 62
     7
100
AcDbCircle
 10
71571.22221645263
 20
-22647.09603732048
 30
0.0
 40
7.999999999459999
100
AcDbArc
 50
1.276768309773392
 51
90.0
  0
ARC
  5
68
330
2
100
AcDbEntity
  8
0
  6
Continuous
 62
     7
100
AcDbCircle
 10
71218.1167034779
 20
-22810.09603731931
 30
0.0
 40
4.999999999979999
100
AcDbArc
 50
270.0000000033351
 51
354.8670408036897
  0
LINE
  5
6A
330
2
100
AcDbEntity
  8
0000000000001
  6
Continuous
 62
     7
100
AcDbLine
 10
70921.69230763342
 20
-22765.20952566248
 30
0.0
 11
70921.25972201904
 21
-22765.15140749576
 31
0.0
  0
SPLINE
  5
6E
330
2
100
AcDbEntity
  8
0
  6
Continuous
 62
     7
100
AcDbSpline
210
0.0
220
0.0
230
1.0
 70
     8
 71
     3
 72
     8
 73
     4
 74
     2
 42
0.0000000001
 43
0.0000000001
 44
0.0000000001
 12
-0.974312519701553
 22
-0.2252001641935699
 32
0.0
 13
-0.9921472264196907
 23
-0.1250755016288768
 33
0.0
 40
0.0
 40
0.0
 40
0.0
 40
0.0
 40
5.249086607980088
 40
5.249086607980088
 40
5.249086607980088
 40
5.249086607980088
 10
71478.1933068644
 20
-22759.18588967322
 30
0.0
 10
71476.48855659802
 20
-22759.57992139521
 30
0.0
 10
71474.75968144572
 20
-22759.87717890639
 30
0.0
 10
71473.02372587261
 20
-22760.09602295325
 30
0.0
 11
71478.1933068644
 21
-22759.18588967322
 31
0.0
 11
71473.02372587261
 21
-22760.09602295325
 31
0.0
  0
SPLINE
  5
6F
330
2
100
AcDbEntity
  8
0
  6
Continuous
 62
     7
100
AcDbSpline
210
0.0
220
0.0
230
1.0
 70
     8
 71
     3
 72
     9
 73
     5
 74
     0
 42
0.0000000001
 43
0.0000000001
 40
0.0
 40
0.0
 40
0.0
 40
0.0
 40
0.0373002818984999
 40
0.0470103760304662
 40
0.0470103760304662
 40
0.0470103760304662
 40
0.0470103760304662
 10
71473.02372882158
 20
-22760.09604635174
 30
0.0
 10
71472.71039973969
 20
-22760.13554628447
 30
0.0
 10
71472.31509620386
 20
-22760.18212795202
 30
0.0
 10
71471.91933461901
 20
-22760.2245879441
 30
0.0
 10
71471.83757048048
 20
-22760.23318545037
 30
0.0
  0
SPLINE
  5
70
330
2
100
AcDbEntity
  8
0
  6
Continuous
 62
     7
100
AcDbSpline
210
0.0
220
0.0
230
1.0
 70
     8
 71
     3
 72
    48
 73
    44
 74
    42
 42
0.0000000001
 43
0.0000000001
 44
0.0000000001
 12
-0.1137759890073019
 22
0.993506428930085
 32
0.0
 13
0.1654656988726664
 23
-0.9862155456575303
 33
0.0
 40
0.0
 40
0.0
 40
0.0
 40
0.0
 40
0.2018774077752092
 40
0.7110358874943814
 40
1.598874318509553
 40
2.992758804351681
 40
4.833310354831525
 40
6.931813532683811
 40
9.136153443065598
 40
11.31859697350811
 40
13.38523963407744
 40
15.29644606392675
 40
17.14494894268236
 40
19.07752999510975
 40
21.14694978638154
 40
23.34417240328716
 40
25.60404234298529
 40
27.90117277035214
 40
30.37181833373293
 40
33.17531423942352
 40
36.32019272185623
 40
39.67498516628797
 40
43.06614273603266
 40
46.27623637064727
 40
49.09727475155823
 40
51.55295257589354
 40
53.85686411042494
 40
56.12427798667245
 40
58.30271097766132
 40
60.34516810496596
 40
62.2409265766228
 40
64.07656678266217
 40
65.98185650403017
 40
68.01613950757261
 40
70.16156477550532
 40
72.32808005524276
 40
74.37828491927319
 40
76.14007135960732
 40
77.39771271605325
 40
78.1493920841773
 40
78.54580394692018
 40
78.70726220421309
 40
78.70791462397882
 40
78.70791462397882
 40
78.70791462397882
 40
78.70791462397882
 10
71223.0681595262
 20
-22810.54658352005
 30
0.0
 10
71223.06050325895
 20
-22810.47972801922
 30
0.0
 10
71222.69365679135
 20
-22810.59447001656
 30
0.0
 10
71222.27728807511
 20
-22810.482056225
 30
0.0
 10
71221.27688951152
 20
-22810.55006598065
 30
0.0
 10
71219.93752219582
 20
-22810.52941401319
 30
0.0
 10
71218.14600136031
 20
-22810.55975332303
 30
0.0
 10
71216.10290655532
 20
-22810.5712863526
 30
0.0
 10
71213.93981068361
 20
-22810.58327906675
 30
0.0
 10
71211.78903416285
 20
-22810.5878174648
 30
0.0
 10
71209.73551132976
 20
-22810.58772508414
 30
0.0
 10
71207.79341891079
 20
-22810.58374730512
 30
0.0
 10
71205.8959951827
 20
-22810.57683451882
 30
0.0
 10
71203.94585243539
 20
-22810.56714610479
 30
0.0
 10
71201.87948120475
 20
-22810.55473554512
 30
0.0
 10
71199.70402397992
 20
-22810.54046968294
 30
0.0
 10
71197.45264598691
 20
-22810.52865280255
 30
0.0
 10
71195.11010549609
 20
-22810.52163996928
 30
0.0
 10
71192.58634580607
 20
-22810.52047376292
 30
0.0
 10
71189.7800088794
 20
-22810.52598890717
 30
0.0
 10
71186.67897337717
 20
-22810.536825789
 30
0.0
 10
71183.38202858457
 20
-22810.54300555262
 30
0.0
 10
71180.06335275628
 20
-22810.53430549045
 30
0.0
 10
71176.92260787689
 20
-22810.52390781399
 30
0.0
 10
71174.09367060963
 20
-22810.52003484349
 30
0.0
 10
71171.5667941471
 20
-22810.52330537687
 30
0.0
 10
71169.22447374005
 20
-22810.53205372125
 30
0.0
 10
71166.97459347351
 20
-22810.54546853796
 30
0.0
 10
71164.81187068476
 20
-22810.55943751697
 30
0.0
 10
71162.77302037402
 20
-22810.57100534775
 30
0.0
 10
71160.84842041938
 20
-22810.57968937552
 30
0.0
 10
71158.96953404701
 20
-22810.58549424042
 30
0.0
 10
71157.04445791946
 20
-22810.58820499763
 30
0.0
 10
71155.01614841341
 20
-22810.58693558709
 30
0.0
 10
71152.90065024417
 20
-22810.58070408807
 30
0.0
 10
71150.78033146266
 20
-22810.56809042909
 30
0.0
 10
71148.78633045328
 20
-22810.55321052915
 30
0.0
 10
71147.10012279902
 20
-22810.53044583863
 30
0.0
 10
71145.83478973233
 20
-22810.53618361241
 30
0.0
 10
71145.0483531323
 20
-22810.50741285695
 30
0.0
 10
71144.58812369022
 20
-22810.55548699727
 30
0.0
 10
71144.42795539785
 20
-22810.51391662749
 30
0.0
 10
71144.36193531061
 20
-22810.54013466282
 30
0.0
 10
71144.36197129498
 20
-22810.54034913832
 30
0.0
 11
71223.0681595262
 21
-22810.54658352005
 31
0.0
 11
71222.86683864357
 21
-22810.53160386754
 31
0.0
 11
71222.35770831564
 21
-22810.5262497431
 31
0.0
 11
71221.4698708889
 21
-22810.5275851354
 31
0.0
 11
71220.07602590164
 21
-22810.53807853072
 31
0.0
 11
71218.23555220895
 21
-22810.5550076917
 31
0.0
 11
71216.13711041906
 21
-22810.57105891942
 31
0.0
 11
71213.93279791124
 21
-22810.58205020556
 31
0.0
 11
71211.75036020858
 21
-22810.58709377179
 31
0.0
 11
71209.68371754988
 21
-22810.58700581667
 31
0.0
 11
71207.77251493338
 21
-22810.5831879376
 31
0.0
 11
71205.92402401771
 21
-22810.57653756481
 31
0.0
 11
71203.9914662547
 21
-22810.56704984437
 31
0.0
 11
71201.9220826795
 21
-22810.55480683866
 31
0.0
 11
71199.72490294637
 21
-22810.54107918259
 31
0.0
 11
71197.46506236317
 21
-22810.52956037657
 31
0.0
 11
71195.16794203997
 21
-22810.52274707548
 31
0.0
 11
71192.69729681108
 21
-22810.5214614672
 31
0.0
 11
71189.89380532385
 21
-22810.52643884355
 31
0.0
 11
71186.74894065347
 21
-22810.53575948024
 31
0.0
 11
71183.39415153377
 21
-22810.54048256198
 31
0.0
 11
71180.00300065284
 21
-22810.53374716017
 31
0.0
 11
71176.79292009565
 21
-22810.52458422445
 31
0.0
 11
71173.97188373622
 21
-22810.52120705316
 31
0.0
 11
71171.51620798972
 21
-22810.52440158578
 31
0.0
 11
71169.2123123562
 21
-22810.53296130448
 31
0.0
 11
71166.94493503675
 21
-22810.54583676262
 31
0.0
 11
71164.76654449386
 21
-22810.5594359861
 31
0.0
 11
71162.72411938645
 21
-22810.57087265869
 31
0.0
 11
71160.82837974893
 21
-22810.57932307868
 31
0.0
 11
71158.99274806846
 21
-22810.58491769029
 31
0.0
 11
71157.08746012386
 21
-22810.58751971456
 31
0.0
 11
71155.05317755286
 21
-22810.58619312337
 31
0.0
 11
71152.90776224247
 21
-22810.57965659592
 31
0.0
 11
71150.7412822219
 21
-22810.56729626249
 31
0.0
 11
71148.69114792744
 21
-22810.55028570217
 31
0.0
 11
71146.92943344985
 21
-22810.53436210941
 31
0.0
 11
71145.67181766689
 21
-22810.52634189177
 31
0.0
 11
71144.92013869782
 21
-22810.52711643683
 31
0.0
 11
71144.52376766938
 21
-22810.53280614099
 31
0.0
 11
71144.36246639431
 21
-22810.5399242522
 31
0.0
 11
71144.36197129498
 21
-22810.54034913832
 31
0.0
  0
LINE
  5
71
330
2
100
AcDbEntity
  8
0
  6
Continuous
 62
     7
100
AcDbLine
 10
70784.14587014874
 20
-23066.69587146183
 30
0.0
 11
70784.14587014874
 21
-23506.69587146006
 31
0.0
  0
LINE
  5
72
330
2
100
AcDbEntity
  8
06___PRT_ALL_SURFS
  6
Continuous
 62
     7
100
AcDbLine
 10
70803.72052668904
 20
-23276.69587146099
 30
0.0
 11
70803.72052856094
 21
-23366.69587146064
 31
0.0
  0
LINE
  5
73
330
2
100
AcDbEntity
  8
0
  6
Continuous
 62
     7
100
AcDbLine
 10
70784.15094906675
 20
-23066.69587146183
 30
0.0
 11
71583.2901043133
 21
-23066.69587146183
 31
0.0
  0
LINE
  5
74
330
2
100
AcDbEntity
  8
06___PRT_ALL_SURFS
  6
Continuous
 62
     7
100
AcDbLine
 10
71153.72052669008
 20
-23162.71157961797
 30
0.0
 11
70963.7205266909
 21
-23162.69661936849
 31
0.0
  0
LINE
  5
75
330
2
100
AcDbEntity
  8
06___PRT_ALL_SURFS
  6
Continuous
 62
     7
100
AcDbLine
 10
71213.72052668991
 20
-23162.71157961797
 30
0.0
 11
71403.7205266891
 21
-23162.69661936849
 31
0.0
  0
LINE
  5
76
330
2
100
AcDbEntity
  8
0
  6
Continuous
 62
     7
100
AcDbLine
 10
71153.72052669008
 20
-23162.71157961797
 30
0.0
 11
71213.72052668991
 21
-23162.71157961797
 31
0.0
  0
LINE
  5
77
330
2
100
AcDbEntity
  8
06___PRT_ALL_SURFS
  6
Continuous
 62
     7
100
AcDbLine
 10
71423.7205266891
 20
-23526.69588517853
 30
0.0
 11
71213.72052668991
 21
-23526.69587146
 31
0.0
  0
LINE
  5
78
330
2
100
AcDbEntity
  8
06___PRT_ALL_SURFS
  6
Continuous
 62
     7
100
AcDbLine
 10
70943.72052669096
 20
-23526.69588517853
 30
0.0
 11
71153.72052669008
 21
-23526.69587146
 31
0.0
  0
LINE
  5
79
330
2
100
AcDbEntity
  8
0
  6
Continuous
 62
     7
100
AcDbLine
 10
71153.72052669008
 20
-23526.69587146
 30
0.0
 11
71213.72052668991
 21
-23526.69587146
 31
0.0
  0
LINE
  5
7A
330
2
100
AcDbEntity
  8
0
  6
Continuous
 62
     7
100
AcDbLine
 10
70823.72052668892
 20
-23546.27052800274
 30
0.0
 11
71543.72052668857
 21
-23546.27052800274
 31
0.0
  0
LINE
  5
7B
330
2
100
AcDbEntity
  8
06___PRT_ALL_SURFS
  6
Continuous
 62
     7
100
AcDbLine
 10
71563.72052669102
 20
-23276.69587146099
 30
0.0
 11
71563.72052481912
 21
-23366.69587146064
 31
0.0
  0
LINE
  5
7C
330
2
100
AcDbEntity
  8
0
  6
Continuous
 62
     7
100
AcDbLine
 10
71583.29518323131
 20
-23506.69587146006
 30
0.0
 11
71583.29518323131
 21
-23066.69587146183
 31
0.0
  0
ARC
  5
7D
330
2
100
AcDbEntity
  8
0
  6
Continuous
 62
     7
100
AcDbCircle
 10
70823.72052668892
 20
-23506.69587146006
 30
0.0
 40
39.57465654268
100
AcDbArc
 50
179.999999839709
 51
270.0000001734228
  0
ARC
  5
7E
330
2
100
AcDbEntity
  8
0
  6
Continuous
 62
     7
100
AcDbCircle
 10
71543.72052668857
 20
-23506.69587146006
 30
0.0
 40
39.57465654268
100
AcDbArc
 50
269.9999998390837
 51
0.0000001740480944
  0
SPLINE
  5
7F
330
2
100
AcDbEntity
  8
06___PRT_ALL_SURFS
  6
Continuous
 62
     7
100
AcDbSpline
210
0.0
220
0.0
230
1.0
 70
     8
 71
     3
 72
    29
 73
    25
 74
    23
 42
0.0000000001
 43
0.0000000001
 44
0.0000000001
 12
0.000000178510104
 22
-0.9999999999999841
 32
0.0
 13
-0.9999999999964067
 23
-0.0000026807561159
 33
0.0
 40
0.0
 40
0.0
 40
0.0
 40
0.0
 40
3.381151088834094
 40
16.73033689739584
 40
30.14828125014953
 40
43.50120223031314
 40
56.88861435308406
 40
70.25314390540057
 40
83.60797109967149
 40
96.98891246068576
 40
110.3418723912124
 40
123.6867079161092
 40
137.035447786503
 40
150.3921770335061
 40
163.7306157043269
 40
177.1173967908467
 40
190.4273447641201
 40
203.805123208528
 40
217.1642776535307
 40
230.5356878448227
 40
243.9267755381014
 40
257.2828370632204
 40
270.6945740521486
 40
274.058373745789
 40
274.058373745789
 40
274.058373745789
 40
274.058373745789
 10
71563.72052481912
 20
-23366.69587146064
 30
0.0
 10
71563.72052502031
 20
-23367.82292182359
 30
0.0
 10
71563.72052775585
 20
-23373.39970114625
 30
0.0
 10
71563.72055761429
 20
-23383.44912250879
 30
0.0
 10
71563.72041140481
 20
-23396.82249752274
 30
0.0
 10
71563.72095487415
 20
-23410.20849936355
 30
0.0
 10
71563.71892505094
 20
-23423.57712521937
 30
0.0
 10
71563.72649043157
 20
-23436.9447873444
 30
0.0
 10
71563.69826817227
 20
-23450.31625682866
 30
0.0
 10
71563.80370619722
 20
-23463.66159430148
 30
0.0
 10
71563.41091825922
 20
-23477.08663423816
 30
0.0
 10
71559.5220031457
 20
-23490.01223954206
 30
0.0
 10
71553.01589337971
 20
-23501.77775307614
 30
0.0
 10
71544.03167941848
 20
-23511.80825546389
 30
0.0
 10
71533.05109797648
 20
-23519.60632605142
 30
0.0
 10
71520.63337410946
 20
-23524.79908726944
 30
0.0
 10
71507.34266658706
 20
-23527.02915181198
 30
0.0
 10
71493.97630660832
 20
-23526.60651913625
 30
0.0
 10
71480.61152361371
 20
-23526.71982269431
 30
0.0
 10
71467.23638858861
 20
-23526.68944005722
 30
0.0
 10
71453.8638712939
 20
-23526.69759125807
 30
0.0
 10
71440.47748497696
 20
-23526.69540641894
 30
0.0
 10
71430.43364013084
 20
-23526.69585607879
 30
0.0
 10
71424.84179325363
 20
-23526.69589589121
 30
0.0
 10
71423.7205266891
 20
-23526.69589889706
 30
0.0
 11
71563.72052481912
 21
-23366.69587146064
 31
0.0
 11
71563.72052669102
 21
-23370.07702254947
 31
0.0
 11
71563.72052669102
 21
-23383.42620835804
 31
0.0
 11
71563.72052669102
 21
-23396.84415271079
 31
0.0
 11
71563.72052669102
 21
-23410.19707369095
 31
0.0
 11
71563.72052669102
 21
-23423.58448581372
 31
0.0
 11
71563.72052669102
 21
-23436.94901536604
 31
0.0
 11
71563.72052669102
 21
-23450.30384256031
 31
0.0
 11
71563.72052669102
 21
-23463.68478392133
 31
0.0
 11
71562.82774115629
 21
-23477.00786437951
 31
0.0
 11
71559.08647999774
 21
-23489.81753260824
 31
0.0
 11
71552.60410044792
 21
-23501.48662046888
 31
0.0
 11
71543.69614061336
 21
-23511.43903061737
 31
0.0
 11
71532.82323856443
 21
-23519.1652164299
 31
0.0
 11
71520.46535809101
 21
-23524.31193364215
 31
0.0
 11
71507.35110388785
 21
-23526.58592830928
 31
0.0
 11
71493.97377722625
 21
-23526.69587146
 31
0.0
 11
71480.61462278124
 21
-23526.69587146
 31
0.0
 11
71467.24321258995
 21
-23526.69587146
 31
0.0
 11
71453.85212489667
 21
-23526.69587146
 31
0.0
 11
71440.49606337155
 21
-23526.69587146
 31
0.0
 11
71427.08432638262
 21
-23526.69587146
 31
0.0
 11
71423.7205266891
 21
-23526.69589889706
 31
0.0
  0
LINE
  5
80
330
2
100
AcDbEntity
  8
06___PRT_ALL_SURFS
  6
Continuous
 62
     7
100
AcDbLine
 10
71563.72052669102
 20
-23266.69587146102
 30
0.0
 11
71563.72052669102
 21
-23276.69587146099
 31
0.0
  0
LINE
  5
81
330
2
100
AcDbEntity
  8
06___PRT_ALL_SURFS
  6
Continuous
 62
     7
100
AcDbLine
 10
71563.72045494618
 20
-23256.69587146105
 30
0.0
 11
71563.72052669102
 21
-23266.69587146102
 31
0.0
  0
SPLINE
  5
82
330
2
100
AcDbEntity
  8
06___PRT_ALL_SURFS
  6
Continuous
 62
     7
100
AcDbSpline
210
0.0
220
0.0
230
1.0
 70
     8
 71
     3
 72
    30
 73
    26
 74
    24
 42
0.0000000001
 43
0.0000000001
 44
0.0000000001
 12
0.9999999999999683
 22
0.0000002519842503
 32
0.0
 13
0.0001862231358845
 23
-0.9999999826604717
 33
0.0
 40
0.0
 40
0.0
 40
0.0
 40
0.0
 40
8.262238888186406
 40
17.38262995646801
 40
26.52712606423302
 40
35.63368917698972
 40
44.76347048813477
 40
53.89244920748751
 40
63.02684732165653
 40
72.16373819182627
 40
81.29538433303416
 40
90.4183374962839
 40
99.52316251205935
 40
108.6642628981527
 40
117.7863221547529
 40
126.8980861353842
 40
136.0055857661972
 40
145.1274477931036
 40
154.2567227145316
 40
163.3726785115294
 40
172.5050503496299
 40
181.6589560449758
 40
190.762876419769
 40
199.8866860791569
 40
208.1594558086403
 40
208.1594558086403
 40
208.1594558086403
 40
208.1594558086403
 10
71423.7205266891
 20
-23162.6958712623
 30
0.0
 10
71426.47460631849
 20
-23162.69587056831
 30
0.0
 10
71432.26881631854
 20
-23162.6958679658
 30
0.0
 10
71441.11119160213
 20
-23162.69588673157
 30
0.0
 10
71450.23500863132
 20
-23162.69581441458
 30
0.0
 10
71459.36195448636
 20
-23162.69608358128
 30
0.0
 10
71468.48373256299
 20
-23162.6950774926
 30
0.0
 10
71477.61477147668
 20
-23162.69883481846
 30
0.0
 10
71486.74824558363
 20
-23162.68480349947
 30
0.0
 10
71495.88236490817
 20
-23162.73717935315
 30
0.0
 10
71505.01357903042
 20
-23162.5418704206
 30
0.0
 10
71514.13065019986
 20
-23163.35329127198
 30
0.0
 10
71523.00311362871
 20
-23165.63847978162
 30
0.0
 10
71531.43182310303
 20
-23169.21523133737
 30
0.0
 10
71539.22050620497
 20
-23174.0380591003
 30
0.0
 10
71546.18046440931
 20
-23179.97596504
 30
0.0
 10
71552.16066792651
 20
-23186.89955626393
 30
0.0
 10
71557.02795172194
 20
-23194.65392615847
 30
0.0
 10
71560.65811013928
 20
-23203.05980106379
 30
0.0
 10
71562.99517918957
 20
-23211.92079241016
 30
0.0
 10
71563.87889294212
 20
-23221.0470153528
 30
0.0
 10
71563.67831064356
 20
-23230.17914432154
 30
0.0
 10
71563.73184305482
 20
-23239.30580451732
 30
0.0
 10
71563.7179261088
 20
-23248.13945196025
 30
0.0
 10
71563.71986967434
 20
-23253.93828161176
 30
0.0
 10
71563.72038320139
 20
-23256.69587147377
 30
0.0
 11
71423.7205266891
 21
-23162.6958712623
 31
0.0
 11
71431.98276557728
 21
-23162.69587146041
 31
0.0
 11
71441.10315664557
 21
-23162.69587146041
 31
0.0
 11
71450.24765275333
 21
-23162.69587146041
 31
0.0
 11
71459.35421586608
 21
-23162.69587146041
 31
0.0
 11
71468.48399717723
 21
-23162.69587146041
 31
0.0
 11
71477.61297589658
 21
-23162.69587146041
 31
0.0
 11
71486.74737401075
 21
-23162.69587146041
 31
0.0
 11
71495.88426488092
 21
-23162.69587146041
 31
0.0
 11
71505.01590031335
 21
-23162.70985636515
 31
0.0
 11
71514.09535702872
 21
-23163.59965419185
 31
0.0
 11
71522.91773432424
 21
-23165.84987583056
 31
0.0
 11
71531.33035917279
 21
-23169.42583156663
 31
0.0
 11
71539.08670666233
 21
-23174.22698129377
 31
0.0
 11
71546.01826248424
 21
-23180.14118256922
 31
0.0
 11
71551.97179383343
 21
-23187.03335305459
 31
0.0
 11
71556.8202898286
 21
-23194.75995990513
 31
0.0
 11
71560.44389152476
 21
-23203.13928991048
 31
0.0
 11
71562.75190058916
 21
-23211.95823226495
 31
0.0
 11
71563.69771432622
 21
-23221.04149444129
 31
0.0
 11
71563.72052669102
 21
-23230.19537171135
 31
0.0
 11
71563.72052669102
 21
-23239.29929208614
 31
0.0
 11
71563.72052669102
 21
-23248.42310174553
 31
0.0
 11
71563.72038320139
 21
-23256.69587147377
 31
0.0
  0
SPLINE
  5
83
330
2
100
AcDbEntity
  8
06___PRT_ALL_SURFS
  6
Continuous
 62
     7
100
AcDbSpline
210
0.0
220
0.0
230
1.0
 70
     8
 71
     3
 72
    30
 73
    26
 74
    24
 42
0.0000000001
 43
0.0000000001
 44
0.0000000001
 12
-0.9999999999999683
 22
0.0000002519842503
 32
0.0
 13
-0.0001862231358845
 23
-0.9999999826604717
 33
0.0
 40
0.0
 40
0.0
 40
0.0
 40
0.0
 40
8.262238890747541
 40
17.38262995652621
 40
26.52712606423302
 40
35.63368917698972
 40
44.76347048813477
 40
53.89244921010686
 40
63.02684732165653
 40
72.16373819444561
 40
81.29538433303416
 40
90.4183374962839
 40
99.52316251205935
 40
108.6642628982063
 40
117.786322154757
 40
126.8980861354326
 40
136.0055857662075
 40
145.1274477945062
 40
154.2567227148946
 40
163.3726785119071
 40
172.5050503500015
 40
181.6589560453474
 40
190.7628764201406
 40
199.8866860795286
 40
208.1594558090119
 40
208.1594558090119
 40
208.1594558090119
 40
208.1594558090119
 10
70943.72052669096
 20
-23162.6958712623
 30
0.0
 10
70940.96644706071
 20
-23162.69587056831
 30
0.0
 10
70935.1722370607
 20
-23162.6958679658
 30
0.0
 10
70926.32986177702
 20
-23162.69588673158
 30
0.0
 10
70917.2060447487
 20
-23162.69581441457
 30
0.0
 10
70908.07909889368
 20
-23162.69608358128
 30
0.0
 10
70898.95732081617
 20
-23162.6950774926
 30
0.0
 10
70889.82628190248
 20
-23162.69883481846
 30
0.0
 10
70880.69280779469
 20
-23162.68480349947
 30
0.0
 10
70871.55868847098
 20
-23162.73717935316
 30
0.0
 10
70862.42747434877
 20
-23162.54187042067
 30
0.0
 10
70853.31040318019
 20
-23163.35329127197
 30
0.0
 10
70844.43793975133
 20
-23165.63847978164
 30
0.0
 10
70836.00923027694
 20
-23169.21523133733
 30
0.0
 10
70828.22054717514
 20
-23174.03805910037
 30
0.0
 10
70821.26058897044
 20
-23179.97596503982
 30
0.0
 10
70815.28038545417
 20
-23186.89955626485
 30
0.0
 10
70810.41310165439
 20
-23194.65392615696
 30
0.0
 10
70806.78294324168
 20
-23203.0598010646
 30
0.0
 10
70804.44587419012
 20
-23211.92079241002
 30
0.0
 10
70803.56216043801
 20
-23221.04701535284
 30
0.0
 10
70803.76274273648
 20
-23230.17914432152
 30
0.0
 10
70803.70921032522
 20
-23239.30580451733
 30
0.0
 10
70803.72312727125
 20
-23248.13945196026
 30
0.0
 10
70803.72118370571
 20
-23253.93828161176
 30
0.0
 10
70803.72067017866
 20
-23256.69587147377
 30
0.0
 11
70943.72052669096
 21
-23162.6958712623
 31
0.0
 11
70935.45828780021
 21
-23162.69587146041
 31
0.0
 11
70926.33789673443
 21
-23162.69587146041
 31
0.0
 11
70917.19340062672
 21
-23162.69587146041
 31
0.0
 11
70908.08683751396
 21
-23162.69587146041
 31
0.0
 11
70898.95705620282
 21
-23162.69587146041
 31
0.0
 11
70889.82807748085
 21
-23162.69587146041
 31
0.0
 11
70880.6936793693
 21
-23162.69587146041
 31
0.0
 11
70871.55678849651
 21
-23162.69587146041
 31
0.0
 11
70862.42515306671
 21
-23162.70985636515
 31
0.0
 11
70853.34569635133
 21
-23163.59965419185
 31
0.0
 11
70844.5233190558
 21
-23165.84987583056
 31
0.0
 11
70836.11069420721
 21
-23169.42583156663
 31
0.0
 11
70828.35434671772
 21
-23174.22698129377
 31
0.0
 11
70821.42279089575
 21
-23180.14118256922
 31
0.0
 11
70815.46925954662
 21
-23187.03335305459
 31
0.0
 11
70810.62076354884
 21
-23194.75995990513
 31
0.0
 11
70806.99716185529
 21
-23203.13928991048
 31
0.0
 11
70804.68915279083
 21
-23211.95823226495
 31
0.0
 11
70803.74333905384
 21
-23221.04149444129
 31
0.0
 11
70803.72052668904
 21
-23230.19537171135
 31
0.0
 11
70803.72052668904
 21
-23239.29929208614
 31
0.0
 11
70803.72052668904
 21
-23248.42310174553
 31
0.0
 11
70803.72067017866
 21
-23256.69587147377
 31
0.0
  0
LINE
  5
84
330
2
100
AcDbEntity
  8
06___PRT_ALL_SURFS
  6
Continuous
 62
     7
100
AcDbLine
 10
70803.72059843382
 20
-23256.69587146105
 30
0.0
 11
70803.72052668904
 21
-23266.69587146102
 31
0.0
  0
LINE
  5
85
330
2
100
AcDbEntity
  8
06___PRT_ALL_SURFS
  6
Continuous
 62
     7
100
AcDbLine
 10
70803.72052668904
 20
-23266.69587146102
 30
0.0
 11
70803.72052668904
 21
-23276.69587146099
 31
0.0
  0
SPLINE
  5
86
330
2
100
AcDbEntity
  8
06___PRT_ALL_SURFS
  6
Continuous
 62
     7
100
AcDbSpline
210
0.0
220
0.0
230
1.0
 70
     8
 71
     3
 72
    29
 73
    25
 74
    23
 42
0.0000000001
 43
0.0000000001
 44
0.0000000001
 12
-0.000000178510104
 22
-0.9999999999999841
 32
0.0
 13
0.9999999999964067
 23
-0.0000026807561159
 33
0.0
 40
0.0
 40
0.0
 40
0.0
 40
0.0
 40
3.381151088834094
 40
16.73033689739584
 40
30.14828125014953
 40
43.50120223031314
 40
56.88861435308406
 40
70.25314390540057
 40
83.60797109967149
 40
96.98891246068576
 40
110.3418723912086
 40
123.6867079161216
 40
137.0354477864872
 40
150.3921770334903
 40
163.7306157042637
 40
177.1173967908372
 40
190.4273447641679
 40
203.8051232060729
 40
217.1642776535204
 40
230.5356878448706
 40
243.9267755356463
 40
257.2828370631519
 40
270.6945740521965
 40
274.0583737458369
 40
274.0583737458369
 40
274.0583737458369
 40
274.0583737458369
 10
70803.72052856094
 20
-23366.69587146064
 30
0.0
 10
70803.72052835974
 20
-23367.82292182359
 30
0.0
 10
70803.72052562423
 20
-23373.39970114625
 30
0.0
 10
70803.72049576572
 20
-23383.44912250879
 30
0.0
 10
70803.72064197525
 20
-23396.82249752274
 30
0.0
 10
70803.72009850592
 20
-23410.20849936355
 30
0.0
 10
70803.7221283291
 20
-23423.57712521937
 30
0.0
 10
70803.71456294849
 20
-23436.94478734439
 30
0.0
 10
70803.74278520781
 20
-23450.31625682866
 30
0.0
 10
70803.63734718282
 20
-23463.66159430147
 30
0.0
 10
70804.03013512073
 20
-23477.08663423818
 30
0.0
 10
70807.91905023439
 20
-23490.01223954203
 30
0.0
 10
70814.42516000026
 20
-23501.77775307617
 30
0.0
 10
70823.40937396152
 20
-23511.80825546387
 30
0.0
 10
70834.38995540347
 20
-23519.60632605146
 30
0.0
 10
70846.80767927054
 20
-23524.79908726942
 30
0.0
 10
70860.09838679213
 20
-23527.02915181187
 30
0.0
 10
70873.46474677088
 20
-23526.60651913625
 30
0.0
 10
70886.8295297655
 20
-23526.71982269429
 30
0.0
 10
70900.20466479057
 20
-23526.68944005722
 30
0.0
 10
70913.57718208528
 20
-23526.69759125807
 30
0.0
 10
70926.96356840225
 20
-23526.69540641894
 30
0.0
 10
70937.00741324916
 20
-23526.69585607878
 30
0.0
 10
70942.59926012641
 20
-23526.69589589121
 30
0.0
 10
70943.72052669096
 20
-23526.69589889706
 30
0.0
 11
70803.72052856094
 21
-23366.69587146064
 31
0.0
 11
70803.72052668904
 21
-23370.07702254947
 31
0.0
 11
70803.72052668904
 21
-23383.42620835804
 31
0.0
 11
70803.72052668904
 21
-23396.84415271079
 31
0.0
 11
70803.72052668904
 21
-23410.19707369095
 31
0.0
 11
70803.72052668904
 21
-23423.58448581372
 31
0.0
 11
70803.72052668904
 21
-23436.94901536604
 31
0.0
 11
70803.72052668904
 21
-23450.30384256031
 31
0.0
 11
70803.72052668904
 21
-23463.68478392133
 31
0.0
 11
70804.6133122237
 21
-23477.00786437951
 31
0.0
 11
70808.35457338231
 21
-23489.81753260824
 31
0.0
 11
70814.83695293208
 21
-23501.48662046888
 31
0.0
 11
70823.74491276663
 21
-23511.43903061737
 31
0.0
 11
70834.6178148155
 21
-23519.1652164299
 31
0.0
 11
70846.97569528898
 21
-23524.31193364215
 31
0.0
 11
70860.0899494922
 21
-23526.58592830928
 31
0.0
 11
70873.4672761513
 21
-23526.69587146
 31
0.0
 11
70886.82643059875
 21
-23526.69587146
 31
0.0
 11
70900.1978407901
 21
-23526.69587146
 31
0.0
 11
70913.58892848088
 21
-23526.69587146
 31
0.0
 11
70926.94499000838
 21
-23526.69587146
 31
0.0
 11
70940.35672699743
 21
-23526.69587146
 31
0.0
 11
70943.72052669096
 21
-23526.69589889706
 31
0.0
  0
LINE
  5
87
330
2
100
AcDbEntity
  8
06___PRT_ALL_SURFS
  6
Continuous
 62
     7
100
AcDbLine
 10
70963.72633327306
 20
-23213.69607298787
 30
0.0
 11
70960.88286633116
 21
-23213.69613357451
 31
0.0
  0
LINE
  5
88
330
2
100
AcDbEntity
  8
06___PRT_ALL_SURFS
  6
Continuous
 62
     7
100
AcDbLine
 10
70963.72052785174
 20
-23213.69590220843
 30
0.0
 11
70978.26869855974
 21
-23213.69597479656
 31
0.0
  0
SPLINE
  5
89
330
2
100
AcDbEntity
  8
06___PRT_ALL_SURFS
  6
Continuous
 62
     7
100
AcDbSpline
210
0.0
220
0.0
230
1.0
 70
     8
 71
     3
 72
    10
 73
     6
 74
     4
 42
0.0000000001
 43
0.0000000001
 44
0.0000000001
 12
0.9999999775440391
 22
-0.0002119243289618
 32
0.0
 13
0.999999793249141
 23
-0.0006430409592902
 33
0.0
 40
0.0
 40
0.0
 40
0.0
 40
0.0
 40
60.62015081947738
 40
119.0990671490606
 40
175.4518301054911
 40
175.4518301054911
 40
175.4518301054911
 40
175.4518301054911
 10
70978.26869855974
 20
-23213.69597479656
 30
0.0
 10
70998.4754150458
 20
-23213.70025709148
 30
0.0
 10
71038.17510532099
 20
-23213.69194023135
 30
0.0
 10
71096.65904598056
 20
-23213.70280956045
 30
0.0
 10
71134.93627822853
 20
-23213.68385195951
 30
0.0
 10
71153.72052866367
 20
-23213.69593100443
 30
0.0
 11
70978.26869855974
 21
-23213.69597479656
 31
0.0
 11
71038.8888493791
 21
-23213.69585683896
 31
0.0
 11
71097.36776570779
 21
-23213.69617981014
 31
0.0
 11
71153.72052866367
 21
-23213.69593100443
 31
0.0
  0
LINE
  5
8A
330
2
100
AcDbEntity
  8
06___PRT_ALL_SURFS
  6
Continuous
 62
     7
100
AcDbLine
 10
70943.7204768003
 20
-23213.69610577418
 30
0.0
 11
70960.88287282591
 21
-23213.6957309337
 31
0.0
  0
SPLINE
  5
8B
330
2
100
AcDbEntity
  8
06___PRT_ALL_SURFS
  6
Continuous
 62
     7
100
AcDbSpline
210
0.0
220
0.0
230
1.0
 70
     8
 71
     3
 72
    13
 73
     9
 74
     0
 42
0.0000000001
 43
0.0000000001
 40
2.233762542779173
 40
2.233762542779173
 40
2.233762542779173
 40
2.233762542779173
 40
3.746704796302974
 40
7.935131500846654
 40
12.49200059818712
 40
17.32864961051674
 40
22.37349288227065
 40
27.55885368679467
 40
27.55885368679467
 40
27.55885368679467
 40
27.55885368679467
 10
70912.61658720281
 20
-23227.85917546012
 30
0.0
 10
70912.75604735501
 20
-23227.37417197602
 30
0.0
 10
70913.33251210779
 20
-23225.56315403227
 30
0.0
 10
70914.95588009429
 20
-23222.51452031307
 30
0.0
 10
70917.86452753006
 20
-23219.00111798288
 30
0.0
 10
70921.77273768162
 20
-23216.11046847674
 30
0.0
 10
70926.45966169002
 20
-23214.15171270631
 30
0.0
 10
70929.88555143183
 20
-23213.74054548488
 30
0.0
 10
70931.61343402428
 20
-23213.69612027505
 30
0.0
  0
LINE
  5
8C
330
2
100
AcDbEntity
  8
06___PRT_ALL_SURFS
  6
Continuous
 62
     7
100
AcDbLine
 10
70931.61343608938
 20
-23213.69679557469
 30
0.0
 11
70943.7204864853
 21
-23213.69550358593
 31
0.0
  0
LINE
  5
8D
330
2
100
AcDbEntity
  8
06___PRT_ALL_SURFS
  6
Continuous
 62
     7
100
AcDbLine
 10
70943.72052669096
 20
-23162.69587306063
 30
0.0
 11
70963.7205266909
 21
-23162.69736929335
 31
0.0
  0
LINE
  5
8E
330
2
100
AcDbEntity
  8
06___PRT_ALL_SURFS
  6
Continuous
 62
     7
100
AcDbLine
 10
71423.7205266891
 20
-23162.69587306063
 30
0.0
 11
71403.7205266891
 21
-23162.69736929335
 31
0.0
  0
LINE
  5
8F
330
2
100
AcDbEntity
  8
06___PRT_ALL_SURFS
  6
Continuous
 62
     7
100
AcDbLine
 10
71435.82761729067
 20
-23213.69679557469
 30
0.0
 11
71423.72056689469
 21
-23213.69550358593
 31
0.0
  0
SPLINE
  5
90
330
2
100
AcDbEntity
  8
06___PRT_ALL_SURFS
  6
Continuous
 62
     7
100
AcDbSpline
210
0.0
220
0.0
230
1.0
 70
     8
 71
     3
 72
    13
 73
     9
 74
     0
 42
0.0000000001
 43
0.0000000001
 40
2.542247707783699
 40
2.542247707783699
 40
2.542247707783699
 40
2.542247707783699
 40
3.746704796989734
 40
7.935131500383197
 40
12.49200059936473
 40
17.32864960963849
 40
22.3734928813924
 40
27.55885368603178
 40
27.55885368603178
 40
27.55885368603178
 40
27.55885368603178
 10
71454.73739411545
 20
-23227.56308624543
 30
0.0
 10
71454.62167048054
 20
-23227.17853518048
 30
0.0
 10
71454.05972343721
 20
-23225.4714756892
 30
0.0
 10
71452.48517328702
 20
-23222.51452031125
 30
0.0
 10
71449.57652584705
 20
-23219.00111798481
 30
0.0
 10
71445.66831569846
 20
-23216.11046847575
 30
0.0
 10
71440.98139168979
 20
-23214.15171270651
 30
0.0
 10
71437.55550194814
 20
-23213.74054548488
 30
0.0
 10
71435.82761935565
 20
-23213.69612027505
 30
0.0
  0
LINE
  5
91
330
2
100
AcDbEntity
  8
06___PRT_ALL_SURFS
  6
Continuous
 62
     7
100
AcDbLine
 10
71423.72057657976
 20
-23213.69610577418
 30
0.0
 11
71406.55818055153
 21
-23213.6957309337
 31
0.0
  0
LINE
  5
92
330
2
100
AcDbEntity
  8
06___PRT_ALL_SURFS
  6
Continuous
 62
     7
100
AcDbLine
 10
71403.72052552832
 20
-23213.69590220843
 30
0.0
 11
71389.17235482032
 21
-23213.69597479656
 31
0.0
  0
SPLINE
  5
93
330
2
100
AcDbEntity
  8
06___PRT_ALL_SURFS
  6
Continuous
 62
     7
100
AcDbSpline
210
0.0
220
0.0
230
1.0
 70
     8
 71
     3
 72
    10
 73
     6
 74
     4
 42
0.0000000001
 43
0.0000000001
 44
0.0000000001
 12
-0.9999999775440391
 22
-0.0002119243289618
 32
0.0
 13
-0.999999793249141
 23
-0.0006430409592902
 33
0.0
 40
0.0
 40
0.0
 40
0.0
 40
0.0
 40
60.62015081947738
 40
119.0990671491188
 40
175.4518301054911
 40
175.4518301054911
 40
175.4518301054911
 40
175.4518301054911
 10
71389.17235482032
 20
-23213.69597479656
 30
0.0
 10
71368.96563833425
 20
-23213.70025709148
 30
0.0
 10
71329.26594805904
 20
-23213.69194023134
 30
0.0
 10
71270.78200739947
 20
-23213.70280956045
 30
0.0
 10
71232.50477515151
 20
-23213.68385195951
 30
0.0
 10
71213.72052471638
 20
-23213.69593100443
 30
0.0
 11
71389.17235482032
 21
-23213.69597479656
 31
0.0
 11
71328.55220400095
 21
-23213.69585683896
 31
0.0
 11
71270.0732876722
 21
-23213.69617981014
 31
0.0
 11
71213.72052471638
 21
-23213.69593100443
 31
0.0
  0
LINE
  5
94
330
2
100
AcDbEntity
  8
06___PRT_ALL_SURFS
  6
Continuous
 62
     7
100
AcDbLine
 10
71403.71472010687
 20
-23213.69607298787
 30
0.0
 11
71406.5581870489
 21
-23213.69613357451
 31
0.0
  0
LINE
  5
95
330
2
100
AcDbEntity
  8
尺寸标注
 62
     0
100
AcDbLine
 10
70912.61658720281
 20
-23227.85917546012
 30
0.0
 11
71454.73739411545
 21
-23227.56308624543
 31
0.0
  0
LINE
  5
96
330
2
100
AcDbEntity
  8
尺寸标注
 62
     0
100
AcDbLine
 10
71153.72052866367
 20
-23213.69593100443
 30
0.0
 11
71213.72052471638
 21
-23213.69593100443
 31
0.0
  0
LINE
  5
97
330
2
100
AcDbEntity
  8
0
  6
Continuous
 62
     7
100
AcDbLine
 10
72138.89507199197
 20
-22750.88231363115
 30
0.0
 11
72136.11567199327
 21
-22646.88231363057
 31
0.0
  0
LINE
  5
98
330
2
100
AcDbEntity
  8
06___PRT_ALL_SURFS
  6
Continuous
 62
     7
100
AcDbLine
 10
71895.02132669244
 20
-22810.54051645068
 30
0.0
 11
71899.10642456489
 21
-22764.78742027859
 31
0.0
  0
LINE
  5
99
330
2
100
AcDbEntity
  8
0
  6
Continuous
 62
     7
100
AcDbLine
 10
72128.11852736528
 20
-22639.096037321
 30
0.0
 11
71659.11458375708
 21
-22639.096037321
 31
0.0
  0
LINE
  5
9B
330
2
100
AcDbEntity
  8
0000000000001
  6
Continuous
 62
     7
100
AcDbLine
 10
72118.84032355445
 20
-22639.09559887889
 30
0.0
 11
72096.12615733441
 21
-22639.09514848355
 31
0.0
  0
LINE
  5
9C
330
2
100
AcDbEntity
  8
0000000000001
  6
Continuous
 62
     7
100
AcDbLine
 10
71903.58010140718
 20
-22760.25780138382
 30
0.0
 11
71950.14038013205
 21
-22759.09603732053
 31
0.0
  0
LINE
  5
9E
330
2
100
AcDbEntity
  8
0
  6
Continuous
 62
     7
100
AcDbLine
 10
71659.11458375708
 20
-22759.09603732053
 30
0.0
 11
72130.89792736402
 21
-22759.09603732053
 31
0.0
  0
LWPOLYLINE
  5
9F
330
2
100
AcDbEntity
  8
0
  6
Continuous
 62
     7
100
AcDbPolyline
 90
        5
 70
     0
 43
0.0
 10
71890.04241836224
 20
-22815.09603731928
 10
71892.09848010739
 20
-22814.65380670008
 10
71893.79077719777
 20
-22813.40541376887
 10
71894.82006941147
 20
-22811.57169673019
 10
71895.02299419483
 20
-22810.54066089538
  0
LINE
  5
A0
330
2
100
AcDbEntity
  8
0
  6
Continuous
 62
     7
100
AcDbLine
 10
71811.60271356809
 20
-22815.09603731928
 30
0.0
 11
71890.04237308165
 21
-22815.09603731928
 31
0.0
  0
LWPOLYLINE
  5
A1
330
2
100
AcDbEntity
  8
0000000000001
  6
Continuous
 62
     7
100
AcDbPolyline
 90
        3
 70
     0
 43
0.0
 10
71791.03927733413
 20
-22761.80985440494
 10
71791.67655007534
 20
-22763.86881921766
 10
71792.35222169322
 20
-22766.08101812066
  0
LINE
  5
A2
330
2
100
AcDbEntity
  8
0000000000001
  6
Continuous
 62
     7
100
AcDbLine
 10
71790.26620185163
 20
-22759.09603732053
 30
0.0
 11
71791.03927733413
 21
-22761.80985440494
 31
0.0
  0
LINE
  5
A3
330
2
100
AcDbEntity
  8
06___PRT_ALL_SURFS
  6
Continuous
 62
     7
100
AcDbLine
 10
71800.84894506807
 20
-22781.79685646034
 30
0.0
 11
71806.69194094364
 21
-22811.07424957675
 31
0.0
  0
LINE
  5
A4
330
2
100
AcDbEntity
  8
0
  6
Continuous
 62
     7
100
AcDbLine
 10
71659.11458375708
 20
-22759.09603732053
 30
0.0
 11
71659.11458375708
 21
-22639.096037321
 31
0.0
  0
ARC
  5
A5
330
2
100
AcDbEntity
  8
0
  6
Continuous
 62
     7
100
AcDbCircle
 10
72128.1179460406
 20
-22647.09603732047
 30
0.0
 40
7.999999999459999
100
AcDbArc
 50
1.530754095678494
 51
89.99583656447276
  0
ARC
  5
A6
330
2
100
AcDbEntity
  8
0
  6
Continuous
 62
     7
100
AcDbCircle
 10
72130.89730166296
 20
-22751.09603732106
 30
0.0
 40
7.999999999459999
100
AcDbArc
 50
270.0044812677757
 51
1.53074560598076
  0
ARC
  5
A7
330
2
100
AcDbEntity
  8
0
  6
Continuous
 62
     7
100
AcDbCircle
 10
71826.99529630078
 20
-22754.43052890201
 30
0.0
 40
40.63034862483999
100
AcDbArc
 50
249.2201181814603
 51
257.3067401681589
  0
ARC
  5
A8
330
2
100
AcDbEntity
  8
0
  6
Continuous
 62
     7
100
AcDbCircle
 10
71904.0866144267
 20
-22765.2320800878
 30
0.0
 40
5.000000406379998
100
AcDbArc
 50
95.81418465642322
 51
174.8978343211973
  0
ARC
  5
AA
330
2
100
AcDbEntity
  8
0
  6
Continuous
 62
     7
100
AcDbCircle
 10
71811.59370489929
 20
-22810.09603731931
 30
0.0
 40
4.999999999979999
100
AcDbArc
 50
191.2858726669766
 51
270.0
  0
ARC
  5
AB
330
2
100
AcDbEntity
  8
0
  6
Continuous
 62
     7
100
AcDbCircle
 10
71795.94572482629
 20
-22782.77540799574
 30
0.0
 40
4.99999035052
100
AcDbArc
 50
11.28662753378723
 51
40.74773864267488
  0
SPLINE
  5
AD
330
2
100
AcDbEntity
  8
0
  6
Continuous
 62
     7
100
AcDbSpline
210
0.0
220
0.0
230
1.0
 70
     8
 71
     3
 72
     8
 73
     4
 74
     2
 42
0.0000000001
 43
0.0000000001
 44
0.0000000001
 12
0.4460071830995112
 22
-0.895029380871734
 32
0.0
 13
0.6527212397832778
 23
-0.7575981673260442
 33
0.0
 40
0.0
 40
0.0
 40
0.0
 40
0.0
 40
9.445706015135893
 40
9.445706015135893
 40
9.445706015135893
 40
9.445706015135893
 10
71794.5241093459
 20
-22771.63257166065
 30
0.0
 10
71795.92839358997
 20
-22774.45063312953
 30
0.0
 10
71797.67848970003
 20
-22777.1264530064
 30
0.0
 10
71799.73362734697
 20
-22779.51180286179
 30
0.0
 11
71794.5241093459
 21
-22771.63257166065
 31
0.0
 11
71799.73362734697
 21
-22779.51180286179
 31
0.0
  0
SPLINE
  5
AE
330
2
100
AcDbEntity
  8
0000000000001
  6
Continuous
 62
     7
100
AcDbSpline
210
0.0
220
0.0
230
1.0
 70
     8
 71
     3
 72
     9
 73
     5
 74
     3
 42
0.0000000001
 43
0.0000000001
 44
0.0000000001
 12
0.302491587179634
 22
-0.9531520548608948
 32
0.0
 13
0.4460071830548193
 23
-0.8950293808940045
 33
0.0
 40
0.0
 40
0.0
 40
0.0
 40
0.0
 40
1.200893057345052
 40
5.963656765494928
 40
5.963656765494928
 40
5.963656765494928
 40
5.963656765494928
 10
71792.35222169322
 20
-22766.08101812066
 30
0.0
 10
71792.47330837553
 20
-22766.46256268242
 30
0.0
 10
71793.09021656647
 20
-22768.35169477906
 30
0.0
 10
71793.81603373756
 20
-22770.21163384297
 30
0.0
 10
71794.5241093459
 20
-22771.63257166065
 30
0.0
 11
71792.35222169322
 21
-22766.08101812066
 31
0.0
 11
71792.72617640383
 21
-22767.22220259725
 31
0.0
 11
71794.5241093459
 21
-22771.63257166065
 31
0.0
  0
SPLINE
  5
B0
330
2
100
AcDbEntity
  8
0
  6
Continuous
 62
     7
100
AcDbSpline
210
0.0
220
0.0
230
1.0
 70
     8
 71
     3
 72
    13
 73
     9
 74
     7
 42
0.0000000001
 43
0.0000000001
 44
0.0000000001
 12
0.7186301150513155
 22
-0.6953925206251022
 32
0.0
 13
0.8032163159785504
 23
-0.5956874597856207
 33
0.0
 40
0.0
 40
0.0
 40
0.0
 40
0.0
 40
0.4978766943646985
 40
1.171290357521556
 40
2.137607808959774
 40
3.284302709095153
 40
4.448678221555807
 40
5.58377436102032
 40
5.58377436102032
 40
5.58377436102032
 40
5.58377436102032
 10
71800.84894151207
 20
-22781.79683863968
 30
0.0
 10
71800.96820457412
 20
-22781.91224521617
 30
0.0
 10
71801.24726931667
 20
-22782.1853058031
 30
0.0
 10
71801.75439793735
 20
-22782.68583076768
 30
0.0
 10
71802.42231929395
 20
-22783.33131316033
 30
0.0
 10
71803.22746327219
 20
-22784.0700234663
 30
0.0
 10
71804.10400615114
 20
-22784.81299339159
 30
0.0
 10
71804.70991600843
 20
-22785.28290114191
 30
0.0
 10
71805.0138252549
 20
-22785.50828865389
 30
0.0
 11
71800.84894151207
 21
-22781.79683863968
 31
0.0
 11
71801.205232547
 21
-22782.14459991013
 31
0.0
 11
71801.68559059822
 21
-22782.61655552705
 31
0.0
 11
71802.38171608177
 21
-22783.28676350083
 31
0.0
 11
71803.22806210814
 21
-22784.06046085616
 31
0.0
 11
71804.11684627673
 21
-22784.81267959808
 31
0.0
 11
71805.0138252549
 21
-22785.50828865389
 31
0.0
  0
SPLINE
  5
B5
330
2
100
AcDbEntity
  8
0
  6
Continuous
 62
     7
100
AcDbSpline
210
0.0
220
0.0
230
1.0
 70
     8
 71
     3
 72
    16
 73
    12
 74
    10
 42
0.0000000001
 43
0.0000000001
 44
0.0000000001
 12
0.9813651161316828
 22
-0.1921523063609932
 32
0.0
 13
0.0043245949093788
 23
0.9999906488957133
 33
0.0
 40
0.0
 40
0.0
 40
0.0
 40
0.0
 40
5.015245350518335
 40
9.525803145889481
 40
13.51129470571402
 40
17.04457946180868
 40
20.35936523032292
 40
23.86883991839798
 40
27.78736222216856
 40
32.17603763070461
 40
37.32219462922897
 40
37.32219462922897
 40
37.32219462922897
 40
37.32219462922897
 10
71818.66435840084
 20
-22794.19322879479
 30
0.0
 10
71820.30495401278
 20
-22794.51445911514
 30
0.0
 10
71823.5085407148
 20
-22794.74616600304
 30
0.0
 10
71827.99165167653
 20
-22794.04470947483
 30
0.0
 10
71831.7650367889
 20
-22792.620588128
 30
0.0
 10
71834.8938692949
 20
-22790.78512621047
 30
0.0
 10
71837.54898651744
 20
-22788.55462262488
 30
0.0
 10
71839.89647713656
 20
-22785.83047008301
 30
0.0
 10
71841.93467341743
 20
-22782.43244081149
 30
0.0
 10
71843.4322166163
 20
-22778.1730829123
 30
0.0
 10
71843.81681629372
 20
-22774.98333841405
 30
0.0
 10
71843.82423464184
 20
-22773.26796878863
 30
0.0
 11
71818.66435840084
 21
-22794.19322879479
 31
0.0
 11
71823.66638411687
 21
-22794.55713078985
 31
0.0
 11
71828.12247337839
 21
-22793.85827449645
 31
0.0
 11
71831.85433981103
 21
-22792.45923343117
 31
0.0
 11
71834.89779339901
 21
-22790.66438206533
 31
0.0
 11
71837.43817112492
 21
-22788.534995839
 31
0.0
 11
71839.73076504369
 21
-22785.87784968008
 31
0.0
 11
71841.74051210621
 21
-22782.51396297125
 31
0.0
 11
71843.2045232244
 21
-22778.37667602359
 31
0.0
 11
71843.82423464184
 21
-22773.26796878863
 31
0.0
  0
LINE
  5
B6
330
2
100
AcDbEntity
  8
0
  6
Continuous
 62
     7
100
AcDbLine
 10
71843.82423464184
 20
-22773.26796878863
 30
0.0
 11
71843.85361892391
 21
-22766.31659946052
 31
0.0
  0
LINE
  5
B8
330
2
100
AcDbEntity
  8
0
  6
Continuous
 62
     7
100
AcDbLine
 10
71818.06754904329
 20
-22794.06780871795
 30
0.0
 11
71818.66435840084
 21
-22794.19322879479
 31
0.0
  0
SPLINE
  5
BC
330
2
100
AcDbEntity
  8
0
  6
Continuous
 62
     7
100
AcDbSpline
210
0.0
220
0.0
230
1.0
 70
     8
 71
     3
 72
     9
 73
     5
 74
     3
 42
0.0000000001
 43
0.0000000001
 44
0.0000000001
 12
0.7028470364580581
 22
-0.7113410176154088
 32
0.0
 13
0.6762275696300587
 23
-0.7366927949099436
 33
0.0
 40
0.0
 40
0.0
 40
0.0
 40
0.0
 40
0.1888431618192678
 40
0.4305273672326194
 40
0.4305273672326194
 40
0.4305273672326194
 40
0.4305273672326194
 10
71805.01382374616
 20
-22785.50827926097
 30
0.0
 10
71805.05806636505
 20
-22785.55305655661
 30
0.0
 10
71805.15755734123
 20
-22785.65652760196
 30
0.0
 10
71805.25288707328
 20
-22785.76382388147
 30
0.0
 10
71805.30736491423
 20
-22785.82317288572
 30
0.0
 11
71805.01382374616
 21
-22785.50827926097
 31
0.0
 11
71805.14454563866
 21
-22785.64456398715
 31
0.0
 11
71805.30736491423
 21
-22785.82317288572
 31
0.0
  0
SPLINE
  5
BD
330
2
100
AcDbEntity
  8
0
  6
Continuous
 62
     7
100
AcDbSpline
210
0.0
220
0.0
230
1.0
 70
     8
 71
     3
 72
    13
 73
     9
 74
     7
 42
0.0000000001
 43
0.0000000001
 44
0.0000000001
 12
0.6778593177687046
 22
-0.735191638495805
 32
0.0
 13
0.8310523223001816
 23
-0.5561942444861103
 33
0.0
 40
0.0
 40
0.0
 40
0.0
 40
0.0
 40
1.091685249614512
 40
2.617088658126645
 40
4.4206442967046
 40
6.320578272956016
 40
8.160335042910922
 40
9.845318616298841
 40
9.845318616298841
 40
9.845318616298841
 40
9.845318616298841
 10
71805.30736491423
 20
-22785.82317288572
 30
0.0
 10
71805.55403458707
 20
-22786.09070550818
 30
0.0
 10
71806.13356128026
 20
-22786.7428195748
 30
0.0
 10
71807.13771381424
 20
-22787.82153589716
 30
0.0
 10
71808.37210021363
 20
-22789.05293081785
 30
0.0
 10
71809.74660291574
 20
-22790.28924598044
 30
0.0
 10
71811.15686049079
 20
-22791.42247363743
 30
0.0
 10
71812.11386680676
 20
-22792.10536808971
 30
0.0
 10
71812.58063664399
 20
-22792.41776081157
 30
0.0
 11
71805.30736491423
 21
-22785.82317288572
 31
0.0
 11
71806.04011977584
 21
-22786.63239905744
 31
0.0
 11
71807.08076589623
 21
-22787.74770673286
 31
0.0
 11
71808.35979087949
 21
-22789.01928371977
 31
0.0
 11
71809.77311814677
 21
-22790.28902981631
 31
0.0
 11
71811.20817876917
 21
-22791.44024916232
 31
0.0
 11
71812.58063664399
 21
-22792.41776081157
 31
0.0
  0
SPLINE
  5
BE
330
2
100
AcDbEntity
  8
0
  6
Continuous
 62
     7
100
AcDbSpline
210
0.0
220
0.0
230
1.0
 70
     8
 71
     3
 72
    10
 73
     6
 74
     4
 42
0.0000000001
 43
0.0000000001
 44
0.0000000001
 12
0.0416224935948131
 22
0.9991334085230809
 32
0.0
 13
-0.9998173311766329
 23
-0.0191129348566693
 33
0.0
 40
0.0
 40
0.0
 40
0.0
 40
0.0
 40
2.319988140198654
 40
4.005641586753427
 40
7.773720659841289
 40
7.773720659841289
 40
7.773720659841289
 40
7.773720659841289
 10
71843.85361818735
 20
-22766.31658971455
 30
0.0
 10
71843.88580608453
 20
-22765.54393049514
 30
0.0
 10
71843.72544941571
 20
-22764.15993772133
 30
0.0
 10
71843.17777899836
 20
-22761.84426904399
 30
0.0
 10
71842.6776855637
 20
-22759.07203097058
 30
0.0
 10
71841.42188864286
 20
-22759.09603732053
 30
0.0
 11
71843.85361818735
 21
-22766.31658971455
 31
0.0
 11
71843.65918179437
 21
-22764.00476371337
 31
0.0
 11
71843.31341977826
 21
-22762.35495276356
 31
0.0
 11
71841.42188864286
 21
-22759.09603732053
 31
0.0
  0
MTEXT
  5
BF
330
2
100
AcDbEntity
  8
尺寸标注
100
AcDbMText
 10
71166.09294045067
 20
-22211.74069168721
 30
0.0
 40
75.0
 41
801.6353349369019
 71
     2
 72
     5
  1
SCALE\P1:1
 73
     1
 44
1.0
  0
LINE
  5
101
330
2
100
AcDbEntity
  8
尺寸标注
 62
     0
100
AcDbLine
 10
70912.61658720281
 20
-23227.85917546012
 30
0.0
 11
70912.61658720281
 21
-23380.27052800274
 31
0.0
  0
LINE
  5
103
330
2
100
AcDbEntity
  8
尺寸标注
 62
     0
100
AcDbLine
 10
71454.73739411545
 20
-23227.56308624543
 30
0.0
 11
71454.73739411547
 21
-23380.27052800274
 31
0.0
  0
LINE
  5
104
330
2
100
AcDbEntity
  8
0
  6
Continuous
 62
     7
100
AcDbLine
 10
70942.61658720281
 20
-23410.27052800274
 30
0.0
 11
71424.73739411546
 21
-23410.27052800274
 31
0.0
  0
ARC
  5
107
330
2
100
AcDbEntity
  8
尺寸标注
 62
     0
100
AcDbCircle
 10
70942.61658720281
 20
-23380.27052800274
 30
0.0
 40
30.0
100
AcDbArc
 50
180.0
 51
270.0
  0
ARC
  5
108
330
2
100
AcDbEntity
  8
尺寸标注
 62
     0
100
AcDbCircle
 10
71424.73739411546
 20
-23380.27052800274
 30
0.0
 40
30.0
100
AcDbArc
 50
270.0
 51
0.0000000000037785
  0
ENDSEC
  0
SECTION
  2
OBJECTS
  0
DICTIONARY
  5
9
330
0
100
AcDbDictionary
281
     1
  3
ACAD_COLOR
350
36
  3
ACAD_GROUP
350
31
  3
ACAD_LAYOUT
350
F
  3
ACAD_MATERIAL
350
B
  3
ACAD_MLEADERSTYLE
350
14D
  3
ACAD_MLINESTYLE
350
32
  3
ACAD_PLOTSETTINGS
350
33
  3
ACAD_PLOTSTYLENAME
350
8
  3
ACAD_SCALELIST
350
12B
  3
ACAD_TABLESTYLE
350
37
  3
ACAD_VISUALSTYLE
350
26
  3
ACDB_RECOMPOSE_DATA
350
15C
  3
ACDBHEADERROUNDTRIPXREC
350
156
  3
AcDbVariableDictionary
350
C2
  0
DICTIONARY
  5
27
330
23
100
AcDbDictionary
280
     1
281
     1
  0
DICTIONARY
  5
16
330
15
100
AcDbDictionary
280
     1
281
     1
  3
ACAD_LAYERFILTERS
360
17
  3
ACAD_LAYERSTATES
360
18
  3
ACLYDICTIONARY
360
19
  0
DICTIONARY
  5
3
330
2
100
AcDbDictionary
280
     1
281
     1
  3
ACAD_SORTENTS
360
C0
  0
DICTIONARY
  5
36
102
{ACAD_REACTORS
330
9
102
}
330
9
100
AcDbDictionary
281
     1
  0
DICTIONARY
  5
31
102
{ACAD_REACTORS
330
9
102
}
330
9
100
AcDbDictionary
281
     1
  0
DICTIONARY
  5
F
102
{ACAD_REACTORS
330
9
102
}
330
9
100
AcDbDictionary
281
     1
  3
Model
350
E
  3
布局1
350
14
  0
DICTIONARY
  5
B
102
{ACAD_REACTORS
330
9
102
}
330
9
100
AcDbDictionary
281
     1
  3
ByBlock
350
35
  3
ByLayer
350
34
  3
Global
350
A
  0
DICTIONARY
  5
14D
102
{ACAD_REACTORS
330
9
102
}
330
9
100
AcDbDictionary
281
     1
  3
Standard
350
14E
  0
DICTIONARY
  5
32
102
{ACAD_REACTORS
330
9
102
}
330
9
100
AcDbDictionary
281
     1
  3
Standard
350
3A
  0
DICTIONARY
  5
33
102
{ACAD_REACTORS
330
9
102
}
330
9
100
AcDbDictionary
281
     1
  0
ACDBDICTIONARYWDFLT
  5
8
102
{ACAD_REACTORS
330
9
102
}
330
9
100
AcDbDictionary
281
     1
  3
Normal
350
7
100
AcDbDictionaryWithDefault
340
7
  0
DICTIONARY
  5
12B
102
{ACAD_REACTORS
330
9
102
}
330
9
100
AcDbDictionary
281
     1
  3
A0
350
12C
  3
A1
350
12D
  3
A2
350
12E
  3
A3
350
12F
  3
A4
350
130
  3
A5
350
131
  3
A6
350
132
  3
A7
350
133
  3
A8
350
134
  3
A9
350
135
  3
B0
350
136
  3
B1
350
137
  3
B2
350
138
  3
B3
350
139
  3
B4
350
13A
  3
B5
350
13B
  3
B6
350
13C
  3
B7
350
13D
  3
B8
350
13E
  3
B9
350
13F
  3
C0
350
140
  3
C1
350
141
  3
C2
350
142
  3
C3
350
143
  3
C4
350
144
  3
C5
350
145
  3
C6
350
146
  3
C7
350
147
  3
C8
350
148
  3
C9
350
149
  3
D0
350
14A
  3
D1
350
14B
  3
D2
350
14C
  0
DICTIONARY
  5
37
102
{ACAD_REACTORS
330
9
102
}
330
9
100
AcDbDictionary
281
     1
  3
Standard
350
3B
  0
DICTIONARY
  5
26
102
{ACAD_REACTORS
330
9
102
}
330
9
100
AcDbDictionary
281
     1
  3
2dWireframe
350
25
  3
3D Hidden
350
CA
  3
3dWireframe
350
3D
  3
Basic
350
C9
  3
Brighten
350
CD
  3
ColorChange
350
D1
  3
Conceptual
350
CB
  3
Dim
350
CC
  3
Facepattern
350
D0
  3
Flat
350
C5
  3
FlatWithEdges
350
C6
  3
Gouraud
350
C7
  3
GouraudWithEdges
350
C8
  3
Linepattern
350
CF
  3
Realistic
350
3C
  3
Thicken
350
CE
  0
XRECORD
  5
15C
102
{ACAD_REACTORS
330
9
102
}
330
9
100
AcDbXrecord
280
     1
 90
        1
330
3B
  0
DICTIONARY
  5
156
102
{ACAD_REACTORS
330
9
102
}
330
9
100
AcDbDictionary
281
     1
  0
DICTIONARY
  5
C2
102
{ACAD_REACTORS
330
9
102
}
330
9
100
AcDbDictionary
281
     1
  3
CMLEADERSTYLE
350
154
  3
CTABLESTYLE
350
C3
  0
DICTIONARY
  5
17
102
{ACAD_REACTORS
330
16
102
}
330
16
100
AcDbDictionary
281
     1
  0
DICTIONARY
  5
18
102
{ACAD_REACTORS
330
16
102
}
330
16
100
AcDbDictionary
281
     1
  0
DICTIONARY
  5
19
102
{ACAD_REACTORS
330
16
102
}
330
16
100
AcDbDictionary
281
     1
1001
ACAD
1000
<All
  0
SORTENTSTABLE
  5
C0
102
{ACAD_REACTORS
330
3
102
}
330
3
100
AcDbSortentsTable
330
2
331
60
  5
60
331
62
  5
62
331
64
  5
64
331
66
  5
66
331
40
  5
40
331
68
  5
68
331
42
  5
42
331
6A
  5
6A
331
46
  5
46
331
6E
  5
6E
331
101
  5
104
331
70
  5
70
331
103
  5
107
331
72
  5
72
331
4C
  5
4C
331
74
  5
74
331
107
  5
7C
331
4E
  5
4E
331
76
  5
76
331
50
  5
50
331
BD
  5
BF
331
52
  5
52
331
BF
  5
103
331
54
  5
54
331
99
  5
9C
331
56
  5
56
331
9B
  5
9E
331
58
  5
58
331
5A
  5
5A
331
5C
  5
5C
331
9F
  5
A1
331
79
  5
79
331
5E
  5
5E
331
A1
  5
A3
331
7B
  5
7D
331
A3
  5
A5
331
A5
  5
A7
331
7D
  5
7F
331
A7
  5
AA
331
7F
  5
81
331
3E
  5
3E
331
81
  5
83
331
83
  5
85
331
AB
  5
AE
331
85
  5
87
331
AD
  5
B0
331
87
  5
89
331
89
  5
8B
331
8B
  5
8D
331
8D
  5
8F
331
B5
  5
B8
331
8F
  5
91
331
91
  5
93
331
93
  5
95
331
95
  5
97
331
97
  5
99
331
61
  5
61
331
63
  5
63
331
65
  5
65
331
67
  5
67
331
45
  5
45
331
6F
  5
6F
331
47
  5
47
331
49
  5
49
331
71
  5
71
331
104
  5
7B
331
4B
  5
4B
331
73
  5
73
331
B8
  5
BD
331
4D
  5
4D
331
75
  5
75
331
108
  5
108
331
4F
  5
4F
331
77
  5
77
331
BC
  5
BE
331
51
  5
51
331
BE
  5
101
331
53
  5
53
331
98
  5
9B
331
55
  5
55
331
57
  5
57
331
9C
  5
9F
331
59
  5
59
331
9E
  5
A0
331
5B
  5
5B
331
78
  5
78
331
A0
  5
A2
331
5D
  5
5D
331
7A
  5
7A
331
A2
  5
A4
331
5F
  5
5F
331
7C
  5
7E
331
A4
  5
A6
331
7E
  5
80
331
A6
  5
A8
331
80
  5
82
331
A8
  5
AB
331
82
  5
84
331
AA
  5
AD
331
3F
  5
3F
331
84
  5
86
331
86
  5
88
331
AE
  5
B5
331
88
  5
8A
331
B0
  5
B6
331
8A
  5
8C
331
8C
  5
8E
331
B6
  5
BC
331
8E
  5
90
331
90
  5
92
331
92
  5
94
331
94
  5
96
331
96
  5
98
  0
LAYOUT
  5
E
102
{ACAD_REACTORS
330
F
102
}
330
F
100
AcDbPlotSettings
  1

  2
\\10.1.200.73\HP LaserJet M1005
  4
A4
  6

 40
4.519083023071289
 41
4.349743366241455
 42
4.561416625976562
 43
4.349761962890625
 44
210.0156707763672
 45
297.0106506347656
 46
55.24379606390717
 47
0.0
 48
0.0
 49
0.0
140
0.0
141
0.0
142
1.0
143
16.71874049572011
 70
 11956
 72
     1
 73
     1
 74
     1
  7
acad.ctb
 75
     0
147
0.0598131181147284
 76
     0
 77
     2
 78
   300
148
-10684.40043882581
149
2957.131382769171
100
AcDbLayout
  1
Model
 70
     1
 71
     0
 10
0.0
 20
0.0
 11
12.0
 21
9.0
 12
0.0
 22
0.0
 32
0.0
 14
0.0
 24
0.0
 34
0.0
 15
0.0
 25
0.0
 35
0.0
146
0.0
 13
0.0
 23
0.0
 33
0.0
 16
1.0
 26
0.0
 36
0.0
 17
0.0
 27
1.0
 37
0.0
 76
     0
330
2
331
24
1001
ACAD_PSEXT
1000
\\10.1.200.73\HP LaserJet M1005
1000
HP LaserJet M1005
1000
\\10.1.200.73
1000

1070
     0
  0
LAYOUT
  5
14
102
{ACAD_REACTORS
330
F
102
}
330
F
100
AcDbPlotSettings
  1

  2
C:\Documents and Settings\basas\Application Data\Autodesk\AutoCAD 2005\R16.1\enu\plotters\Default Windows System Printer.pc3
  4

  6

 40
0.0
 41
0.0
 42
0.0
 43
0.0
 44
0.0
 45
0.0
 46
0.0
 47
0.0
 48
0.0
 49
0.0
140
0.0
141
0.0
142
1.0
143
1.0
 70
   688
 72
     0
 73
     0
 74
     5
  7
acad.ctb
 75
    16
147
1.0
 76
     0
 77
     2
 78
   300
148
0.0
149
0.0
100
AcDbLayout
  1
布局1
 70
     1
 71
     1
 10
0.0
 20
0.0
 11
12.0
 21
9.0
 12
0.0
 22
0.0
 32
0.0
 14
0.0
 24
0.0
 34
0.0
 15
0.0
 25
0.0
 35
0.0
146
0.0
 13
0.0
 23
0.0
 33
0.0
 16
1.0
 26
0.0
 36
0.0
 17
0.0
 27
1.0
 37
0.0
 76
     0
330
11
  0
MATERIAL
  5
35
102
{ACAD_REACTORS
330
B
102
}
330
B
100
AcDbMaterial
  1
ByBlock
  2

  0
MATERIAL
  5
34
102
{ACAD_REACTORS
330
B
102
}
330
B
100
AcDbMaterial
  1
ByLayer
  2

  0
MATERIAL
  5
A
102
{ACAD_REACTORS
330
B
102
}
330
B
100
AcDbMaterial
  1
Global
  2

  0
MLEADERSTYLE
  5
14E
102
{ACAD_REACTORS
330
14D
102
}
330
14D
100
AcDbMLeaderStyle
170
     2
171
     1
172
     0
 90
        2
 40
0.0
 41
0.0
173
     1
 91
-1056964608
340
1F
 92
       -2
290
     1
 42
0.09
291
     1
 43
8.0
  3
Standard
341
0
 44
0.18
300

342
1C
174
     1
178
     1
175
     1
176
     0
 93
-1056964608
 45
0.18
292
     0
297
     0
 46
0.18
343
0
 94
-1056964608
 47
1.0
 49
1.0
140
1.0
293
     1
141
0.0
294
     1
177
     0
142
1.0
295
     0
296
     0
143
3.75
1001
ACAD_MLEADERVER
1070
     2
  0
MLINESTYLE
  5
3A
102
{ACAD_REACTORS
330
32
102
}
330
32
100
AcDbMlineStyle
  2
STANDARD
 70
     0
  3

 62
   256
 51
90.0
 52
90.0
 71
     2
 49
0.5
 62
   256
  6
BYLAYER
 49
-0.5
 62
   256
  6
BYLAYER
  0
ACDBPLACEHOLDER
  5
7
102
{ACAD_REACTORS
330
8
102
}
330
8
  0
SCALE
  5
12C
102
{ACAD_REACTORS
330
12B
102
}
330
12B
100
AcDbScale
 70
     0
300
1:1
140
1.0
141
1.0
290
     1
  0
SCALE
  5
12D
102
{ACAD_REACTORS
330
12B
102
}
330
12B
100
AcDbScale
 70
     0
300
1:2
140
1.0
141
2.0
290
     0
  0
SCALE
  5
12E
102
{ACAD_REACTORS
330
12B
102
}
330
12B
100
AcDbScale
 70
     0
300
1:4
140
1.0
141
4.0
290
     0
  0
SCALE
  5
12F
102
{ACAD_REACTORS
330
12B
102
}
330
12B
100
AcDbScale
 70
     0
300
1:5
140
1.0
141
5.0
290
     0
  0
SCALE
  5
130
102
{ACAD_REACTORS
330
12B
102
}
330
12B
100
AcDbScale
 70
     0
300
1:8
140
1.0
141
8.0
290
     0
  0
SCALE
  5
131
102
{ACAD_REACTORS
330
12B
102
}
330
12B
100
AcDbScale
 70
     0
300
1:10
140
1.0
141
10.0
290
     0
  0
SCALE
  5
132
102
{ACAD_REACTORS
330
12B
102
}
330
12B
100
AcDbScale
 70
     0
300
1:16
140
1.0
141
16.0
290
     0
  0
SCALE
  5
133
102
{ACAD_REACTORS
330
12B
102
}
330
12B
100
AcDbScale
 70
     0
300
1:20
140
1.0
141
20.0
290
     0
  0
SCALE
  5
134
102
{ACAD_REACTORS
330
12B
102
}
330
12B
100
AcDbScale
 70
     0
300
1:30
140
1.0
141
30.0
290
     0
  0
SCALE
  5
135
102
{ACAD_REACTORS
330
12B
102
}
330
12B
100
AcDbScale
 70
     0
300
1:40
140
1.0
141
40.0
290
     0
  0
SCALE
  5
136
102
{ACAD_REACTORS
330
12B
102
}
330
12B
100
AcDbScale
 70
     0
300
1:50
140
1.0
141
50.0
290
     0
  0
SCALE
  5
137
102
{ACAD_REACTORS
330
12B
102
}
330
12B
100
AcDbScale
 70
     0
300
1:100
140
1.0
141
100.0
290
     0
  0
SCALE
  5
138
102
{ACAD_REACTORS
330
12B
102
}
330
12B
100
AcDbScale
 70
     0
300
2:1
140
2.0
141
1.0
290
     0
  0
SCALE
  5
139
102
{ACAD_REACTORS
330
12B
102
}
330
12B
100
AcDbScale
 70
     0
300
4:1
140
4.0
141
1.0
290
     0
  0
SCALE
  5
13A
102
{ACAD_REACTORS
330
12B
102
}
330
12B
100
AcDbScale
 70
     0
300
8:1
140
8.0
141
1.0
290
     0
  0
SCALE
  5
13B
102
{ACAD_REACTORS
330
12B
102
}
330
12B
100
AcDbScale
 70
     0
300
10:1
140
10.0
141
1.0
290
     0
  0
SCALE
  5
13C
102
{ACAD_REACTORS
330
12B
102
}
330
12B
100
AcDbScale
 70
     0
300
100:1
140
100.0
141
1.0
290
     0
  0
SCALE
  5
13D
102
{ACAD_REACTORS
330
12B
102
}
330
12B
100
AcDbScale
 70
     0
300
1/128" = 1'-0"
140
0.0078125
141
12.0
290
     0
  0
SCALE
  5
13E
102
{ACAD_REACTORS
330
12B
102
}
330
12B
100
AcDbScale
 70
     0
300
1/64" = 1'-0"
140
0.015625
141
12.0
290
     0
  0
SCALE
  5
13F
102
{ACAD_REACTORS
330
12B
102
}
330
12B
100
AcDbScale
 70
     0
300
1/32" = 1'-0"
140
0.03125
141
12.0
290
     0
  0
SCALE
  5
140
102
{ACAD_REACTORS
330
12B
102
}
330
12B
100
AcDbScale
 70
     0
300
1/16" = 1'-0"
140
0.0625
141
12.0
290
     0
  0
SCALE
  5
141
102
{ACAD_REACTORS
330
12B
102
}
330
12B
100
AcDbScale
 70
     0
300
3/32" = 1'-0"
140
0.09375
141
12.0
290
     0
  0
SCALE
  5
142
102
{ACAD_REACTORS
330
12B
102
}
330
12B
100
AcDbScale
 70
     0
300
1/8" = 1'-0"
140
0.125
141
12.0
290
     0
  0
SCALE
  5
143
102
{ACAD_REACTORS
330
12B
102
}
330
12B
100
AcDbScale
 70
     0
300
3/16" = 1'-0"
140
0.1875
141
12.0
290
     0
  0
SCALE
  5
144
102
{ACAD_REACTORS
330
12B
102
}
330
12B
100
AcDbScale
 70
     0
300
1/4" = 1'-0"
140
0.25
141
12.0
290
     0
  0
SCALE
  5
145
102
{ACAD_REACTORS
330
12B
102
}
330
12B
100
AcDbScale
 70
     0
300
3/8" = 1'-0"
140
0.375
141
12.0
290
     0
  0
SCALE
  5
146
102
{ACAD_REACTORS
330
12B
102
}
330
12B
100
AcDbScale
 70
     0
300
1/2" = 1'-0"
140
0.5
141
12.0
290
     0
  0
SCALE
  5
147
102
{ACAD_REACTORS
330
12B
102
}
330
12B
100
AcDbScale
 70
     0
300
3/4" = 1'-0"
140
0.75
141
12.0
290
     0
  0
SCALE
  5
148
102
{ACAD_REACTORS
330
12B
102
}
330
12B
100
AcDbScale
 70
     0
300
1" = 1'-0"
140
1.0
141
12.0
290
     0
  0
SCALE
  5
149
102
{ACAD_REACTORS
330
12B
102
}
330
12B
100
AcDbScale
 70
     0
300
1-1/2" = 1'-0"
140
1.5
141
12.0
290
     0
  0
SCALE
  5
14A
102
{ACAD_REACTORS
330
12B
102
}
330
12B
100
AcDbScale
 70
     0
300
3" = 1'-0"
140
3.0
141
12.0
290
     0
  0
SCALE
  5
14B
102
{ACAD_REACTORS
330
12B
102
}
330
12B
100
AcDbScale
 70
     0
300
6" = 1'-0"
140
6.0
141
12.0
290
     0
  0
SCALE
  5
14C
102
{ACAD_REACTORS
330
12B
102
}
330
12B
100
AcDbScale
 70
     0
300
1'-0" = 1'-0"
140
12.0
141
12.0
290
     0
  0
TABLESTYLE
  5
3B
102
{ACAD_XDICTIONARY
360
159
102
}
102
{ACAD_REACTORS
330
37
102
}
330
37
100
AcDbTableStyle
  3
Standard
 70
     0
 71
     0
 40
1.5
 41
1.5
280
     0
281
     0
  7
Standard
140
4.5
170
     2
 62
     0
 63
   257
283
     0
274
    -2
284
     1
 64
     0
275
    -2
285
     1
 65
     0
276
    -2
286
     1
 66
     0
277
    -2
287
     1
 67
     0
278
    -2
288
     1
 68
     0
279
    -2
289
     1
 69
     0
  7
Standard
140
6.0
170
     5
 62
     0
 63
   257
283
     0
274
    -2
284
     1
 64
     0
275
    -2
285
     1
 65
     0
276
    -2
286
     1
 66
     0
277
    -2
287
     1
 67
     0
278
    -2
288
     1
 68
     0
279
    -2
289
     1
 69
     0
  7
Standard
140
4.5
170
     5
 62
     0
 63
   257
283
     0
274
    -2
284
     1
 64
     0
275
    -2
285
     1
 65
     0
276
    -2
286
     1
 66
     0
277
    -2
287
     1
 67
     0
278
    -2
288
     1
 68
     0
279
    -2
289
     1
 69
     0
  0
VISUALSTYLE
  5
25
102
{ACAD_XDICTIONARY
360
157
102
}
102
{ACAD_REACTORS
330
26
102
}
330
26
100
AcDbVisualStyle
  2
2dWireframe
 70
     4
 71
     0
 72
     2
 73
     1
 90
        0
 40
-0.6
 41
-30.0
 62
     5
 63
     7
 74
     1
 91
        4
 64
     7
 65
   257
 75
     1
175
     1
 42
1.0
 92
        0
 66
   257
 43
1.0
 76
     1
 77
     6
 78
     2
 67
     7
 79
     5
170
     0
171
     0
290
     0
174
     0
 93
        1
 44
0.0
173
     0
291
     0
 45
0.0
1001
ACAD
1000
AcDbSavedByObjectVersion
1070
     0
  0
VISUALSTYLE
  5
CA
102
{ACAD_XDICTIONARY
360
16B
102
}
102
{ACAD_REACTORS
330
26
102
}
330
26
100
AcDbVisualStyle
  2
3D Hidden
 70
     6
 71
     1
 72
     2
 73
     2
 90
        0
 40
-0.6
 41
-30.0
 62
     5
 63
     7
421
 16777215
 74
     2
 91
        2
 64
     7
 65
   257
 75
     2
175
     1
 42
40.0
 92
        0
 66
   257
 43
1.0
 76
     1
 77
     6
 78
     2
 67
     7
 79
     3
170
     0
171
     0
290
     0
174
     0
 93
        1
 44
0.0
173
     0
291
     0
 45
0.0
1001
ACAD
1000
AcDbSavedByObjectVersion
1070
     0
  0
VISUALSTYLE
  5
3D
102
{ACAD_XDICTIONARY
360
15F
102
}
102
{ACAD_REACTORS
330
26
102
}
330
26
100
AcDbVisualStyle
  2
3dWireframe
 70
     5
 71
     0
 72
     2
 73
     1
 90
        0
 40
-0.6
 41
-30.0
 62
     5
 63
     7
 74
     1
 91
        4
 64
     7
 65
   257
 75
     1
175
     1
 42
1.0
 92
        0
 66
   257
 43
1.0
 76
     1
 77
     6
 78
     2
 67
     7
 79
     5
170
     0
171
     0
290
     0
174
     0
 93
        1
 44
0.0
173
     0
291
     0
 45
0.0
1001
ACAD
1000
AcDbSavedByObjectVersion
1070
     0
  0
VISUALSTYLE
  5
C9
102
{ACAD_XDICTIONARY
360
169
102
}
102
{ACAD_REACTORS
330
26
102
}
330
26
100
AcDbVisualStyle
  2
Basic
 70
     7
 71
     1
 72
     0
 73
     1
 90
        0
 40
-0.6
 41
-30.0
 62
     5
 63
     7
421
 16777215
 74
     0
 91
        4
 64
     7
 65
   257
 75
     1
175
     1
 42
1.0
 92
        8
 66
     7
 43
1.0
 76
     1
 77
     6
 78
     2
 67
     7
 79
     5
170
     0
171
     0
290
     0
174
     0
 93
        1
 44
0.0
173
     0
291
     1
 45
0.0
1001
ACAD
1000
AcDbSavedByObjectVersion
1070
     0
  0
VISUALSTYLE
  5
CD
102
{ACAD_XDICTIONARY
360
171
102
}
102
{ACAD_REACTORS
330
26
102
}
330
26
100
AcDbVisualStyle
  2
Brighten
 70
    12
 71
     2
 72
     2
 73
     0
 90
        0
 40
-0.6
 41
-30.0
 62
     5
 63
     7
421
 16777215
 74
     1
 91
        4
 64
     7
 65
   257
 75
     1
175
     1
 42
1.0
 92
        8
 66
     7
 43
1.0
 76
     1
 77
     6
 78
     2
 67
     7
 79
     5
170
     0
171
     0
290
     0
174
     0
 93
        1
 44
50.0
173
     0
291
     1
 45
0.0
1001
ACAD
1000
AcDbSavedByObjectVersion
1070
     0
  0
VISUALSTYLE
  5
D1
102
{ACAD_XDICTIONARY
360
179
102
}
102
{ACAD_REACTORS
330
26
102
}
330
26
100
AcDbVisualStyle
  2
ColorChange
 70
    16
 71
     2
 72
     2
 73
     3
 90
        0
 40
-0.6
 41
-30.0
 62
     5
 63
     8
421
  8421504
 74
     1
 91
        4
 64
     7
 65
   257
 75
     1
175
     1
 42
1.0
 92
        8
 66
     8
424
  8421504
 43
1.0
 76
     1
 77
     6
 78
     2
 67
     7
 79
     5
170
     0
171
     0
290
     0
174
     0
 93
        1
 44
0.0
173
     0
291
     1
 45
0.0
1001
ACAD
1000
AcDbSavedByObjectVersion
1070
     0
  0
VISUALSTYLE
  5
CB
102
{ACAD_XDICTIONARY
360
16D
102
}
102
{ACAD_REACTORS
330
26
102
}
330
26
100
AcDbVisualStyle
  2
Conceptual
 70
     9
 71
     3
 72
     2
 73
     0
 90
        0
 40
-0.6
 41
-30.0
 62
     5
 63
     7
421
 16777215
 74
     2
 91
        2
 64
     7
 65
   257
 75
     1
175
     1
 42
40.0
 92
        8
 66
     7
 43
1.0
 76
     1
 77
     6
 78
     2
 67
     7
 79
     3
170
     0
171
     0
290
     0
174
     0
 93
        1
 44
0.0
173
     0
291
     0
 45
0.0
1001
ACAD
1000
AcDbSavedByObjectVersion
1070
     0
  0
VISUALSTYLE
  5
CC
102
{ACAD_XDICTIONARY
360
16F
102
}
102
{ACAD_REACTORS
330
26
102
}
330
26
100
AcDbVisualStyle
  2
Dim
 70
    11
 71
     2
 72
     2
 73
     0
 90
        0
 40
-0.6
 41
-30.0
 62
     5
 63
     7
421
 16777215
 74
     1
 91
        4
 64
     7
 65
   257
 75
     1
175
     1
 42
1.0
 92
        8
 66
     7
 43
1.0
 76
     1
 77
     6
 78
     2
 67
     7
 79
     5
170
     0
171
     0
290
     0
174
     0
 93
        1
 44
-50.0
173
     0
291
     1
 45
0.0
1001
ACAD
1000
AcDbSavedByObjectVersion
1070
     0
  0
VISUALSTYLE
  5
D0
102
{ACAD_XDICTIONARY
360
177
102
}
102
{ACAD_REACTORS
330
26
102
}
330
26
100
AcDbVisualStyle
  2
Facepattern
 70
    15
 71
     2
 72
     2
 73
     0
 90
        0
 40
-0.6
 41
-30.0
 62
     5
 63
     7
421
 16777215
 74
     1
 91
        4
 64
     7
 65
   257
 75
     1
175
     1
 42
1.0
 92
        8
 66
     7
 43
1.0
 76
     1
 77
     6
 78
     2
 67
     7
 79
     5
170
     0
171
     0
290
     0
174
     0
 93
        1
 44
0.0
173
     0
291
     1
 45
0.0
1001
ACAD
1000
AcDbSavedByObjectVersion
1070
     0
  0
VISUALSTYLE
  5
C5
102
{ACAD_XDICTIONARY
360
161
102
}
102
{ACAD_REACTORS
330
26
102
}
330
26
100
AcDbVisualStyle
  2
Flat
 70
     0
 71
     2
 72
     1
 73
     1
 90
        2
 40
-0.6
 41
30.0
 62
     5
 63
     7
421
 16777215
 74
     0
 91
        4
 64
     7
 65
   257
 75
     1
175
     1
 42
1.0
 92
        8
 66
     7
 43
1.0
 76
     1
 77
     6
 78
     2
 67
     7
 79
     5
170
     0
171
     0
290
     0
174
     0
 93
       13
 44
0.0
173
     0
291
     1
 45
0.0
1001
ACAD
1000
AcDbSavedByObjectVersion
1070
     0
  0
VISUALSTYLE
  5
C6
102
{ACAD_XDICTIONARY
360
163
102
}
102
{ACAD_REACTORS
330
26
102
}
330
26
100
AcDbVisualStyle
  2
FlatWithEdges
 70
     1
 71
     2
 72
     1
 73
     1
 90
        2
 40
-0.6
 41
30.0
 62
     5
 63
     7
421
 16777215
 74
     1
 91
        4
 64
     7
 65
   257
 75
     1
175
     1
 42
1.0
 92
        0
 66
   257
 43
1.0
 76
     1
 77
     6
 78
     2
 67
     7
 79
     5
170
     0
171
     0
290
     0
174
     0
 93
       13
 44
0.0
173
     0
291
     1
 45
0.0
1001
ACAD
1000
AcDbSavedByObjectVersion
1070
     0
  0
VISUALSTYLE
  5
C7
102
{ACAD_XDICTIONARY
360
165
102
}
102
{ACAD_REACTORS
330
26
102
}
330
26
100
AcDbVisualStyle
  2
Gouraud
 70
     2
 71
     2
 72
     2
 73
     1
 90
        2
 40
-0.6
 41
30.0
 62
     5
 63
     7
421
 16777215
 74
     0
 91
        4
 64
     7
 65
   257
 75
     1
175
     1
 42
1.0
 92
        0
 66
     7
 43
1.0
 76
     1
 77
     6
 78
     2
 67
     7
 79
     5
170
     0
171
     0
290
     0
174
     0
 93
       13
 44
0.0
173
     0
291
     1
 45
0.0
1001
ACAD
1000
AcDbSavedByObjectVersion
1070
     0
  0
VISUALSTYLE
  5
C8
102
{ACAD_XDICTIONARY
360
167
102
}
102
{ACAD_REACTORS
330
26
102
}
330
26
100
AcDbVisualStyle
  2
GouraudWithEdges
 70
     3
 71
     2
 72
     2
 73
     1
 90
        2
 40
-0.6
 41
30.0
 62
     5
 63
     7
421
 16777215
 74
     1
 91
        4
 64
     7
 65
   257
 75
     1
175
     1
 42
1.0
 92
        0
 66
   257
 43
1.0
 76
     1
 77
     6
 78
     2
 67
     7
 79
     5
170
     0
171
     0
290
     0
174
     0
 93
       13
 44
0.0
173
     0
291
     1
 45
0.0
1001
ACAD
1000
AcDbSavedByObjectVersion
1070
     0
  0
VISUALSTYLE
  5
CF
102
{ACAD_XDICTIONARY
360
175
102
}
102
{ACAD_REACTORS
330
26
102
}
330
26
100
AcDbVisualStyle
  2
Linepattern
 70
    14
 71
     2
 72
     2
 73
     0
 90
        0
 40
-0.6
 41
-30.0
 62
     5
 63
     7
421
 16777215
 74
     1
 91
        4
 64
     7
 65
   257
 75
     7
175
     7
 42
1.0
 92
        8
 66
     7
 43
1.0
 76
     1
 77
     6
 78
     2
 67
     7
 79
     5
170
     0
171
     0
290
     0
174
     0
 93
        1
 44
0.0
173
     0
291
     1
 45
0.0
1001
ACAD
1000
AcDbSavedByObjectVersion
1070
     0
  0
VISUALSTYLE
  5
3C
102
{ACAD_XDICTIONARY
360
15D
102
}
102
{ACAD_REACTORS
330
26
102
}
330
26
100
AcDbVisualStyle
  2
Realistic
 70
     8
 71
     2
 72
     2
 73
     1
 90
        0
 40
-0.6
 41
-30.0
 62
     5
 63
     7
 74
     1
 91
        0
 64
     7
 65
   257
 75
     1
175
     1
 42
1.0
 92
        8
 66
     8
 43
1.0
 76
     1
 77
     6
 78
     2
 67
     7
 79
     5
170
     0
171
     0
290
     0
174
     0
 93
       13
 44
0.0
173
     0
291
     0
 45
0.0
1001
ACAD
1000
AcDbSavedByObjectVersion
1070
     0
  0
VISUALSTYLE
  5
CE
102
{ACAD_XDICTIONARY
360
173
102
}
102
{ACAD_REACTORS
330
26
102
}
330
26
100
AcDbVisualStyle
  2
Thicken
 70
    13
 71
     2
 72
     2
 73
     0
 90
        0
 40
-0.6
 41
-30.0
 62
     5
 63
     7
421
 16777215
 74
     1
 91
        4
 64
     7
 65
   257
 75
     1
175
     1
 42
1.0
 92
       12
 66
     7
 43
1.0
 76
     1
 77
     6
 78
     2
 67
     7
 79
     5
170
     0
171
     0
290
     0
174
     0
 93
        1
 44
0.0
173
     0
291
     1
 45
0.0
1001
ACAD
1000
AcDbSavedByObjectVersion
1070
     0
  0
DICTIONARYVAR
  5
154
102
{ACAD_REACTORS
330
C2
102
}
330
C2
100
DictionaryVariables
280
     0
  1
STANDARD
  0
DICTIONARYVAR
  5
C3
102
{ACAD_REACTORS
330
C2
102
}
330
C2
100
DictionaryVariables
280
     0
  1
STANDARD
  0
DICTIONARY
  5
159
330
3B
100
AcDbDictionary
280
     1
281
     1
  3
ACAD_ROUNDTRIP_2008_TABLESTYLE_CELLSTYLEMAP
360
15B
  3
ACAD_XREC_ROUNDTRIP
360
15A
  0
DICTIONARY
  5
157
330
25
100
AcDbDictionary
280
     1
281
     1
  3
ACAD_XREC_ROUNDTRIP
360
158
  0
DICTIONARY
  5
16B
330
CA
100
AcDbDictionary
280
     1
281
     1
  3
ACAD_XREC_ROUNDTRIP
360
16C
  0
DICTIONARY
  5
15F
330
3D
100
AcDbDictionary
280
     1
281
     1
  3
ACAD_XREC_ROUNDTRIP
360
160
  0
DICTIONARY
  5
169
330
C9
100
AcDbDictionary
280
     1
281
     1
  3
ACAD_XREC_ROUNDTRIP
360
16A
  0
DICTIONARY
  5
171
330
CD
100
AcDbDictionary
280
     1
281
     1
  3
ACAD_XREC_ROUNDTRIP
360
172
  0
DICTIONARY
  5
179
330
D1
100
AcDbDictionary
280
     1
281
     1
  3
ACAD_XREC_ROUNDTRIP
360
17A
  0
DICTIONARY
  5
16D
330
CB
100
AcDbDictionary
280
     1
281
     1
  3
ACAD_XREC_ROUNDTRIP
360
16E
  0
DICTIONARY
  5
16F
330
CC
100
AcDbDictionary
280
     1
281
     1
  3
ACAD_XREC_ROUNDTRIP
360
170
  0
DICTIONARY
  5
177
330
D0
100
AcDbDictionary
280
     1
281
     1
  3
ACAD_XREC_ROUNDTRIP
360
178
  0
DICTIONARY
  5
161
330
C5
100
AcDbDictionary
280
     1
281
     1
  3
ACAD_XREC_ROUNDTRIP
360
162
  0
DICTIONARY
  5
163
330
C6
100
AcDbDictionary
280
     1
281
     1
  3
ACAD_XREC_ROUNDTRIP
360
164
  0
DICTIONARY
  5
165
330
C7
100
AcDbDictionary
280
     1
281
     1
  3
ACAD_XREC_ROUNDTRIP
360
166
  0
DICTIONARY
  5
167
330
C8
100
AcDbDictionary
280
     1
281
     1
  3
ACAD_XREC_ROUNDTRIP
360
168
  0
DICTIONARY
  5
175
330
CF
100
AcDbDictionary
280
     1
281
     1
  3
ACAD_XREC_ROUNDTRIP
360
176
  0
DICTIONARY
  5
15D
330
3C
100
AcDbDictionary
280
     1
281
     1
  3
ACAD_XREC_ROUNDTRIP
360
15E
  0
DICTIONARY
  5
173
330
CE
100
AcDbDictionary
280
     1
281
     1
  3
ACAD_XREC_ROUNDTRIP
360
174
  0
CELLSTYLEMAP
  5
15B
102
{ACAD_REACTORS
330
159
102
}
330
159
100
AcDbCellStyleMap
 90
        3
300
CELLSTYLE
  1
TABLEFORMAT_BEGIN
 90
        5
170
     1
 91
        0
 92
        0
 62
   257
 93
        1
300
CONTENTFORMAT
  1
CONTENTFORMAT_BEGIN
 90
        0
 91
        0
 92
      512
 93
        0
300

 40
0.0
140
1.0
 94
        5
 62
     0
340
1C
144
6.0
309
CONTENTFORMAT_END
171
     1
301
MARGIN
  1
CELLMARGIN_BEGIN
 40
1.5
 40
1.5
 40
1.5
 40
1.5
 40
4.5
 40
4.5
309
CELLMARGIN_END
 94
        6
 95
        1
302
GRIDFORMAT
  1
GRIDFORMAT_BEGIN
 90
        0
 91
        1
 62
     0
 92
       -2
340
0
 93
        0
 40
0.045
309
GRIDFORMAT_END
 95
        2
302
GRIDFORMAT
  1
GRIDFORMAT_BEGIN
 90
        0
 91
        1
 62
     0
 92
       -2
340
0
 93
        0
 40
0.045
309
GRIDFORMAT_END
 95
        4
302
GRIDFORMAT
  1
GRIDFORMAT_BEGIN
 90
        0
 91
        1
 62
     0
 92
       -2
340
0
 93
        0
 40
0.045
309
GRIDFORMAT_END
 95
        8
302
GRIDFORMAT
  1
GRIDFORMAT_BEGIN
 90
        0
 91
        1
 62
     0
 92
       -2
340
0
 93
        0
 40
0.045
309
GRIDFORMAT_END
 95
       16
302
GRIDFORMAT
  1
GRIDFORMAT_BEGIN
 90
        0
 91
        1
 62
     0
 92
       -2
340
0
 93
        0
 40
0.045
309
GRIDFORMAT_END
 95
       32
302
GRIDFORMAT
  1
GRIDFORMAT_BEGIN
 90
        0
 91
        1
 62
     0
 92
       -2
340
0
 93
        0
 40
0.045
309
GRIDFORMAT_END
309
TABLEFORMAT_END
  1
CELLSTYLE_BEGIN
 90
        1
 91
        1
300
_TITLE
309
CELLSTYLE_END
300
CELLSTYLE
  1
TABLEFORMAT_BEGIN
 90
        5
170
     1
 91
        0
 92
        0
 62
   257
 93
        1
300
CONTENTFORMAT
  1
CONTENTFORMAT_BEGIN
 90
        0
 91
        0
 92
      512
 93
        0
300

 40
0.0
140
1.0
 94
        5
 62
     0
340
1C
144
4.5
309
CONTENTFORMAT_END
171
     1
301
MARGIN
  1
CELLMARGIN_BEGIN
 40
1.5
 40
1.5
 40
1.5
 40
1.5
 40
4.5
 40
4.5
309
CELLMARGIN_END
 94
        6
 95
        1
302
GRIDFORMAT
  1
GRIDFORMAT_BEGIN
 90
        0
 91
        1
 62
     0
 92
       -2
340
0
 93
        0
 40
0.045
309
GRIDFORMAT_END
 95
        2
302
GRIDFORMAT
  1
GRIDFORMAT_BEGIN
 90
        0
 91
        1
 62
     0
 92
       -2
340
0
 93
        0
 40
0.045
309
GRIDFORMAT_END
 95
        4
302
GRIDFORMAT
  1
GRIDFORMAT_BEGIN
 90
        0
 91
        1
 62
     0
 92
       -2
340
0
 93
        0
 40
0.045
309
GRIDFORMAT_END
 95
        8
302
GRIDFORMAT
  1
GRIDFORMAT_BEGIN
 90
        0
 91
        1
 62
     0
 92
       -2
340
0
 93
        0
 40
0.045
309
GRIDFORMAT_END
 95
       16
302
GRIDFORMAT
  1
GRIDFORMAT_BEGIN
 90
        0
 91
        1
 62
     0
 92
       -2
340
0
 93
        0
 40
0.045
309
GRIDFORMAT_END
 95
       32
302
GRIDFORMAT
  1
GRIDFORMAT_BEGIN
 90
        0
 91
        1
 62
     0
 92
       -2
340
0
 93
        0
 40
0.045
309
GRIDFORMAT_END
309
TABLEFORMAT_END
  1
CELLSTYLE_BEGIN
 90
        2
 91
        1
300
_HEADER
309
CELLSTYLE_END
300
CELLSTYLE
  1
TABLEFORMAT_BEGIN
 90
        5
170
     1
 91
        0
 92
        0
 62
   257
 93
        1
300
CONTENTFORMAT
  1
CONTENTFORMAT_BEGIN
 90
        0
 91
        0
 92
      512
 93
        0
300

 40
0.0
140
1.0
 94
        2
 62
     0
340
1C
144
4.5
309
CONTENTFORMAT_END
171
     1
301
MARGIN
  1
CELLMARGIN_BEGIN
 40
1.5
 40
1.5
 40
1.5
 40
1.5
 40
4.5
 40
4.5
309
CELLMARGIN_END
 94
        6
 95
        1
302
GRIDFORMAT
  1
GRIDFORMAT_BEGIN
 90
        0
 91
        1
 62
     0
 92
       -2
340
0
 93
        0
 40
0.045
309
GRIDFORMAT_END
 95
        2
302
GRIDFORMAT
  1
GRIDFORMAT_BEGIN
 90
        0
 91
        1
 62
     0
 92
       -2
340
0
 93
        0
 40
0.045
309
GRIDFORMAT_END
 95
        4
302
GRIDFORMAT
  1
GRIDFORMAT_BEGIN
 90
        0
 91
        1
 62
     0
 92
       -2
340
0
 93
        0
 40
0.045
309
GRIDFORMAT_END
 95
        8
302
GRIDFORMAT
  1
GRIDFORMAT_BEGIN
 90
        0
 91
        1
 62
     0
 92
       -2
340
0
 93
        0
 40
0.045
309
GRIDFORMAT_END
 95
       16
302
GRIDFORMAT
  1
GRIDFORMAT_BEGIN
 90
        0
 91
        1
 62
     0
 92
       -2
340
0
 93
        0
 40
0.045
309
GRIDFORMAT_END
 95
       32
302
GRIDFORMAT
  1
GRIDFORMAT_BEGIN
 90
        0
 91
        1
 62
     0
 92
       -2
340
0
 93
        0
 40
0.045
309
GRIDFORMAT_END
309
TABLEFORMAT_END
  1
CELLSTYLE_BEGIN
 90
        3
 91
        2
300
_DATA
309
CELLSTYLE_END
  0
XRECORD
  5
15A
102
{ACAD_REACTORS
330
159
102
}
330
159
100
AcDbXrecord
280
     1
102
ACAD_ROUNDTRIP_PRE2007_TABLESTYLE
 90
      512
 91
        0
  1

 92
      512
 93
        0
  2

 94
      512
 95
        0
  3

  0
XRECORD
  5
158
102
{ACAD_REACTORS
330
157
102
}
330
157
100
AcDbXrecord
280
     1
102
RTVSPropertyOp0
 70
     1
102
RTVSPropertyOp1
 70
     1
102
RTVSPropertyOp2
 70
     1
102
RTVSPropertyOp3
 70
     1
102
RTVSPropertyOp4
 70
     1
102
RTVSPropertyOp5
 70
     1
102
RTVSPropertyOp6
 70
     1
102
RTVSPropertyOp7
 70
     1
102
RTVSPropertyOp8
 70
     1
102
RTVSPropertyOp9
 70
     1
102
RTVSPropertyOp10
 70
     1
102
RTVSPropertyOp11
 70
     1
102
RTVSPropertyOp12
 70
     1
102
RTVSPropertyOp13
 70
     1
102
RTVSPropertyOp14
 70
     1
102
RTVSPropertyOp15
 70
     1
102
RTVSPropertyOp16
 70
     1
102
RTVSPropertyOp17
 70
     1
102
RTVSPropertyOp18
 70
     1
102
RTVSPropertyOp19
 70
     1
102
RTVSPropertyOp20
 70
     1
102
RTVSPropertyOp21
 70
     1
102
RTVSPropertyOp22
 70
     1
102
RTVSPropertyOp23
 70
     1
102
RTVSPropertyOp24
 70
     1
102
RTVSPropertyOp25
 70
     1
102
RTVSPropertyOp26
 70
     1
102
RTVSPropertyOp27
 70
     1
  0
XRECORD
  5
16C
102
{ACAD_REACTORS
330
16B
102
}
330
16B
100
AcDbXrecord
280
     1
102
RTVSPropertyOp0
 70
     1
102
RTVSPropertyOp1
 70
     1
102
RTVSPropertyOp2
 70
     1
102
RTVSPropertyOp3
 70
     1
102
RTVSPropertyOp4
 70
     1
102
RTVSPropertyOp5
 70
     1
102
RTVSPropertyOp6
 70
     1
102
RTVSPropertyOp7
 70
     1
102
RTVSPropertyOp8
 70
     1
102
RTVSPropertyOp9
 70
     1
102
RTVSPropertyOp10
 70
     1
102
RTVSPropertyOp11
 70
     1
102
RTVSPropertyOp12
 70
     1
102
RTVSPropertyOp13
 70
     1
102
RTVSPropertyOp14
 70
     1
102
RTVSPropertyOp15
 70
     1
102
RTVSPropertyOp16
 70
     1
102
RTVSPropertyOp17
 70
     1
102
RTVSPropertyOp18
 70
     1
102
RTVSPropertyOp19
 70
     1
102
RTVSPropertyOp20
 70
     1
102
RTVSPropertyOp21
 70
     1
102
RTVSPropertyOp22
 70
     1
102
RTVSPropertyOp23
 70
     1
102
RTVSPropertyOp24
 70
     1
102
RTVSPropertyOp25
 70
     1
102
RTVSPropertyOp26
 70
     1
102
RTVSPropertyOp27
 70
     1
  0
XRECORD
  5
160
102
{ACAD_REACTORS
330
15F
102
}
330
15F
100
AcDbXrecord
280
     1
102
RTVSPropertyOp0
 70
     1
102
RTVSPropertyOp1
 70
     1
102
RTVSPropertyOp2
 70
     1
102
RTVSPropertyOp3
 70
     1
102
RTVSPropertyOp4
 70
     1
102
RTVSPropertyOp5
 70
     1
102
RTVSPropertyOp6
 70
     1
102
RTVSPropertyOp7
 70
     1
102
RTVSPropertyOp8
 70
     1
102
RTVSPropertyOp9
 70
     1
102
RTVSPropertyOp10
 70
     1
102
RTVSPropertyOp11
 70
     1
102
RTVSPropertyOp12
 70
     1
102
RTVSPropertyOp13
 70
     1
102
RTVSPropertyOp14
 70
     1
102
RTVSPropertyOp15
 70
     1
102
RTVSPropertyOp16
 70
     1
102
RTVSPropertyOp17
 70
     1
102
RTVSPropertyOp18
 70
     1
102
RTVSPropertyOp19
 70
     1
102
RTVSPropertyOp20
 70
     1
102
RTVSPropertyOp21
 70
     1
102
RTVSPropertyOp22
 70
     1
102
RTVSPropertyOp23
 70
     1
102
RTVSPropertyOp24
 70
     1
102
RTVSPropertyOp25
 70
     1
102
RTVSPropertyOp26
 70
     1
102
RTVSPropertyOp27
 70
     1
  0
XRECORD
  5
16A
102
{ACAD_REACTORS
330
169
102
}
330
169
100
AcDbXrecord
280
     1
102
RTVSPropertyOp0
 70
     1
102
RTVSPropertyOp1
 70
     1
102
RTVSPropertyOp2
 70
     1
102
RTVSPropertyOp3
 70
     1
102
RTVSPropertyOp4
 70
     1
102
RTVSPropertyOp5
 70
     1
102
RTVSPropertyOp6
 70
     1
102
RTVSPropertyOp7
 70
     1
102
RTVSPropertyOp8
 70
     1
102
RTVSPropertyOp9
 70
     1
102
RTVSPropertyOp10
 70
     1
102
RTVSPropertyOp11
 70
     1
102
RTVSPropertyOp12
 70
     1
102
RTVSPropertyOp13
 70
     1
102
RTVSPropertyOp14
 70
     1
102
RTVSPropertyOp15
 70
     1
102
RTVSPropertyOp16
 70
     1
102
RTVSPropertyOp17
 70
     1
102
RTVSPropertyOp18
 70
     1
102
RTVSPropertyOp19
 70
     1
102
RTVSPropertyOp20
 70
     1
102
RTVSPropertyOp21
 70
     1
102
RTVSPropertyOp22
 70
     1
102
RTVSPropertyOp23
 70
     1
102
RTVSPropertyOp24
 70
     1
102
RTVSPropertyOp25
 70
     1
102
RTVSPropertyOp26
 70
     1
102
RTVSPropertyOp27
 70
     1
  0
XRECORD
  5
172
102
{ACAD_REACTORS
330
171
102
}
330
171
100
AcDbXrecord
280
     1
102
RTVSPropertyOp0
 70
     1
102
RTVSPropertyOp1
 70
     1
102
RTVSPropertyOp2
 70
     1
102
RTVSPropertyOp3
 70
     1
102
RTVSPropertyOp4
 70
     1
102
RTVSPropertyOp5
 70
     1
102
RTVSPropertyOp6
 70
     1
102
RTVSPropertyOp7
 70
     1
102
RTVSPropertyOp8
 70
     1
102
RTVSPropertyOp9
 70
     1
102
RTVSPropertyOp10
 70
     1
102
RTVSPropertyOp11
 70
     1
102
RTVSPropertyOp12
 70
     1
102
RTVSPropertyOp13
 70
     1
102
RTVSPropertyOp14
 70
     1
102
RTVSPropertyOp15
 70
     1
102
RTVSPropertyOp16
 70
     1
102
RTVSPropertyOp17
 70
     1
102
RTVSPropertyOp18
 70
     1
102
RTVSPropertyOp19
 70
     1
102
RTVSPropertyOp20
 70
     1
102
RTVSPropertyOp21
 70
     1
102
RTVSPropertyOp22
 70
     1
102
RTVSPropertyOp23
 70
     1
102
RTVSPropertyOp24
 70
     1
102
RTVSPropertyOp25
 70
     1
102
RTVSPropertyOp26
 70
     1
102
RTVSPropertyOp27
 70
     1
  0
XRECORD
  5
17A
102
{ACAD_REACTORS
330
179
102
}
330
179
100
AcDbXrecord
280
     1
102
RTVSPropertyOp0
 70
     1
102
RTVSPropertyOp1
 70
     1
102
RTVSPropertyOp2
 70
     1
102
RTVSPropertyOp3
 70
     1
102
RTVSPropertyOp4
 70
     1
102
RTVSPropertyOp5
 70
     1
102
RTVSPropertyOp6
 70
     1
102
RTVSPropertyOp7
 70
     1
102
RTVSPropertyOp8
 70
     1
102
RTVSPropertyOp9
 70
     1
102
RTVSPropertyOp10
 70
     1
102
RTVSPropertyOp11
 70
     1
102
RTVSPropertyOp12
 70
     1
102
RTVSPropertyOp13
 70
     1
102
RTVSPropertyOp14
 70
     1
102
RTVSPropertyOp15
 70
     1
102
RTVSPropertyOp16
 70
     1
102
RTVSPropertyOp17
 70
     1
102
RTVSPropertyOp18
 70
     1
102
RTVSPropertyOp19
 70
     1
102
RTVSPropertyOp20
 70
     1
102
RTVSPropertyOp21
 70
     1
102
RTVSPropertyOp22
 70
     1
102
RTVSPropertyOp23
 70
     1
102
RTVSPropertyOp24
 70
     1
102
RTVSPropertyOp25
 70
     1
102
RTVSPropertyOp26
 70
     1
102
RTVSPropertyOp27
 70
     1
  0
XRECORD
  5
16E
102
{ACAD_REACTORS
330
16D
102
}
330
16D
100
AcDbXrecord
280
     1
102
RTVSPropertyOp0
 70
     1
102
RTVSPropertyOp1
 70
     1
102
RTVSPropertyOp2
 70
     1
102
RTVSPropertyOp3
 70
     1
102
RTVSPropertyOp4
 70
     1
102
RTVSPropertyOp5
 70
     1
102
RTVSPropertyOp6
 70
     1
102
RTVSPropertyOp7
 70
     1
102
RTVSPropertyOp8
 70
     1
102
RTVSPropertyOp9
 70
     1
102
RTVSPropertyOp10
 70
     1
102
RTVSPropertyOp11
 70
     1
102
RTVSPropertyOp12
 70
     1
102
RTVSPropertyOp13
 70
     1
102
RTVSPropertyOp14
 70
     1
102
RTVSPropertyOp15
 70
     1
102
RTVSPropertyOp16
 70
     1
102
RTVSPropertyOp17
 70
     1
102
RTVSPropertyOp18
 70
     1
102
RTVSPropertyOp19
 70
     1
102
RTVSPropertyOp20
 70
     1
102
RTVSPropertyOp21
 70
     1
102
RTVSPropertyOp22
 70
     1
102
RTVSPropertyOp23
 70
     1
102
RTVSPropertyOp24
 70
     1
102
RTVSPropertyOp25
 70
     1
102
RTVSPropertyOp26
 70
     1
102
RTVSPropertyOp27
 70
     1
  0
XRECORD
  5
170
102
{ACAD_REACTORS
330
16F
102
}
330
16F
100
AcDbXrecord
280
     1
102
RTVSPropertyOp0
 70
     1
102
RTVSPropertyOp1
 70
     1
102
RTVSPropertyOp2
 70
     1
102
RTVSPropertyOp3
 70
     1
102
RTVSPropertyOp4
 70
     1
102
RTVSPropertyOp5
 70
     1
102
RTVSPropertyOp6
 70
     1
102
RTVSPropertyOp7
 70
     1
102
RTVSPropertyOp8
 70
     1
102
RTVSPropertyOp9
 70
     1
102
RTVSPropertyOp10
 70
     1
102
RTVSPropertyOp11
 70
     1
102
RTVSPropertyOp12
 70
     1
102
RTVSPropertyOp13
 70
     1
102
RTVSPropertyOp14
 70
     1
102
RTVSPropertyOp15
 70
     1
102
RTVSPropertyOp16
 70
     1
102
RTVSPropertyOp17
 70
     1
102
RTVSPropertyOp18
 70
     1
102
RTVSPropertyOp19
 70
     1
102
RTVSPropertyOp20
 70
     1
102
RTVSPropertyOp21
 70
     1
102
RTVSPropertyOp22
 70
     1
102
RTVSPropertyOp23
 70
     1
102
RTVSPropertyOp24
 70
     1
102
RTVSPropertyOp25
 70
     1
102
RTVSPropertyOp26
 70
     1
102
RTVSPropertyOp27
 70
     1
  0
XRECORD
  5
178
102
{ACAD_REACTORS
330
177
102
}
330
177
100
AcDbXrecord
280
     1
102
RTVSPropertyOp0
 70
     1
102
RTVSPropertyOp1
 70
     1
102
RTVSPropertyOp2
 70
     1
102
RTVSPropertyOp3
 70
     1
102
RTVSPropertyOp4
 70
     1
102
RTVSPropertyOp5
 70
     1
102
RTVSPropertyOp6
 70
     1
102
RTVSPropertyOp7
 70
     1
102
RTVSPropertyOp8
 70
     1
102
RTVSPropertyOp9
 70
     1
102
RTVSPropertyOp10
 70
     1
102
RTVSPropertyOp11
 70
     1
102
RTVSPropertyOp12
 70
     1
102
RTVSPropertyOp13
 70
     1
102
RTVSPropertyOp14
 70
     1
102
RTVSPropertyOp15
 70
     1
102
RTVSPropertyOp16
 70
     1
102
RTVSPropertyOp17
 70
     1
102
RTVSPropertyOp18
 70
     1
102
RTVSPropertyOp19
 70
     1
102
RTVSPropertyOp20
 70
     1
102
RTVSPropertyOp21
 70
     1
102
RTVSPropertyOp22
 70
     1
102
RTVSPropertyOp23
 70
     1
102
RTVSPropertyOp24
 70
     1
102
RTVSPropertyOp25
 70
     1
102
RTVSPropertyOp26
 70
     1
102
RTVSPropertyOp27
 70
     1
  0
XRECORD
  5
162
102
{ACAD_REACTORS
330
161
102
}
330
161
100
AcDbXrecord
280
     1
102
RTVSPropertyOp0
 70
     1
102
RTVSPropertyOp1
 70
     1
102
RTVSPropertyOp2
 70
     1
102
RTVSPropertyOp3
 70
     1
102
RTVSPropertyOp4
 70
     1
102
RTVSPropertyOp5
 70
     1
102
RTVSPropertyOp6
 70
     1
102
RTVSPropertyOp7
 70
     1
102
RTVSPropertyOp8
 70
     1
102
RTVSPropertyOp9
 70
     1
102
RTVSPropertyOp10
 70
     1
102
RTVSPropertyOp11
 70
     1
102
RTVSPropertyOp12
 70
     1
102
RTVSPropertyOp13
 70
     1
102
RTVSPropertyOp14
 70
     1
102
RTVSPropertyOp15
 70
     1
102
RTVSPropertyOp16
 70
     1
102
RTVSPropertyOp17
 70
     1
102
RTVSPropertyOp18
 70
     1
102
RTVSPropertyOp19
 70
     1
102
RTVSPropertyOp20
 70
     1
102
RTVSPropertyOp21
 70
     1
102
RTVSPropertyOp22
 70
     1
102
RTVSPropertyOp23
 70
     1
102
RTVSPropertyOp24
 70
     1
102
RTVSPropertyOp25
 70
     1
102
RTVSPropertyOp26
 70
     1
102
RTVSPropertyOp27
 70
     1
  0
XRECORD
  5
164
102
{ACAD_REACTORS
330
163
102
}
330
163
100
AcDbXrecord
280
     1
102
RTVSPropertyOp0
 70
     1
102
RTVSPropertyOp1
 70
     1
102
RTVSPropertyOp2
 70
     1
102
RTVSPropertyOp3
 70
     1
102
RTVSPropertyOp4
 70
     1
102
RTVSPropertyOp5
 70
     1
102
RTVSPropertyOp6
 70
     1
102
RTVSPropertyOp7
 70
     1
102
RTVSPropertyOp8
 70
     1
102
RTVSPropertyOp9
 70
     1
102
RTVSPropertyOp10
 70
     1
102
RTVSPropertyOp11
 70
     1
102
RTVSPropertyOp12
 70
     1
102
RTVSPropertyOp13
 70
     1
102
RTVSPropertyOp14
 70
     1
102
RTVSPropertyOp15
 70
     1
102
RTVSPropertyOp16
 70
     1
102
RTVSPropertyOp17
 70
     1
102
RTVSPropertyOp18
 70
     1
102
RTVSPropertyOp19
 70
     1
102
RTVSPropertyOp20
 70
     1
102
RTVSPropertyOp21
 70
     1
102
RTVSPropertyOp22
 70
     1
102
RTVSPropertyOp23
 70
     1
102
RTVSPropertyOp24
 70
     1
102
RTVSPropertyOp25
 70
     1
102
RTVSPropertyOp26
 70
     1
102
RTVSPropertyOp27
 70
     1
  0
XRECORD
  5
166
102
{ACAD_REACTORS
330
165
102
}
330
165
100
AcDbXrecord
280
     1
102
RTVSPropertyOp0
 70
     1
102
RTVSPropertyOp1
 70
     1
102
RTVSPropertyOp2
 70
     1
102
RTVSPropertyOp3
 70
     1
102
RTVSPropertyOp4
 70
     1
102
RTVSPropertyOp5
 70
     1
102
RTVSPropertyOp6
 70
     1
102
RTVSPropertyOp7
 70
     1
102
RTVSPropertyOp8
 70
     1
102
RTVSPropertyOp9
 70
     1
102
RTVSPropertyOp10
 70
     1
102
RTVSPropertyOp11
 70
     1
102
RTVSPropertyOp12
 70
     1
102
RTVSPropertyOp13
 70
     1
102
RTVSPropertyOp14
 70
     1
102
RTVSPropertyOp15
 70
     1
102
RTVSPropertyOp16
 70
     1
102
RTVSPropertyOp17
 70
     1
102
RTVSPropertyOp18
 70
     1
102
RTVSPropertyOp19
 70
     1
102
RTVSPropertyOp20
 70
     1
102
RTVSPropertyOp21
 70
     1
102
RTVSPropertyOp22
 70
     1
102
RTVSPropertyOp23
 70
     1
102
RTVSPropertyOp24
 70
     1
102
RTVSPropertyOp25
 70
     1
102
RTVSPropertyOp26
 70
     1
102
RTVSPropertyOp27
 70
     1
  0
XRECORD
  5
168
102
{ACAD_REACTORS
330
167
102
}
330
167
100
AcDbXrecord
280
     1
102
RTVSPropertyOp0
 70
     1
102
RTVSPropertyOp1
 70
     1
102
RTVSPropertyOp2
 70
     1
102
RTVSPropertyOp3
 70
     1
102
RTVSPropertyOp4
 70
     1
102
RTVSPropertyOp5
 70
     1
102
RTVSPropertyOp6
 70
     1
102
RTVSPropertyOp7
 70
     1
102
RTVSPropertyOp8
 70
     1
102
RTVSPropertyOp9
 70
     1
102
RTVSPropertyOp10
 70
     1
102
RTVSPropertyOp11
 70
     1
102
RTVSPropertyOp12
 70
     1
102
RTVSPropertyOp13
 70
     1
102
RTVSPropertyOp14
 70
     1
102
RTVSPropertyOp15
 70
     1
102
RTVSPropertyOp16
 70
     1
102
RTVSPropertyOp17
 70
     1
102
RTVSPropertyOp18
 70
     1
102
RTVSPropertyOp19
 70
     1
102
RTVSPropertyOp20
 70
     1
102
RTVSPropertyOp21
 70
     1
102
RTVSPropertyOp22
 70
     1
102
RTVSPropertyOp23
 70
     1
102
RTVSPropertyOp24
 70
     1
102
RTVSPropertyOp25
 70
     1
102
RTVSPropertyOp26
 70
     1
102
RTVSPropertyOp27
 70
     1
  0
XRECORD
  5
176
102
{ACAD_REACTORS
330
175
102
}
330
175
100
AcDbXrecord
280
     1
102
RTVSPropertyOp0
 70
     1
102
RTVSPropertyOp1
 70
     1
102
RTVSPropertyOp2
 70
     1
102
RTVSPropertyOp3
 70
     1
102
RTVSPropertyOp4
 70
     1
102
RTVSPropertyOp5
 70
     1
102
RTVSPropertyOp6
 70
     1
102
RTVSPropertyOp7
 70
     1
102
RTVSPropertyOp8
 70
     1
102
RTVSPropertyOp9
 70
     1
102
RTVSPropertyOp10
 70
     1
102
RTVSPropertyOp11
 70
     1
102
RTVSPropertyOp12
 70
     1
102
RTVSPropertyOp13
 70
     1
102
RTVSPropertyOp14
 70
     1
102
RTVSPropertyOp15
 70
     1
102
RTVSPropertyOp16
 70
     1
102
RTVSPropertyOp17
 70
     1
102
RTVSPropertyOp18
 70
     1
102
RTVSPropertyOp19
 70
     1
102
RTVSPropertyOp20
 70
     1
102
RTVSPropertyOp21
 70
     1
102
RTVSPropertyOp22
 70
     1
102
RTVSPropertyOp23
 70
     1
102
RTVSPropertyOp24
 70
     1
102
RTVSPropertyOp25
 70
     1
102
RTVSPropertyOp26
 70
     1
102
RTVSPropertyOp27
 70
     1
  0
XRECORD
  5
15E
102
{ACAD_REACTORS
330
15D
102
}
330
15D
100
AcDbXrecord
280
     1
102
RTVSPropertyOp0
 70
     1
102
RTVSPropertyOp1
 70
     1
102
RTVSPropertyOp2
 70
     1
102
RTVSPropertyOp3
 70
     1
102
RTVSPropertyOp4
 70
     1
102
RTVSPropertyOp5
 70
     1
102
RTVSPropertyOp6
 70
     1
102
RTVSPropertyOp7
 70
     1
102
RTVSPropertyOp8
 70
     1
102
RTVSPropertyOp9
 70
     1
102
RTVSPropertyOp10
 70
     1
102
RTVSPropertyOp11
 70
     1
102
RTVSPropertyOp12
 70
     1
102
RTVSPropertyOp13
 70
     1
102
RTVSPropertyOp14
 70
     1
102
RTVSPropertyOp15
 70
     1
102
RTVSPropertyOp16
 70
     1
102
RTVSPropertyOp17
 70
     1
102
RTVSPropertyOp18
 70
     1
102
RTVSPropertyOp19
 70
     1
102
RTVSPropertyOp20
 70
     1
102
RTVSPropertyOp21
 70
     1
102
RTVSPropertyOp22
 70
     1
102
RTVSPropertyOp23
 70
     1
102
RTVSPropertyOp24
 70
     1
102
RTVSPropertyOp25
 70
     1
102
RTVSPropertyOp26
 70
     1
102
RTVSPropertyOp27
 70
     1
  0
XRECORD
  5
174
102
{ACAD_REACTORS
330
173
102
}
330
173
100
AcDbXrecord
280
     1
102
RTVSPropertyOp0
 70
     1
102
RTVSPropertyOp1
 70
     1
102
RTVSPropertyOp2
 70
     1
102
RTVSPropertyOp3
 70
     1
102
RTVSPropertyOp4
 70
     1
102
RTVSPropertyOp5
 70
     1
102
RTVSPropertyOp6
 70
     1
102
RTVSPropertyOp7
 70
     1
102
RTVSPropertyOp8
 70
     1
102
RTVSPropertyOp9
 70
     1
102
RTVSPropertyOp10
 70
     1
102
RTVSPropertyOp11
 70
     1
102
RTVSPropertyOp12
 70
     1
102
RTVSPropertyOp13
 70
     1
102
RTVSPropertyOp14
 70
     1
102
RTVSPropertyOp15
 70
     1
102
RTVSPropertyOp16
 70
     1
102
RTVSPropertyOp17
 70
     1
102
RTVSPropertyOp18
 70
     1
102
RTVSPropertyOp19
 70
     1
102
RTVSPropertyOp20
 70
     1
102
RTVSPropertyOp21
 70
     1
102
RTVSPropertyOp22
 70
     1
102
RTVSPropertyOp23
 70
     1
102
RTVSPropertyOp24
 70
     1
102
RTVSPropertyOp25
 70
     1
102
RTVSPropertyOp26
 70
     1
102
RTVSPropertyOp27
 70
     1
  0
ENDSEC
  0
EOF
