  0
SECTION
  2
HEADER
  9
$ACADVER
  1
AC1018
  9
$ACADMAINTVER
 70
   104
  9
$DWGCODEPAGE
  3
ANSI_936
  9
$LASTSAVEDBY
  1
chaxiu.zhu
  9
$INSBASE
 10
0.0
 20
0.0
 30
0.0
  9
$EXTMIN
 10
23159.56528761649
 20
-6376.923687639637
 30
-0.00000001
  9
$EXTMAX
 10
24474.55210963005
 20
-5156.859151289817
 30
0.00000001
  9
$LIMMIN
 10
0.0
 20
0.0
  9
$LIMMAX
 10
420.0
 20
297.0
  9
$ORTHOMODE
 70
     1
  9
$REGENMODE
 70
     1
  9
$FILLMODE
 70
     1
  9
$QTEXTMODE
 70
     0
  9
$MIRRTEXT
 70
     0
  9
$LTSCALE
 40
1.0
  9
$ATTMODE
 70
     1
  9
$TEXTSIZE
 40
2.5
  9
$TRACEWID
 40
1.0
  9
$TEXTSTYLE
  7
Standard
  9
$CLAYER
  8
轮廓线.
  9
$CELTYPE
  6
ByLayer
  9
$CECOLOR
 62
     6
  9
$CELTSCALE
 40
1.0
  9
$DISPSILH
 70
     0
  9
$DIMSCALE
 40
9.0
  9
$DIMASZ
 40
1.5
  9
$DIMEXO
 40
0.625
  9
$DIMDLI
 40
3.75
  9
$DIMRND
 40
0.0
  9
$DIMDLE
 40
0.0
  9
$DIMEXE
 40
0.5
  9
$DIMTP
 40
0.0
  9
$DIMTM
 40
0.0
  9
$DIMTXT
 40
2.5
  9
$DIMCEN
 40
2.5
  9
$DIMTSZ
 40
0.0
  9
$DIMTOL
 70
     0
  9
$DIMLIM
 70
     0
  9
$DIMTIH
 70
     0
  9
$DIMTOH
 70
     1
  9
$DIMSE1
 70
     0
  9
$DIMSE2
 70
     0
  9
$DIMTAD
 70
     1
  9
$DIMZIN
 70
     8
  9
$DIMBLK
  1

  9
$DIMASO
 70
     1
  9
$DIMSHO
 70
     1
  9
$DIMPOST
  1

  9
$DIMAPOST
  1

  9
$DIMALT
 70
     0
  9
$DIMALTD
 70
     3
  9
$DIMALTF
 40
0.03937007874016
  9
$DIMLFAC
 40
1.0
  9
$DIMTOFL
 70
     1
  9
$DIMTVP
 40
0.0
  9
$DIMTIX
 70
     0
  9
$DIMSOXD
 70
     0
  9
$DIMSAH
 70
     0
  9
$DIMBLK1
  1

  9
$DIMBLK2
  1

  9
$DIMSTYLE
  2
ISO-25
  9
$DIMCLRD
 70
     0
  9
$DIMCLRE
 70
     0
  9
$DIMCLRT
 70
     0
  9
$DIMTFAC
 40
1.0
  9
$DIMGAP
 40
0.3
  9
$DIMJUST
 70
     0
  9
$DIMSD1
 70
     0
  9
$DIMSD2
 70
     0
  9
$DIMTOLJ
 70
     0
  9
$DIMTZIN
 70
     8
  9
$DIMALTZ
 70
     0
  9
$DIMALTTZ
 70
     0
  9
$DIMUPT
 70
     0
  9
$DIMDEC
 70
     0
  9
$DIMTDEC
 70
     0
  9
$DIMALTU
 70
     2
  9
$DIMALTTD
 70
     3
  9
$DIMTXSTY
  7
Standard
  9
$DIMAUNIT
 70
     0
  9
$DIMADEC
 70
     0
  9
$DIMALTRND
 40
0.0
  9
$DIMAZIN
 70
     0
  9
$DIMDSEP
 70
    46
  9
$DIMATFIT
 70
     3
  9
$DIMFRAC
 70
     0
  9
$DIMLDRBLK
  1

  9
$DIMLUNIT
 70
     2
  9
$DIMLWD
 70
    -2
  9
$DIMLWE
 70
    -2
  9
$DIMTMOVE
 70
     0
  9
$LUNITS
 70
     2
  9
$LUPREC
 70
     4
  9
$SKETCHINC
 40
1.0
  9
$FILLETRAD
 40
5.0
  9
$AUNITS
 70
     0
  9
$AUPREC
 70
     0
  9
$MENU
  1
.
  9
$ELEVATION
 40
0.0
  9
$PELEVATION
 40
0.0
  9
$THICKNESS
 40
0.0
  9
$LIMCHECK
 70
     0
  9
$CHAMFERA
 40
0.0
  9
$CHAMFERB
 40
0.0
  9
$CHAMFERC
 40
0.0
  9
$CHAMFERD
 40
0.0
  9
$SKPOLY
 70
     0
  9
$TDCREATE
 40
2455843.370532037
  9
$TDUCREATE
 40
2455843.037198704
  9
$TDUPDATE
 40
2458858.633482431
  9
$TDUUPDATE
 40
2458858.300149097
  9
$TDINDWG
 40
3.1945788657
  9
$TDUSRTIMER
 40
3.1945786921
  9
$USRTIMER
 70
     1
  9
$ANGBASE
 50
0.0
  9
$ANGDIR
 70
     0
  9
$PDMODE
 70
     0
  9
$PDSIZE
 40
0.0
  9
$PLINEWID
 40
0.0
  9
$SPLFRAME
 70
     0
  9
$SPLINETYPE
 70
     6
  9
$SPLINESEGS
 70
     8
  9
$HANDSEED
  5
346
  9
$SURFTAB1
 70
     6
  9
$SURFTAB2
 70
     6
  9
$SURFTYPE
 70
     6
  9
$SURFU
 70
     6
  9
$SURFV
 70
     6
  9
$UCSBASE
  2

  9
$UCSNAME
  2

  9
$UCSORG
 10
0.0
 20
0.0
 30
0.0
  9
$UCSXDIR
 10
1.0
 20
0.0
 30
0.0
  9
$UCSYDIR
 10
0.0
 20
1.0
 30
0.0
  9
$UCSORTHOREF
  2

  9
$UCSORTHOVIEW
 70
     0
  9
$UCSORGTOP
 10
0.0
 20
0.0
 30
0.0
  9
$UCSORGBOTTOM
 10
0.0
 20
0.0
 30
0.0
  9
$UCSORGLEFT
 10
0.0
 20
0.0
 30
0.0
  9
$UCSORGRIGHT
 10
0.0
 20
0.0
 30
0.0
  9
$UCSORGFRONT
 10
0.0
 20
0.0
 30
0.0
  9
$UCSORGBACK
 10
0.0
 20
0.0
 30
0.0
  9
$PUCSBASE
  2

  9
$PUCSNAME
  2

  9
$PUCSORG
 10
0.0
 20
0.0
 30
0.0
  9
$PUCSXDIR
 10
1.0
 20
0.0
 30
0.0
  9
$PUCSYDIR
 10
0.0
 20
1.0
 30
0.0
  9
$PUCSORTHOREF
  2

  9
$PUCSORTHOVIEW
 70
     0
  9
$PUCSORGTOP
 10
0.0
 20
0.0
 30
0.0
  9
$PUCSORGBOTTOM
 10
0.0
 20
0.0
 30
0.0
  9
$PUCSORGLEFT
 10
0.0
 20
0.0
 30
0.0
  9
$PUCSORGRIGHT
 10
0.0
 20
0.0
 30
0.0
  9
$PUCSORGFRONT
 10
0.0
 20
0.0
 30
0.0
  9
$PUCSORGBACK
 10
0.0
 20
0.0
 30
0.0
  9
$USERI1
 70
     0
  9
$USERI2
 70
     0
  9
$USERI3
 70
     0
  9
$USERI4
 70
     0
  9
$USERI5
 70
     0
  9
$USERR1
 40
0.0
  9
$USERR2
 40
0.0
  9
$USERR3
 40
0.0
  9
$USERR4
 40
0.0
  9
$USERR5
 40
2.5
  9
$WORLDVIEW
 70
     1
  9
$SHADEDGE
 70
     3
  9
$SHADEDIF
 70
    70
  9
$TILEMODE
 70
     1
  9
$MAXACTVP
 70
    64
  9
$PINSBASE
 10
0.0
 20
0.0
 30
0.0
  9
$PLIMCHECK
 70
     0
  9
$PEXTMIN
 10
25.69999999999999
 20
19.5
 30
0.0
  9
$PEXTMAX
 10
231.3
 20
175.5
 30
0.0
  9
$PLIMMIN
 10
-20.0
 20
-7.5
  9
$PLIMMAX
 10
277.0
 20
202.5
  9
$UNITMODE
 70
     0
  9
$VISRETAIN
 70
     1
  9
$PLINEGEN
 70
     0
  9
$PSLTSCALE
 70
     1
  9
$TREEDEPTH
 70
  3020
  9
$CMLSTYLE
  2
Standard
  9
$CMLJUST
 70
     0
  9
$CMLSCALE
 40
20.0
  9
$PROXYGRAPHICS
 70
     1
  9
$MEASUREMENT
 70
     1
  9
$CELWEIGHT
370
    -1
  9
$ENDCAPS
280
     0
  9
$JOINSTYLE
280
     0
  9
$LWDISPLAY
290
     0
  9
$INSUNITS
 70
     4
  9
$HYPERLINKBASE
  1

  9
$STYLESHEET
  1

  9
$XEDIT
290
     1
  9
$CEPSNTYPE
380
     0
  9
$PSTYLEMODE
290
     1
  9
$FINGERPRINTGUID
  2
{E1824247-F971-4B98-8C76-F0EE1F791E28}
  9
$VERSIONGUID
  2
{3F9AB931-4080-41C7-A4F8-4E0E33A7B424}
  9
$EXTNAMES
290
     1
  9
$PSVPSCALE
 40
0.0
  9
$OLESTARTUP
290
     0
  9
$SORTENTS
280
   127
  9
$INDEXCTL
280
     0
  9
$HIDETEXT
280
     1
  9
$XCLIPFRAME
290
     0
  9
$HALOGAP
280
     0
  9
$OBSCOLOR
 70
   257
  9
$OBSLTYPE
280
     0
  9
$INTERSECTIONDISPLAY
280
     0
  9
$INTERSECTIONCOLOR
 70
   257
  9
$DIMASSOC
280
     2
  9
$PROJECTNAME
  1

  0
ENDSEC
  0
SECTION
  2
CLASSES
  0
CLASS
  1
ACDBDICTIONARYWDFLT
  2
AcDbDictionaryWithDefault
  3
ObjectDBX Classes
 90
        0
 91
        1
280
     0
281
     0
  0
CLASS
  1
DICTIONARYVAR
  2
AcDbDictionaryVar
  3
ObjectDBX Classes
 90
        0
 91
        2
280
     0
281
     0
  0
CLASS
  1
TABLESTYLE
  2
AcDbTableStyle
  3
ObjectDBX Classes
 90
     4095
 91
        1
280
     0
281
     0
  0
CLASS
  1
MATERIAL
  2
AcDbMaterial
  3
ObjectDBX Classes
 90
        0
 91
        3
280
     0
281
     0
  0
CLASS
  1
VISUALSTYLE
  2
AcDbVisualStyle
  3
ObjectDBX Classes
 90
     4095
 91
       16
280
     0
281
     0
  0
CLASS
  1
VLO-VL
  2
vlo_VL
  3
VL|AutoLISP based application
 90
        0
 91
        0
280
     0
281
     0
  0
CLASS
  1
SORTENTSTABLE
  2
AcDbSortentsTable
  3
ObjectDBX Classes
 90
        0
 91
        1
280
     0
281
     0
  0
CLASS
  1
DIMASSOC
  2
AcDbDimAssoc
  3
"ZcDbDimAssoc|Product Desc:     ZwDim ZRX App For Dimension|Company:          ZwSoft.|WEB Address:      www.zwsoft.com"
 90
        0
 91
        0
280
     0
281
     0
  0
CLASS
  1
SCALE
  2
AcDbScale
  3
ObjectDBX Classes
 90
     1153
 91
       33
280
     0
281
     0
  0
CLASS
  1
MLEADERSTYLE
  2
AcDbMLeaderStyle
  3
ACDB_MLEADERSTYLE_CLASS
 90
     4095
 91
        1
280
     0
281
     0
  0
CLASS
  1
CELLSTYLEMAP
  2
AcDbCellStyleMap
  3
ObjectDBX Classes
 90
     1152
 91
        1
280
     0
281
     0
  0
ENDSEC
  0
SECTION
  2
TABLES
  0
TABLE
  2
VPORT
  5
25
102
{ACAD_XDICTIONARY
360
29
102
}
330
0
100
AcDbSymbolTable
 70
     2
  0
VPORT
  5
31F
330
25
100
AcDbSymbolTableRecord
100
AcDbViewportTableRecord
  2
*Active
 70
     0
 10
0.0
 20
0.0
 11
1.0
 21
1.0
 12
24864.68609665723
 22
-5849.988268571259
 13
0.0
 23
0.0
 14
10.0
 24
10.0
 15
10.0
 25
10.0
 16
0.0
 26
0.0
 36
1.0
 17
0.0
 27
0.0
 37
0.0
 40
3275.412160011859
 41
1.857503152585119
 42
50.0
 43
0.0
 44
0.0
 50
0.0
 51
0.0
 71
     0
 72
 10000
 73
     1
 74
     3
 75
     0
 76
     0
 77
     0
 78
     0
281
     0
 65
     1
110
0.0
120
0.0
130
0.0
111
1.0
121
0.0
131
0.0
112
0.0
122
1.0
132
0.0
 79
     0
146
0.0
  0
ENDTAB
  0
TABLE
  2
LTYPE
  5
20
330
0
100
AcDbSymbolTable
 70
     1
  0
LTYPE
  5
21
330
20
100
AcDbSymbolTableRecord
100
AcDbLinetypeTableRecord
  2
ByBlock
 70
     0
  3

 72
    65
 73
     0
 40
0.0
  0
LTYPE
  5
22
330
20
100
AcDbSymbolTableRecord
100
AcDbLinetypeTableRecord
  2
ByLayer
 70
     0
  3

 72
    65
 73
     0
 40
0.0
  0
LTYPE
  5
C
330
20
100
AcDbSymbolTableRecord
100
AcDbLinetypeTableRecord
  2
Continuous
 70
     0
  3
Solid line
 72
    65
 73
     0
 40
0.0
  0
ENDTAB
  0
TABLE
  2
LAYER
  5
17
102
{ACAD_XDICTIONARY
360
18
102
}
330
0
100
AcDbSymbolTable
 70
     6
  0
LAYER
  5
6
330
17
100
AcDbSymbolTableRecord
100
AcDbLayerTableRecord
  2
0
 70
     0
 62
     7
  6
Continuous
370
    -3
390
7
  0
LAYER
  5
37
330
17
100
AcDbSymbolTableRecord
100
AcDbLayerTableRecord
  2
轮廓线.
 70
     0
 62
   255
  6
Continuous
370
    30
390
7
1001
AcAecLayerStandard
1000

1000

  0
LAYER
  5
19C
330
17
100
AcDbSymbolTableRecord
100
AcDbLayerTableRecord
  2
尺寸标注
 70
     0
 62
    80
  6
Continuous
370
    18
390
7
1001
AcAecLayerStandard
1000

1000

  0
LAYER
  5
C6
330
17
100
AcDbSymbolTableRecord
100
AcDbLayerTableRecord
  2
06___PRT_ALL_SURFS
 70
     0
 62
     7
  6
Continuous
370
    -3
390
7
  0
LAYER
  5
1D0
330
17
100
AcDbSymbolTableRecord
100
AcDbLayerTableRecord
  2
Defpoints
 70
     0
 62
     7
  6
Continuous
290
     0
370
    -3
390
7
  0
LAYER
  5
1D1
330
17
100
AcDbSymbolTableRecord
100
AcDbLayerTableRecord
  2
图层1
 70
     0
 62
     3
  6
Continuous
370
    -3
390
7
1001
AcAecLayerStandard
1000

1000

  0
ENDTAB
  0
TABLE
  2
STYLE
  5
1D
330
0
100
AcDbSymbolTable
 70
     1
  0
STYLE
  5
1E
330
1D
100
AcDbSymbolTableRecord
100
AcDbTextStyleTableRecord
  2
Standard
 70
     0
 40
0.0
 41
1.0
 50
0.0
 71
     0
 42
2.5
  3
SimSun.ttf
  4

1001
ACAD
1000
SimSun
1071
    34306
  0
ENDTAB
  0
TABLE
  2
VIEW
  5
23
330
0
100
AcDbSymbolTable
 70
     0
  0
ENDTAB
  0
TABLE
  2
UCS
  5
24
330
0
100
AcDbSymbolTable
 70
     0
  0
ENDTAB
  0
TABLE
  2
APPID
  5
2A
330
0
100
AcDbSymbolTable
 70
     5
  0
APPID
  5
1C
330
2A
100
AcDbSymbolTableRecord
100
AcDbRegAppTableRecord
  2
ACAD
 70
     0
  0
APPID
  5
10
330
2A
100
AcDbSymbolTableRecord
100
AcDbRegAppTableRecord
  2
ACAD_PSEXT
 70
     0
  0
APPID
  5
38
330
2A
100
AcDbSymbolTableRecord
100
AcDbRegAppTableRecord
  2
AcAecLayerStandard
 70
     0
  0
APPID
  5
2E5
330
2A
100
AcDbSymbolTableRecord
100
AcDbRegAppTableRecord
  2
ACAD_EXEMPT_FROM_CAD_STANDARDS
 70
     0
  0
APPID
  5
345
330
2A
100
AcDbSymbolTableRecord
100
AcDbRegAppTableRecord
  2
ACAD_MLEADERVER
 70
     0
  0
ENDTAB
  0
TABLE
  2
DIMSTYLE
  5
2B
330
0
100
AcDbSymbolTable
 70
     3
100
AcDbDimStyleTable
 71
     3
340
2C
340
2D
340
2E
  0
DIMSTYLE
105
2E
330
2B
100
AcDbSymbolTableRecord
100
AcDbDimStyleTableRecord
  2
宋体
 70
     0
 40
0.5
 41
20.0
 42
0.0
 43
3.75
 44
10.0
 73
     0
 78
     8
140
30.0
141
0.0
143
0.03937007874016
147
20.0
171
     3
172
     1
271
     0
272
     0
274
     3
279
     1
284
     8
340
1E
  0
DIMSTYLE
105
2C
330
2B
100
AcDbSymbolTableRecord
100
AcDbDimStyleTableRecord
  2
ISO-25
 70
     0
 40
9.0
 41
1.5
 42
0.625
 43
3.75
 44
0.5
 73
     0
 77
     1
 78
     8
140
2.5
141
2.5
143
0.03937007874016
147
0.3
171
     3
172
     1
271
     0
272
     0
274
     3
283
     0
284
     8
340
1E
  0
DIMSTYLE
105
2D
330
2B
100
AcDbSymbolTableRecord
100
AcDbDimStyleTableRecord
  2
副本 ISO-25
 70
     0
 40
9.0
 41
1.5
 42
0.625
 43
3.75
 44
0.5
 73
     0
 74
     0
 77
     1
 78
     8
140
2.5
141
2.5
143
0.03937007874016
147
0.3
171
     3
172
     1
271
     0
272
     0
274
     3
283
     0
284
     8
340
1E
  0
ENDTAB
  0
TABLE
  2
BLOCK_RECORD
  5
1
330
0
100
AcDbSymbolTable
 70
     0
  0
BLOCK_RECORD
  5
2
102
{ACAD_XDICTIONARY
360
3
102
}
330
1
100
AcDbSymbolTableRecord
100
AcDbBlockTableRecord
  2
*Model_Space
340
E
  0
BLOCK_RECORD
  5
11
330
1
100
AcDbSymbolTableRecord
100
AcDbBlockTableRecord
  2
*Paper_Space
340
14
  0
ENDTAB
  0
ENDSEC
  0
SECTION
  2
BLOCKS
  0
BLOCK
  5
5
330
2
100
AcDbEntity
  8
0
100
AcDbBlockBegin
  2
*Model_Space
 70
     0
 10
0.0
 20
0.0
 30
0.0
  3
*Model_Space
  1

  0
ENDBLK
  5
D
330
2
100
AcDbEntity
  8
0
100
AcDbBlockEnd
  0
BLOCK
  5
12
330
11
100
AcDbEntity
 67
     1
  8
0
100
AcDbBlockBegin
  2
*Paper_Space
 70
     0
 10
0.0
 20
0.0
 30
0.0
  3
*Paper_Space
  1

  0
ENDBLK
  5
13
330
11
100
AcDbEntity
 67
     1
  8
0
100
AcDbBlockEnd
  0
ENDSEC
  0
SECTION
  2
ENTITIES
  0
CIRCLE
  5
3D
330
2
100
AcDbEntity
  8
0
  6
Continuous
 62
     7
100
AcDbCircle
 10
23465.00099300889
 20
-5951.487932495575
 30
0.0
 40
17.5
  0
LINE
  5
3E
330
2
100
AcDbEntity
  8
0
  6
Continuous
 62
     7
100
AcDbLine
 10
23161.42448770539
 20
-5616.391435075657
 30
0.0
 11
23159.56734367521
 21
-5545.469965920656
 31
0.0
  0
LINE
  5
42
330
2
100
AcDbEntity
  8
0
  6
Continuous
 62
     7
100
AcDbLine
 10
23210.63561643559
 20
-5619.312911930163
 30
0.0
 11
23213.48124665237
 21
-5619.726339048447
 31
0.0
  0
LINE
  5
43
330
2
100
AcDbEntity
  8
0
  6
Continuous
 62
     7
100
AcDbLine
 10
23765.57851845257
 20
-5619.312904228882
 30
0.0
 11
23164.42345967797
 21
-5619.312904228882
 31
0.0
  0
LINE
  5
46
330
2
100
AcDbEntity
  8
0
  6
Continuous
 62
     7
100
AcDbLine
 10
23764.43669050763
 20
-5539.312904229216
 30
0.0
 11
23165.56528762546
 21
-5539.312904229216
 31
0.0
  0
LINE
  5
4A
330
2
100
AcDbEntity
  8
0
  6
Continuous
 62
     7
100
AcDbLine
 10
23768.57749042769
 20
-5616.391435075657
 30
0.0
 11
23770.43463445787
 21
-5545.469965920656
 31
0.0
  0
ARC
  5
4B
330
2
100
AcDbEntity
  8
0
  6
Continuous
 62
     7
100
AcDbCircle
 10
23165.56528762546
 20
-5545.312904230716
 30
0.0
 40
5.999999998959999
100
AcDbArc
 50
90.0
 51
181.499999999987
  0
ARC
  5
4C
330
2
100
AcDbEntity
  8
0
  6
Continuous
 62
     7
100
AcDbCircle
 10
23764.43669050763
 20
-5545.312904230716
 30
0.0
 40
5.999999998959999
100
AcDbArc
 50
358.5000000000129
 51
90.0
  0
ARC
  5
4D
330
2
100
AcDbEntity
  8
0
  6
Continuous
 62
     7
100
AcDbCircle
 10
23765.57824559561
 20
-5616.312904229406
 30
0.0
 40
2.999999999479999
100
AcDbArc
 50
270.0052112161063
 51
358.5001363651102
  0
ARC
  5
4E
330
2
100
AcDbEntity
  8
0
  6
Continuous
 62
     7
100
AcDbCircle
 10
23164.42373341631
 20
-5616.312904229406
 30
0.0
 40
2.999999999479999
100
AcDbArc
 50
181.4998631963887
 51
269.9947720104515
  0
LWPOLYLINE
  5
53
330
2
100
AcDbEntity
  8
0
  6
Continuous
 62
     7
100
AcDbPolyline
 90
        7
 70
     0
 43
0.0
 10
23159.56568286473
 20
-6368.924372985514
 10
23159.64124420967
 20
-6370.023935797819
 10
23160.41688437543
 20
-6372.516083330649
 10
23161.96101794451
 20
-6374.633188471611
 10
23164.10506571381
 20
-6376.136994788342
 10
23166.60646149841
 20
-6376.865968224976
 10
23167.56460629028
 20
-6376.923303337642
  0
LWPOLYLINE
  5
54
330
2
100
AcDbEntity
  8
0
  6
Continuous
 62
     7
100
AcDbPolyline
 90
        6
 70
     0
 43
0.0
 10
23166.21041589478
 20
-5891.10362481891
 10
23163.97494255776
 20
-5891.839093053341
 10
23161.85544671801
 20
-5893.384836405841
 10
23160.35059953975
 20
-5895.531497377937
 10
23159.62235150171
 20
-5898.035431341361
 10
23159.56567812763
 20
-5898.987986317114
  0
LINE
  5
55
330
2
100
AcDbEntity
  8
0
  6
Continuous
 62
     7
100
AcDbLine
 10
23159.56529157011
 20
-6368.924372990607
 30
0.0
 11
23159.56529157011
 21
-5898.987986258688
 31
0.0
  0
LINE
  5
59
330
2
100
AcDbEntity
  8
0
  6
Continuous
 62
     7
100
AcDbLine
 10
23188.55674594167
 20
-5907.638398945134
 30
0.0
 11
23188.55672749873
 21
-5912.724877512321
 31
0.0
  0
LWPOLYLINE
  5
5B
330
2
100
AcDbEntity
  8
0
  6
Continuous
 62
     7
100
AcDbPolyline
 90
        7
 70
     0
 43
0.0
 10
23762.43737979609
 20
-6376.923296345025
 10
23763.53694260839
 20
-6376.847734997535
 10
23766.02909014123
 20
-6376.072094834313
 10
23768.14619528217
 20
-6374.527961265243
 10
23769.65000159891
 20
-6372.383913493401
 10
23770.37897503555
 20
-6369.882517711338
 10
23770.43631014821
 20
-6368.924372919477
  0
LINE
  5
5C
330
2
100
AcDbEntity
  8
0
  6
Continuous
 62
     7
100
AcDbLine
 10
23203.21248345005
 20
-6358.391431795919
 30
0.0
 11
23203.37594300375
 21
-6353.304392079246
 31
0.0
  0
LINE
  5
5D
330
2
100
AcDbEntity
  8
0
  6
Continuous
 62
     7
100
AcDbLine
 10
23762.43737980118
 20
-6376.923687639637
 30
0.0
 11
23167.56460624201
 21
-6376.923687639637
 31
0.0
  0
LINE
  5
61
330
2
100
AcDbEntity
  8
0
  6
Continuous
 62
     7
100
AcDbLine
 10
23178.3852637523
 20
-6333.34440364775
 30
0.0
 11
23183.24970029975
 21
-6333.260791587401
 31
0.0
  0
LINE
  5
62
330
2
100
AcDbEntity
  8
0
  6
Continuous
 62
     7
100
AcDbLine
 10
23751.51275448765
 20
-6333.4701808054
 30
0.0
 11
23746.74053957439
 21
-6333.393111378629
 31
0.0
  0
LINE
  5
63
330
2
100
AcDbEntity
  8
0
  6
Continuous
 62
     7
100
AcDbLine
 10
23753.04615244955
 20
-6115.982790246379
 30
0.0
 11
23747.29805854571
 21
-6115.995392903414
 31
0.0
  0
LINE
  5
64
330
2
100
AcDbEntity
  8
0
  6
Continuous
 62
     7
100
AcDbLine
 10
23176.98020903637
 20
-6115.959126344
 30
0.0
 11
23182.71890554219
 21
-6115.991365380358
 31
0.0
  0
LINE
  5
65
330
2
100
AcDbEntity
  8
0
  6
Continuous
 62
     7
100
AcDbLine
 10
23752.3703049722
 20
-6040.335572369155
 30
0.0
 11
23746.93863800725
 21
-6040.444443543345
 31
0.0
  0
LINE
  5
66
330
2
100
AcDbEntity
  8
0
  6
Continuous
 62
     7
100
AcDbLine
 10
23746.93586591475
 20
-6039.98626562047
 30
0.0
 11
23742.44084639325
 21
-6039.987454569075
 31
0.0
  0
LINE
  5
67
330
2
100
AcDbEntity
  8
0
  6
Continuous
 62
     7
100
AcDbLine
 10
23187.41752841061
 20
-6039.988481839062
 30
0.0
 11
23183.04143342138
 21
-6039.987015999976
 31
0.0
  0
LINE
  5
68
330
2
100
AcDbEntity
  8
0
  6
Continuous
 62
     7
100
AcDbLine
 10
23177.58078080957
 20
-6040.390231447037
 30
0.0
 11
23183.03743390691
 21
-6040.510521191222
 31
0.0
  0
LINE
  5
69
330
2
100
AcDbEntity
  8
0
  6
Continuous
 62
     7
100
AcDbLine
 10
23751.60149937747
 20
-5917.263735343402
 30
0.0
 11
23746.77227744081
 21
-5917.301799641156
 31
0.0
  0
LINE
  5
6A
330
2
100
AcDbEntity
  8
0
  6
Continuous
 62
     7
100
AcDbLine
 10
23178.34917900099
 20
-5917.323752271876
 30
0.0
 11
23183.21373750909
 21
-5917.362057107637
 31
0.0
  0
LINE
  5
6C
330
2
100
AcDbEntity
  8
0
  6
Continuous
 62
     7
100
AcDbLine
 10
23188.97203673415
 20
-5913.085554266194
 30
0.0
 11
23740.95864350549
 21
-5913.087292192611
 31
0.0
  0
LINE
  5
6D
330
2
100
AcDbEntity
  8
0
  6
Continuous
 62
     7
100
AcDbLine
 10
23188.55610232346
 20
-5912.724877512321
 30
0.0
 11
23741.38255047073
 21
-5912.726600150481
 31
0.0
  0
LINE
  5
6E
330
2
100
AcDbEntity
  8
0
  6
Continuous
 62
     7
100
AcDbLine
 10
23188.55674594167
 20
-5907.638398945134
 30
0.0
 11
23741.38304639304
 21
-5907.640396911685
 31
0.0
  0
LINE
  5
72
330
2
100
AcDbEntity
  8
0
  6
Continuous
 62
     7
100
AcDbLine
 10
23726.74668114207
 20
-6358.298265098847
 30
0.0
 11
23726.611962585
 21
-6353.279265944575
 31
0.0
  0
LINE
  5
73
330
2
100
AcDbEntity
  8
0
  6
Continuous
 62
     7
100
AcDbLine
 10
23166.21093811623
 20
-5891.103619225837
 30
0.0
 11
23167.56597715368
 21
-5890.987986198268
 31
0.0
  0
LINE
  5
74
330
2
100
AcDbEntity
  8
0
  6
Continuous
 62
     7
100
AcDbLine
 10
23167.56597715368
 20
-5890.987986198268
 30
0.0
 11
23762.43600886665
 21
-5890.987986198268
 31
0.0
  0
LINE
  5
76
330
2
100
AcDbEntity
  8
0
  6
Continuous
 62
     7
100
AcDbLine
 10
23741.38304640827
 20
-5907.640396914217
 30
0.0
 11
23741.38302805423
 21
-5912.726586566559
 31
0.0
  0
LINE
  5
77
330
2
100
AcDbEntity
  8
0
  6
Continuous
 62
     7
100
AcDbLine
 10
23762.43600886665
 20
-5890.987986198268
 30
0.0
 11
23763.88987316745
 21
-5891.121248850211
 31
0.0
  0
LINE
  5
7B
330
2
100
AcDbEntity
  8
0
  6
Continuous
 62
     7
100
AcDbLine
 10
23770.43669445021
 20
-5898.987986200276
 30
0.0
 11
23770.43669445021
 21
-6368.924372967746
 31
0.0
  0
LWPOLYLINE
  5
7C
330
2
100
AcDbEntity
  8
0
  6
Continuous
 62
     7
100
AcDbPolyline
 90
        6
 70
     0
 43
0.0
 10
23770.43630068925
 20
-5898.987986205369
 10
23770.36141165945
 20
-5897.893360360574
 10
23769.58625276019
 20
-5895.398728273407
 10
23768.04088738001
 20
-5893.279169416264
 10
23765.89434923977
 20
-5891.773971324298
 10
23763.89043293011
 20
-5891.12125949536
  0
CIRCLE
  5
7D
330
2
100
AcDbEntity
  8
0
  6
Continuous
 62
     7
100
AcDbCircle
 10
23465.00099300889
 20
-5951.487932495575
 30
0.0
 40
17.5000000012
  0
SPLINE
  5
7E
330
2
100
AcDbEntity
  8
0
  6
Continuous
 62
     7
100
AcDbSpline
210
0.0
220
0.0
230
1.0
 70
     8
 71
     3
 72
    13
 73
     9
 74
     7
 42
0.0000000001
 43
0.0000000001
 44
0.0000000001
 12
0.9833821487594285
 22
-0.181547650773259
 32
0.0
 13
0.0000094182312484
 23
-0.9999999999556484
 33
0.0
 40
0.0
 40
0.0
 40
0.0
 40
0.0
 40
0.6318982497142112
 40
2.720028699015468
 40
4.808232462707589
 40
6.896515094055001
 40
8.984864123827453
 40
11.07325224719693
 40
11.07325224719693
 40
11.07325224719693
 40
11.07325224719693
 10
23763.88983817641
 20
-5891.121438379943
 30
0.0
 10
23764.09697066261
 20
-5891.159678260865
 30
0.0
 10
23764.98204704986
 20
-5891.35921268182
 30
0.0
 10
23766.4819345202
 20
-5891.980439507213
 30
0.0
 10
23768.15677621455
 20
-5893.266088112386
 30
0.0
 10
23769.44268788452
 20
-5894.942361633542
 30
0.0
 10
23770.25085292209
 20
-5896.892772566489
 30
0.0
 10
23770.43463184518
 20
-5898.291856825851
 30
0.0
 10
23770.43463840148
 20
-5898.987986200276
 30
0.0
 11
23763.88983817641
 21
-5891.121438379943
 31
0.0
 11
23764.50622576253
 21
-5891.260584855515
 31
0.0
 11
23766.43535538153
 21
-5892.059801776259
 31
0.0
 11
23768.09192726269
 21
-5893.331165045054
 31
0.0
 11
23769.36304696073
 21
-5894.988023235017
 31
0.0
 11
23770.16209825062
 21
-5896.917458050264
 31
0.0
 11
23770.43463840148
 21
-5898.987986200276
 31
0.0
  0
SPLINE
  5
7F
330
2
100
AcDbEntity
  8
0
  6
Continuous
 62
     7
100
AcDbSpline
210
0.0
220
0.0
230
1.0
 70
     8
 71
     3
 72
    13
 73
     9
 74
     7
 42
0.0000000001
 43
0.0000000001
 44
0.0000000001
 12
0.0000575755867963
 22
0.999999998342526
 32
0.0
 13
0.9855707836763905
 23
0.1692637892861486
 33
0.0
 40
0.0
 40
0.0
 40
0.0
 40
0.0
 40
2.088387684593195
 40
4.176736567512245
 40
6.265019336154031
 40
8.353223010013415
 40
10.44135348284493
 40
11.17354515075316
 40
11.17354515075316
 40
11.17354515075316
 40
11.17354515075316
 10
23159.56734761883
 20
-5898.987986200276
 30
0.0
 10
23159.56738769888
 20
-5898.291856973232
 30
0.0
 10
23159.75111644659
 20
-5896.892773335506
 30
0.0
 10
23160.55930550041
 20
-5894.942360566098
 30
0.0
 10
23161.84519543271
 20
-5893.266094070298
 30
0.0
 10
23163.52010022582
 20
-5891.980419641873
 30
0.0
 10
23165.05109185589
 20
-5891.346309188174
 30
0.0
 10
23165.97043029204
 20
-5891.145130792795
 30
0.0
 10
23166.21097253069
 20
-5891.103819614063
 30
0.0
 11
23159.56734761883
 21
-5898.987986200276
 31
0.0
 11
23159.83988763001
 21
-5896.917458474438
 31
0.0
 11
23160.63893874463
 21
-5894.988023745557
 31
0.0
 11
23161.91005857221
 21
-5893.331165481932
 31
0.0
 11
23163.56663020953
 21
-5892.059802042966
 31
0.0
 11
23165.49575979297
 21
-5891.2605849749
 31
0.0
 11
23166.21097253069
 21
-5891.103819614063
 31
0.0
  0
LINE
  5
80
330
2
100
AcDbEntity
  8
0
  6
Continuous
 62
     7
100
AcDbLine
 10
23746.77356186547
 20
-5917.301428737663
 30
0.0
 11
23745.70943077047
 21
-5918.102811574825
 31
0.0
  0
SPLINE
  5
81
330
2
100
AcDbEntity
  8
0
  6
Continuous
 62
     7
100
AcDbSpline
210
0.0
220
0.0
230
1.0
 70
     8
 71
     3
 72
    11
 73
     7
 74
     5
 42
0.0000000001
 43
0.0000000001
 44
0.0000000001
 12
-0.0002790165132569
 22
-0.9999999610748918
 32
0.0
 13
-0.0016662993738689
 23
-0.9999986117222348
 33
0.0
 40
0.0
 40
0.0
 40
0.0
 40
0.0
 40
23.00668132144826
 40
48.29144668114912
 40
75.85209091098914
 40
105.6865495726134
 40
105.6865495726134
 40
105.6865495726134
 40
105.6865495726134
 10
23745.70943077047
 20
-5918.102811574825
 30
0.0
 10
23745.70729102247
 20
-5925.771705050129
 30
0.0
 10
23745.69737053147
 20
-5941.868851923993
 30
0.0
 10
23745.66975003834
 20
-5967.152867708144
 30
0.0
 10
23745.63055932274
 20
-5994.712796238391
 30
0.0
 10
23745.59974381203
 20
-6013.844472444617
 30
0.0
 10
23745.58317276544
 20
-6023.78927819232
 30
0.0
 11
23745.70943077047
 21
-5918.102811574825
 31
0.0
 11
23745.69609898357
 21
-5941.109489033557
 31
0.0
 11
23745.66924957829
 21
-5966.39424013782
 31
0.0
 11
23745.63080473519
 21
-5993.954857553943
 31
0.0
 11
23745.58317276544
 21
-6023.78927819232
 31
0.0
  0
SPLINE
  5
82
330
2
100
AcDbEntity
  8
0
  6
Continuous
 62
     7
100
AcDbSpline
210
0.0
220
0.0
230
1.0
 70
     8
 71
     3
 72
    36
 73
    32
 74
    30
 42
0.0000000001
 43
0.0000000001
 44
0.0000000001
 12
-0.0016945064907654
 22
-0.9999985643228457
 32
0.0
 13
-0.6082950616898276
 23
-0.7937109788353496
 33
0.0
 40
0.0
 40
0.0
 40
0.0
 40
0.0
 40
1.59398385316426
 40
3.025992802156581
 40
4.310420926758541
 40
5.462965629975881
 40
6.49961259812854
 40
7.43629715978364
 40
8.288629870304147
 40
9.071852478689356
 40
9.801101419652226
 40
10.48668670644126
 40
11.12873289228258
 40
11.72188947691358
 40
12.26215471973878
 40
12.75085928502944
 40
13.19272744177984
 40
13.59281037308748
 40
13.95581743956721
 40
14.28630913437402
 40
14.58868109118961
 40
14.86718548428339
 40
15.12592054905779
 40
15.36828316983763
 40
15.59573989417573
 40
15.80815180696744
 40
16.00550756868193
 40
16.18794059846848
 40
16.35561439049162
 40
16.50866210939434
 40
16.64720565678261
 40
16.64720565678261
 40
16.64720565678261
 40
16.64720565678261
 10
23745.58317276544
 20
-6023.78927819232
 30
0.0
 10
23745.58227242677
 20
-6024.32060538056
 30
0.0
 10
23745.56385633324
 20
-6025.329321516313
 30
0.0
 10
23745.49316287723
 20
-6026.764574860362
 30
0.0
 10
23745.3947601134
 20
-6028.050619739665
 30
0.0
 10
23745.2783614119
 20
-6029.202729883102
 30
0.0
 10
23745.15084721202
 20
-6030.236933471456
 30
0.0
 10
23745.01682830901
 20
-6031.169296758237
 30
0.0
 10
23744.87911709892
 20
-6032.015624827003
 30
0.0
 10
23744.7390498188
 20
-6032.79138653124
 30
0.0
 10
23744.59699427303
 20
-6033.510201607477
 30
0.0
 10
23744.45333877711
 20
-6034.180639001156
 30
0.0
 10
23744.30942074147
 20
-6034.804543404833
 30
0.0
 10
23744.1675925057
 20
-6035.379143679215
 30
0.0
 10
23744.03022787272
 20
-6035.902132999041
 30
0.0
 10
23743.8988461407
 20
-6036.374498260732
 30
0.0
 10
23743.77394893084
 20
-6036.800117716468
 30
0.0
 10
23743.65545545364
 20
-6037.1839077002
 30
0.0
 10
23743.5430262589
 20
-6037.530676536678
 30
0.0
 10
23743.43614044951
 20
-6037.844966985764
 30
0.0
 10
23743.33409760461
 20
-6038.131117586865
 30
0.0
 10
23743.23602740183
 20
-6038.393255535873
 30
0.0
 10
23743.14095998255
 20
-6038.635122965289
 30
0.0
 10
23743.04805219494
 20
-6038.859515603656
 30
0.0
 10
23742.95683127596
 20
-6039.067847427619
 30
0.0
 10
23742.86719451498
 20
-6039.260438784415
 30
0.0
 10
23742.77921219025
 20
-6039.43717686921
 30
0.0
 10
23742.69292115425
 20
-6039.598010511919
 30
0.0
 10
23742.60835206263
 20
-6039.74289716505
 30
0.0
 10
23742.52559988069
 20
-6039.8717513721
 30
0.0
 10
23742.46893817848
 20
-6039.950800057538
 30
0.0
 10
23742.44084639325
 20
-6039.987454569075
 30
0.0
 11
23745.58317276544
 21
-6023.78927819232
 31
0.0
 11
23745.55420985155
 21
-6025.382998893626
 31
0.0
 11
23745.48392328651
 21
-6026.813281882676
 31
0.0
 11
23745.38593890539
 21
-6028.093967116575
 31
0.0
 11
23745.27005810591
 21
-6029.240671495752
 31
0.0
 11
23745.14315556825
 21
-6030.269521670713
 31
0.0
 11
23745.00983191059
 21
-6031.196669323652
 31
0.0
 11
23744.87288865895
 21
-6032.037928852724
 31
0.0
 11
23744.7336636796
 21
-6032.808677877639
 31
0.0
 11
23744.59221269249
 21
-6033.5240768126
 31
0.0
 11
23744.44849763829
 21
-6034.194429830537
 31
0.0
 11
23744.30410377925
 21
-6034.820028518375
 31
0.0
 11
23744.16187752828
 21
-6035.395881301147
 31
0.0
 11
23744.02454466603
 21
-6035.918400408502
 31
0.0
 11
23743.89349808281
 21
-6036.389207104678
 31
0.0
 11
23743.76898873569
 21
-6036.813170417275
 31
0.0
 11
23743.65087185229
 21
-6037.195420013455
 31
0.0
 11
23743.53882440303
 21
-6037.540701781623
 31
0.0
 11
23743.43232197951
 21
-6037.853562763723
 31
0.0
 11
23743.33066380335
 21
-6038.138333575936
 31
0.0
 11
23743.23297627457
 21
-6038.399143552151
 31
0.0
 11
23743.13821801858
 21
-6038.639902158777
 31
0.0
 11
23743.04537790707
 21
-6038.863777913712
 31
0.0
 11
23742.95400127246
 21
-6039.072073069902
 31
0.0
 11
23742.86420664635
 21
-6039.264571760336
 31
0.0
 11
23742.77606686073
 21
-6039.441152265694
 31
0.0
 11
23742.68960066587
 21
-6039.601792881678
 31
0.0
 11
23742.6048325169
 21
-6039.746460989603
 31
0.0
 11
23742.52185099376
 21
-6039.875059866265
 31
0.0
 11
23742.44084639325
 21
-6039.987454569075
 31
0.0
  0
LINE
  5
83
330
2
100
AcDbEntity
  8
0
  6
Continuous
 62
     7
100
AcDbLine
 10
23741.38422956059
 20
-5912.728598675812
 30
0.0
 11
23740.95717244925
 21
-5913.085522907355
 31
0.0
  0
LINE
  5
84
330
2
100
AcDbEntity
  8
0
  6
Continuous
 62
     7
100
AcDbLine
 10
23188.55477299921
 20
-5912.726426102052
 30
0.0
 11
23188.97362008887
 21
-5913.083686230827
 31
0.0
  0
LINE
  5
85
330
2
100
AcDbEntity
  8
0
  6
Continuous
 62
     7
100
AcDbLine
 10
23183.21373535009
 20
-5917.362370218519
 30
0.0
 11
23184.18835343642
 21
-5918.102194354816
 31
0.0
  0
SPLINE
  5
86
330
2
100
AcDbEntity
  8
0
  6
Continuous
 62
     7
100
AcDbSpline
210
0.0
220
0.0
230
1.0
 70
     8
 71
     3
 72
     9
 73
     5
 74
     3
 42
0.0000000001
 43
0.0000000001
 44
0.0000000001
 12
0.0018858627552817
 22
0.9999982217592531
 32
0.0
 13
0.0004383616029882
 23
0.9999999039195481
 33
0.0
 40
0.0
 40
0.0
 40
0.0
 40
0.0
 40
62.03885227377244
 40
122.6247730046647
 40
122.6247730046647
 40
122.6247730046647
 40
122.6247730046647
 10
23183.04143342138
 20
-6039.987015999976
 30
0.0
 10
23183.08043234168
 20
-6019.307435348722
 30
0.0
 10
23183.15198012191
 20
-5978.432575410633
 30
0.0
 10
23183.20488250298
 20
-5937.557675188443
 30
0.0
 10
23183.21373535009
 20
-5917.362370218519
 30
0.0
 11
23183.04143342138
 21
-6039.987015999976
 31
0.0
 11
23183.14805539764
 21
-5977.948255348258
 31
0.0
 11
23183.21373535009
 21
-5917.362370218519
 31
0.0
  0
SPLINE
  5
87
330
2
100
AcDbEntity
  8
0
  6
Continuous
 62
     7
100
AcDbSpline
210
0.0
220
0.0
230
1.0
 70
     8
 71
     3
 72
    23
 73
    19
 74
    17
 42
0.0000000001
 43
0.0000000001
 44
0.0000000001
 12
-0.5968400669140476
 22
0.8023602274078864
 32
0.0
 13
-0.0017620754705622
 23
0.9999984475438131
 33
0.0
 40
0.0
 40
0.0
 40
0.0
 40
0.0
 40
0.4310882335332007
 40
0.919729722756436
 40
1.467322400905253
 40
2.073741614692026
 40
2.741967556156664
 40
3.478096961711548
 40
4.290937948540772
 40
5.189459424539601
 40
6.176788509550793
 40
7.251548685474123
 40
8.421029659675843
 40
9.70620148931772
 40
11.13091168749833
 40
12.71878070763985
 40
14.49303256555961
 40
16.47482847562396
 40
16.47482847562396
 40
16.47482847562396
 40
16.47482847562396
 10
23187.41752841061
 20
-6039.988481839062
 30
0.0
 10
23187.33176483389
 20
-6039.873185821365
 30
0.0
 10
23187.16737940732
 20
-6039.613317638728
 30
0.0
 10
23186.94729089413
 20
-6039.176123654176
 30
0.0
 10
23186.73019990468
 20
-6038.673196247657
 30
0.0
 10
23186.51364533886
 20
-6038.105548706225
 30
0.0
 10
23186.29618490984
 20
-6037.471434345262
 30
0.0
 10
23186.07662060978
 20
-6036.765642976213
 30
0.0
 10
23185.85456782962
 20
-6035.980524005082
 30
0.0
 10
23185.63108348978
 20
-6035.109071914673
 30
0.0
 10
23185.40911297506
 20
-6034.147389691932
 30
0.0
 10
23185.19243920207
 20
-6033.092106274378
 30
0.0
 10
23184.9844801199
 20
-6031.934034444523
 30
0.0
 10
23184.78900276856
 20
-6030.655618101842
 30
0.0
 10
23184.6118186332
 20
-6029.233835309995
 30
0.0
 10
23184.46237163458
 20
-6027.644966920457
 30
0.0
 10
23184.35488604139
 20
-6025.866560063813
 30
0.0
 10
23184.32689094552
 20
-6024.61443993203
 30
0.0
 10
23184.32572692087
 20
-6023.953842320892
 30
0.0
 11
23187.41752841061
 21
-6039.988481839062
 31
0.0
 11
23187.18347293257
 21
-6039.626466510256
 31
0.0
 11
23186.96024263989
 21
-6039.191795667639
 31
0.0
 11
23186.74143510189
 21
-6038.689818574063
 31
0.0
 11
23186.52407525213
 21
-6038.123692299667
 31
0.0
 11
23186.30642818425
 21
-6037.491904627508
 31
0.0
 11
23186.08712127209
 21
-6036.789202001926
 31
0.0
 11
23185.86539693018
 21
-6036.007186154215
 31
0.0
 11
23185.64179312033
 21
-6035.136932065425
 31
0.0
 11
23185.41941473349
 21
-6034.174972307859
 31
0.0
 11
23185.20297328424
 21
-6033.122231819993
 31
0.0
 11
23184.99605107426
 21
-6031.971202303413
 31
0.0
 11
23184.80161810269
 21
-6030.700823442099
 31
0.0
 11
23184.62528749015
 21
-6029.287067217045
 31
0.0
 11
23184.47651982985
 21
-6027.706182588625
 31
0.0
 11
23184.3696711891
 21
-6025.935150961776
 31
0.0
 11
23184.32572692087
 21
-6023.953842320892
 31
0.0
  0
SPLINE
  5
88
330
2
100
AcDbEntity
  8
0
  6
Continuous
 62
     7
100
AcDbSpline
210
0.0
220
0.0
230
1.0
 70
     8
 71
     3
 72
    11
 73
     7
 74
     5
 42
0.0000000001
 43
0.0000000001
 44
0.0000000001
 12
-0.0017311390164528
 22
0.9999985015777303
 32
0.0
 13
-0.0004249010455406
 23
0.9999999097295468
 33
0.0
 40
0.0
 40
0.0
 40
0.0
 40
0.0
 40
29.84177738719402
 40
57.43235506183402
 40
82.7697552913753
 40
105.8517437698207
 40
105.8517437698207
 40
105.8517437698207
 40
105.8517437698207
 10
23184.32572692087
 20
-6023.953842320892
 30
0.0
 10
23184.30850683248
 20
-6014.006598097022
 30
0.0
 10
23184.27627439805
 20
-5994.862506836621
 30
0.0
 10
23184.23442485912
 20
-5967.272619883583
 30
0.0
 10
23184.20378871859
 20
-5941.935982445517
 30
0.0
 10
23184.19162262343
 20
-5925.796189819759
 30
0.0
 10
23184.18835343642
 20
-5918.102194354816
 30
0.0
 11
23184.32572692087
 21
-6023.953842320892
 31
0.0
 11
23184.27587325121
 21
-5994.112106576494
 31
0.0
 11
23184.23476069183
 21
-5966.521559532664
 31
0.0
 11
23184.20489221208
 21
-5941.184176908055
 31
0.0
 11
23184.18835343642
 21
-5918.102194354816
 31
0.0
  0
SPLINE
  5
8F
330
2
100
AcDbEntity
  8
0
  6
Continuous
 62
     7
100
AcDbSpline
210
0.0
220
0.0
230
1.0
 70
     8
 71
     3
 72
    36
 73
    32
 74
    30
 42
0.0000000001
 43
0.0000000001
 44
0.0000000001
 12
-0.9965104579639728
 22
0.0834680008652007
 32
0.0
 13
-0.9999740720991983
 23
0.0072010505724859
 33
0.0
 40
0.0
 40
0.0
 40
0.0
 40
0.0
 40
3.451858418873111
 40
6.944168417724839
 40
10.47080930125237
 40
14.01233109205855
 40
17.50343306108583
 40
20.94373747549674
 40
24.60002233080755
 40
28.627884561848
 40
33.04448567043027
 40
37.87037095926439
 40
43.12179852564955
 40
48.80293834946439
 40
54.93037749787602
 40
61.54846098653472
 40
68.70358422773904
 40
76.44045833907914
 40
84.8031410045103
 40
93.83574912294029
 40
103.5843552639336
 40
114.1068398119292
 40
125.4687950838241
 40
137.7399861092064
 40
150.9980718879131
 40
165.325197306293
 40
180.8162528858459
 40
197.5705339527298
 40
215.6900954957278
 40
235.3764384878801
 40
256.9136469243676
 40
256.9136469243676
 40
256.9136469243676
 40
256.9136469243676
 10
23721.8757578461
 20
-6021.893663845379
 30
0.0
 10
23720.72915350815
 20
-6021.797623938216
 30
0.0
 10
23718.42101466621
 20
-6021.62176311485
 30
0.0
 10
23714.93697837161
 20
-6021.410919953094
 30
0.0
 10
23711.42011140933
 20
-6021.255081121583
 30
0.0
 10
23707.90151546507
 20
-6021.158269066052
 30
0.0
 10
23704.41062019206
 20
-6021.119975568928
 30
0.0
 10
23700.88132630525
 20
-6021.126232493386
 30
0.0
 10
23697.17338405066
 20
-6021.169529811881
 30
0.0
 10
23693.14048418346
 20
-6021.244681309156
 30
0.0
 10
23688.71813016979
 20
-6021.343298825603
 30
0.0
 10
23683.88820249608
 20
-6021.458580698603
 30
0.0
 10
23678.6367032139
 20
-6021.57667026273
 30
0.0
 10
23672.95093475645
 20
-6021.678938385616
 30
0.0
 10
23666.80933272534
 20
-6021.7668085626
 30
0.0
 10
23660.17620666789
 20
-6021.842373828511
 30
0.0
 10
23653.00645735157
 20
-6021.906271023567
 30
0.0
 10
23645.25504997481
 20
-6021.956133805724
 30
0.0
 10
23636.87772360443
 20
-6021.99021321069
 30
0.0
 10
23627.82976555116
 20
-6022.006621449716
 30
0.0
 10
23618.06185923782
 20
-6022.003348182831
 30
0.0
 10
23607.51753405967
 20
-6021.977897374032
 30
0.0
 10
23596.13242606802
 20
-6021.928063566136
 30
0.0
 10
23583.83558085388
 20
-6021.851318231222
 30
0.0
 10
23570.55055219818
 20
-6021.742220574248
 30
0.0
 10
23556.19254514724
 20
-6021.594609848653
 30
0.0
 10
23540.66957249596
 20
-6021.402011221778
 30
0.0
 10
23523.88308060657
 20
-6021.154781456734
 30
0.0
 10
23505.69881360339
 20
-6020.855320741514
 30
0.0
 10
23485.92024971058
 20
-6020.543030615586
 30
0.0
 10
23472.17987634952
 20
-6020.382436871786
 30
0.0
 10
23465.00099300889
 20
-6020.330740029405
 30
0.0
 11
23721.8757578461
 21
-6021.893663845379
 31
0.0
 11
23718.43385479595
 21
-6021.63169068378
 31
0.0
 11
23714.94790855983
 21
-6021.420958704932
 31
0.0
 11
23711.42471191562
 21
-6021.265134035644
 31
0.0
 11
23707.88453240467
 21
-6021.16763724054
 31
0.0
 11
23704.39366396097
 21
-6021.127258200145
 31
0.0
 11
23700.95336229955
 21
-6021.131610472357
 31
0.0
 11
23697.29730182911
 21
-6021.172117010609
 31
0.0
 11
23693.27009206033
 21
-6021.244612738103
 31
0.0
 11
23688.85455071617
 21
-6021.341359781078
 31
0.0
 11
23684.02998326601
 21
-6021.45413273815
 31
0.0
 11
23678.77982679657
 21
-6021.569668582777
 31
0.0
 11
23673.09962517504
 21
-6021.672912160901
 31
0.0
 11
23666.97282799
 21
-6021.761606979699
 31
0.0
 11
23660.35518203557
 21
-6021.837706156939
 31
0.0
 11
23653.20034499146
 21
-6021.901702008114
 31
0.0
 11
23645.46363347735
 21
-6021.951861376938
 31
0.0
 11
23637.10102165549
 21
-6021.986283456941
 31
0.0
 11
23628.06842914921
 21
-6022.003077403532
 31
0.0
 11
23618.31982343691
 21
-6022.000186334893
 31
0.0
 11
23607.79736840871
 21
-6021.975261601916
 31
0.0
 11
23596.43551994373
 21
-6021.925996407087
 31
0.0
 11
23584.16456737621
 21
-6021.849496295914
 31
0.0
 11
23570.90692755932
 21
-6021.740753475553
 31
0.0
 11
23556.58055663883
 21
-6021.593719456699
 31
0.0
 11
23541.09069392037
 21
-6021.401480199308
 31
0.0
 11
23524.33819937615
 21
-6021.156815910906
 31
0.0
 11
23506.22097361169
 21
-6020.865884458215
 31
0.0
 11
23486.53692063291
 21
-6020.565620019382
 31
0.0
 11
23465.00099300889
 21
-6020.330740029405
 31
0.0
  0
LINE
  5
90
330
2
100
AcDbEntity
  8
0
  6
Continuous
 62
     7
100
AcDbLine
 10
23746.93502435687
 20
-6039.986264736557
 30
0.0
 11
23746.9386385178
 21
-6040.444443533173
 31
0.0
  0
SPLINE
  5
91
330
2
100
AcDbEntity
  8
0
  6
Continuous
 62
     7
100
AcDbSpline
210
0.0
220
0.0
230
1.0
 70
     8
 71
     3
 72
    15
 73
    11
 74
     9
 42
0.0000000001
 43
0.0000000001
 44
0.0000000001
 12
-0.1391721445957887
 22
0.9902682031493331
 32
0.0
 13
-0.9982100066420278
 23
0.0598062090398867
 33
0.0
 40
0.0
 40
0.0
 40
0.0
 40
0.0
 40
2.511847940231492
 40
5.274727148344267
 40
8.330089020282539
 40
11.71990426741467
 40
15.48951118062334
 40
19.65915083275987
 40
24.20592357579459
 40
28.89351067755838
 40
28.89351067755838
 40
28.89351067755838
 40
28.89351067755838
 10
23741.81862214114
 20
-6039.562382101975
 30
0.0
 10
23741.70209571956
 20
-6038.733247719855
 30
0.0
 10
23741.35244942366
 20
-6037.005021712583
 30
0.0
 10
23740.45456698973
 20
-6034.368791842571
 30
0.0
 10
23739.05155415246
 20
-6031.625260565692
 30
0.0
 10
23737.02282736828
 20
-6028.870419515527
 30
0.0
 10
23734.26511521612
 20
-6026.258379039901
 30
0.0
 10
23730.71894052102
 20
-6024.024516390433
 30
0.0
 10
23726.50047324248
 20
-6022.459408056549
 30
0.0
 10
23723.43548996342
 20
-6021.987112783413
 30
0.0
 10
23721.8757578461
 20
-6021.893663845379
 30
0.0
 11
23741.81862214114
 21
-6039.562382101975
 31
0.0
 11
23741.31944829061
 21
-6037.100633629487
 31
0.0
 11
23740.42760419673
 21
-6034.485654541457
 31
0.0
 11
23739.03554133951
 21
-6031.765838891448
 31
0.0
 11
23737.02633292715
 21
-6029.035650442753
 31
0.0
 11
23734.28983733081
 21
-6026.443059435411
 31
0.0
 11
23730.76480517083
 21
-6024.215944014116
 31
0.0
 11
23726.50629807192
 21
-6022.62275235418
 31
0.0
 11
23721.8757578461
 21
-6021.893663845379
 31
0.0
  0
SPLINE
  5
92
330
2
100
AcDbEntity
  8
0
  6
Continuous
 62
     7
100
AcDbSpline
210
0.0
220
0.0
230
1.0
 70
     8
 71
     3
 72
    16
 73
    12
 74
    10
 42
0.0000000001
 43
0.0000000001
 44
0.0000000001
 12
0.0083191235823624
 22
-0.9999653954926747
 32
0.0
 13
0.0013971568170978
 23
-0.999999023975938
 33
0.0
 40
0.0
 40
0.0
 40
0.0
 40
0.0
 40
7.992323465462904
 40
16.36495332817666
 40
24.80976420821674
 40
32.96636787081752
 40
40.84875101182326
 40
49.39830827812797
 40
58.26514250262746
 40
67.07068934798082
 40
75.55205362166603
 40
75.55205362166603
 40
75.55205362166603
 40
75.55205362166603
 10
23746.9386385178
 20
-6040.444443533173
 30
0.0
 10
23746.96080156
 20
-6043.108459164856
 30
0.0
 10
23747.00733510927
 20
-6048.563245107299
 30
0.0
 10
23747.0755220433
 20
-6056.832885861607
 30
0.0
 10
23747.13608049937
 20
-6065.157349180459
 30
0.0
 10
23747.18435469759
 20
-6073.318474943971
 30
0.0
 10
23747.22194957561
 20
-6081.514572172419
 30
0.0
 10
23747.25042754039
 20
-6089.947450833577
 30
0.0
 10
23747.2710598489
 20
-6098.688073625019
 30
0.0
 10
23747.28596335819
 20
-6107.405976276098
 30
0.0
 10
23747.2941087636
 20
-6113.168274238192
 30
0.0
 10
23747.29805869558
 20
-6115.995392903414
 30
0.0
 11
23746.9386385178
 21
-6040.444443533173
 31
0.0
 11
23747.00588252097
 21
-6048.436484112439
 31
0.0
 11
23747.07397505433
 21
-6056.808837080685
 31
0.0
 11
23747.13483264661
 21
-6065.253428672534
 31
0.0
 11
23747.18305895605
 21
-6073.409889763706
 31
0.0
 11
23747.21940457298
 21
-6081.292189109567
 31
0.0
 11
23747.24864834735
 21
-6089.841696361537
 31
0.0
 11
23747.27014272143
 21
-6098.708504533401
 31
0.0
 11
23747.28570559861
 21
-6107.514037625869
 31
0.0
 11
23747.29805869558
 21
-6115.995392903414
 31
0.0
  0
SPLINE
  5
93
330
2
100
AcDbEntity
  8
0
  6
Continuous
 62
     7
100
AcDbSpline
210
0.0
220
0.0
230
1.0
 70
     8
 71
     3
 72
    24
 73
    20
 74
    18
 42
0.0000000001
 43
0.0000000001
 44
0.0000000001
 12
0.0013972650967759
 22
-0.9999990238246482
 32
0.0
 13
-0.0007101016068961
 23
-0.9999997478778222
 33
0.0
 40
0.0
 40
0.0
 40
0.0
 40
0.0
 40
8.910839525643087
 40
18.05336530282177
 40
27.32055463280725
 40
36.5002849878414
 40
45.32177932332682
 40
54.44265958345815
 40
64.35945271204605
 40
75.00906308522861
 40
86.47366132089054
 40
98.8449577659937
 40
112.1659220453176
 40
126.5142999895326
 40
141.9810743913943
 40
158.6585880784126
 40
176.6692188290029
 40
196.1310262568068
 40
217.3986624715061
 40
217.3986624715061
 40
217.3986624715061
 40
217.3986624715061
 10
23747.29805869558
 20
-6115.995392903414
 30
0.0
 10
23747.30220896393
 20
-6118.965669845782
 30
0.0
 10
23747.3091412125
 20
-6124.983454628815
 30
0.0
 10
23747.31411121435
 20
-6134.09030545876
 30
0.0
 10
23747.31265116433
 20
-6143.286788024635
 30
0.0
 10
23747.30422592942
 20
-6152.376256378849
 30
0.0
 10
23747.28882615839
 20
-6161.416945844173
 30
0.0
 10
23747.26561603913
 20
-6170.703306950745
 30
0.0
 10
23747.2342588488
 20
-6180.599019064024
 30
0.0
 10
23747.19534778666
 20
-6191.275948980294
 30
0.0
 10
23747.15022214509
 20
-6202.771028809658
 30
0.0
 10
23747.10051792034
 20
-6215.156548727343
 30
0.0
 10
23747.04859984321
 20
-6228.503327356458
 30
0.0
 10
23746.99477468781
 20
-6242.881932197669
 30
0.0
 10
23746.93883364161
 20
-6258.379386632366
 30
0.0
 10
23746.88147702907
 20
-6275.097594648481
 30
0.0
 10
23746.8254226693
 20
-6293.147492174664
 30
0.0
 10
23746.77122153327
 20
-6312.727441273935
 30
0.0
 10
23746.74589606796
 20
-6326.303906403022
 30
0.0
 10
23746.74086200707
 20
-6333.393116687241
 30
0.0
 11
23747.29805869558
 21
-6115.995392903414
 31
0.0
 11
23747.30816348613
 21
-6124.906226699697
 31
0.0
 11
23747.31302231309
 21
-6134.048751185755
 31
0.0
 11
23747.31145446253
 21
-6143.315940383114
 31
0.0
 11
23747.30290365413
 21
-6152.49566675566
 31
0.0
 11
23747.28784537589
 21
-6161.317148238906
 31
0.0
 11
23747.26530411795
 21
-6170.438000644868
 31
0.0
 11
23747.23427477438
 21
-6180.354745228402
 31
0.0
 11
23747.19585704831
 21
-6191.004286306727
 31
0.0
 11
23747.15124787159
 21
-6202.46879775408
 31
0.0
 11
23747.10203282397
 21
-6214.839996306028
 31
0.0
 11
23747.05024522117
 21
-6228.160859918242
 31
0.0
 11
23746.99647801349
 21
-6242.509137122053
 31
0.0
 11
23746.94073423369
 21
-6257.97581107055
 31
0.0
 11
23746.88387090825
 21
-6274.653227817243
 31
0.0
 11
23746.82789823381
 21
-6292.663771592872
 31
0.0
 11
23746.77568631894
 21
-6312.125508983785
 31
0.0
 11
23746.74086200707
 21
-6333.393116687241
 31
0.0
  0
SPLINE
  5
94
330
2
100
AcDbEntity
  8
0
  6
Continuous
 62
     7
100
AcDbSpline
210
0.0
220
0.0
230
1.0
 70
     8
 71
     3
 72
    14
 73
    10
 74
     8
 42
0.0000000001
 43
0.0000000001
 44
0.0000000001
 12
0.0661635537010626
 22
-0.9978087913832222
 32
0.0
 13
-0.9980976633383736
 23
0.0616526920618914
 33
0.0
 40
0.0
 40
0.0
 40
0.0
 40
0.0
 40
4.705734498343399
 40
9.243113659680023
 40
13.69615340666502
 40
18.13091162898488
 40
22.61760713743568
 40
27.22836522207145
 40
32.10005691688849
 40
32.10005691688849
 40
32.10005691688849
 40
32.10005691688849
 10
23746.74086200707
 20
-6333.393116687241
 30
0.0
 10
23746.8446447128
 20
-6334.958257771361
 30
0.0
 10
23746.68848947245
 20
-6338.070191635516
 30
0.0
 10
23745.35992425215
 20
-6342.484033873788
 30
0.0
 10
23743.03200262213
 20
-6346.360333334904
 30
0.0
 10
23739.84271369435
 20
-6349.538774261716
 30
0.0
 10
23735.92803298379
 20
-6351.872432978229
 30
0.0
 10
23731.42394778922
 20
-6353.217219988671
 30
0.0
 10
23728.23277073928
 20
-6353.379388139839
 30
0.0
 10
23726.61196270692
 20
-6353.279270503879
 30
0.0
 11
23746.74086200707
 21
-6333.393116687241
 31
0.0
 11
23746.49372730957
 21
-6338.092357222709
 31
0.0
 11
23745.17679632139
 21
-6342.43441922435
 31
0.0
 11
23742.88367538567
 21
-6346.251638023741
 31
0.0
 11
23739.74305525595
 21
-6349.382705843387
 31
0.0
 11
23735.89058105083
 21
-6351.682462153176
 31
0.0
 11
23731.47646029819
 21
-6353.01461383228
 31
0.0
 11
23726.61196270692
 21
-6353.279270503879
 31
0.0
  0
SPLINE
  5
95
330
2
100
AcDbEntity
  8
0
  6
Continuous
 62
     7
100
AcDbSpline
210
0.0
220
0.0
230
1.0
 70
     8
 71
     3
 72
    23
 73
    19
 74
    17
 42
0.0000000001
 43
0.0000000001
 44
0.0000000001
 12
-0.9999882402270316
 22
-0.0048496811899651
 32
0.0
 13
-0.9999989717240016
 23
0.001434067968907
 33
0.0
 40
0.0
 40
0.0
 40
0.0
 40
0.0
 40
22.85971748608927
 40
43.07090005312597
 40
60.91065493223247
 40
76.60325563202028
 40
90.90011342367835
 40
104.5678540235064
 40
118.2390284868755
 40
131.9770008199439
 40
145.7037002232341
 40
159.3834230531259
 40
173.1315783314737
 40
187.4465389421329
 40
202.8895217205283
 40
220.0218285701229
 40
239.4055522908752
 40
261.6138472622655
 40
261.6138472622655
 40
261.6138472622655
 40
261.6138472622655
 10
23726.61196270692
 20
-6353.279270503879
 30
0.0
 10
23718.99214648658
 20
-6353.316224617846
 30
0.0
 10
23704.63560429263
 20
-6353.4340331194
 30
0.0
 10
23684.33309987331
 20
-6353.638803131389
 30
0.0
 10
23666.41926453723
 20
-6353.796066625537
 30
0.0
 10
23650.47654610171
 20
-6353.903698687392
 30
0.0
 10
23635.92430497199
 20
-6353.973361110245
 30
0.0
 10
23622.04577697971
 20
-6354.016730236633
 30
0.0
 10
23608.35350359748
 20
-6354.042652511249
 30
0.0
 10
23594.64156418126
 20
-6354.058880265267
 30
0.0
 10
23580.92677320295
 20
-6354.072953190673
 30
0.0
 10
23567.20858529407
 20
-6354.084316940584
 30
0.0
 10
23553.29430832477
 20
-6354.092990558891
 30
0.0
 10
23538.79227644103
 20
-6354.098745449187
 30
0.0
 10
23523.16219301246
 20
-6354.10103129657
 30
0.0
 10
23505.8425217493
 20
-6354.098269461052
 30
0.0
 10
23486.26774911314
 20
-6354.087096321342
 30
0.0
 10
23472.40375038727
 20
-6354.071683870511
 30
0.0
 10
23465.00099300889
 20
-6354.061067802357
 30
0.0
 11
23726.61196270692
 21
-6353.279270503879
 31
0.0
 11
23703.75287444245
 21
-6353.448879646506
 31
0.0
 11
23683.54261548536
 21
-6353.642098810471
 31
0.0
 11
23665.70352390174
 21
-6353.795935144916
 31
0.0
 11
23650.01127803203
 21
-6353.901463755295
 31
0.0
 11
23635.71458603111
 21
-6353.970315377815
 31
0.0
 11
23622.04691499211
 21
-6354.013921269775
 31
0.0
 11
23608.37576734081
 21
-6354.040997166862
 31
0.0
 11
23594.6378061884
 21
-6354.058524256519
 31
0.0
 11
23580.91111391615
 21
-6354.072516092891
 31
0.0
 11
23567.23139576637
 21
-6354.083831797971
 31
0.0
 11
23553.48324313573
 21
-6354.092364211703
 31
0.0
 11
23539.16828364277
 21
-6354.098021043165
 31
0.0
 11
23523.72530101851
 21
-6354.100202905704
 31
0.0
 11
23506.59299441705
 21
-6354.097287041577
 31
0.0
 11
23487.20927397959
 21
-6354.086004978793
 31
0.0
 11
23465.00099300889
 21
-6354.061067802357
 31
0.0
  0
SPLINE
  5
96
330
2
100
AcDbEntity
  8
0
  6
Continuous
 62
     7
100
AcDbSpline
210
0.0
220
0.0
230
1.0
 70
     8
 71
     3
 72
    12
 73
     8
 74
     6
 42
0.0000000001
 43
0.0000000001
 44
0.0000000001
 12
-0.9999989314830264
 22
0.0014618593658983
 32
0.0
 13
-0.9999737508389351
 23
0.007245525040425
 33
0.0
 40
0.0
 40
0.0
 40
0.0
 40
0.0
 40
46.47603021884902
 40
97.92093469475139
 40
154.7264887943985
 40
211.3340614016951
 40
261.6295481775125
 40
261.6295481775125
 40
261.6295481775125
 40
261.6295481775125
 10
23465.00099300889
 20
-6354.061067802357
 30
0.0
 10
23449.50899948942
 20
-6354.038420662335
 30
0.0
 10
23416.86865923961
 20
-6354.055020566136
 30
0.0
 10
23365.29319254069
 20
-6354.127263568667
 30
0.0
 10
23310.34078282002
 20
-6354.262824496257
 30
0.0
 10
23255.77041391761
 20
-6354.054879133552
 30
0.0
 10
23220.1406555313
 20
-6353.42616251309
 30
0.0
 10
23203.37593334413
 20
-6353.304690110139
 30
0.0
 11
23465.00099300889
 21
-6354.061067802357
 31
0.0
 11
23418.52496279121
 21
-6354.060738173857
 31
0.0
 11
23367.08010969941
 21
-6354.133449229869
 31
0.0
 11
23310.27459873103
 21
-6354.203450583378
 31
0.0
 11
23253.66779377113
 21
-6353.908647731272
 31
0.0
 11
23203.37593334413
 21
-6353.304690110139
 31
0.0
  0
SPLINE
  5
97
330
2
100
AcDbEntity
  8
0
  6
Continuous
 62
     7
100
AcDbSpline
210
0.0
220
0.0
230
1.0
 70
     8
 71
     3
 72
    14
 73
    10
 74
     8
 42
0.0000000001
 43
0.0000000001
 44
0.0000000001
 12
-0.9984774508745527
 22
-0.055161400408759
 32
0.0
 13
0.0657538038027118
 23
0.9978358769284028
 33
0.0
 40
0.0
 40
0.0
 40
0.0
 40
0.0
 40
4.89291852183604
 40
9.534486495864085
 40
14.02491063769151
 40
18.45326365371755
 40
22.91301692608496
 40
27.45161889560736
 40
32.21054680089592
 40
32.21054680089592
 40
32.21054680089592
 40
32.21054680089592
 10
23203.37593334413
 20
-6353.304690110139
 30
0.0
 10
23201.74744373979
 20
-6353.394656856056
 30
0.0
 10
23198.54025431681
 20
-6353.214236158623
 30
0.0
 10
23194.0242106922
 20
-6351.84334303395
 30
0.0
 10
23190.11269458598
 20
-6349.486510390789
 30
0.0
 10
23186.93455921288
 20
-6346.295398644177
 30
0.0
 10
23184.62085889094
 20
-6342.410021810522
 30
0.0
 10
23183.29789006186
 20
-6337.973737955515
 30
0.0
 10
23183.14538802328
 20
-6334.843668032363
 30
0.0
 10
23183.24969389387
 20
-6333.26079169916
 30
0.0
 11
23203.37593334413
 21
-6353.304690110139
 31
0.0
 11
23198.49180350865
 21
-6353.011556332689
 31
0.0
 11
23194.05469089699
 21
-6351.649137553837
 31
0.0
 11
23190.20986135527
 21
-6349.329397316519
 31
0.0
 11
23187.08594814159
 21
-6346.190691107278
 31
0.0
 11
23184.80277607346
 21
-6342.359695863523
 31
0.0
 11
23183.49579361249
 21
-6338.013352033993
 31
0.0
 11
23183.24969389387
 21
-6333.26079169916
 31
0.0
  0
SPLINE
  5
98
330
2
100
AcDbEntity
  8
0
  6
Continuous
 62
     7
100
AcDbSpline
210
0.0
220
0.0
230
1.0
 70
     8
 71
     3
 72
    23
 73
    19
 74
    17
 42
0.0000000001
 43
0.0000000001
 44
0.0000000001
 12
-0.0016097607480804
 22
0.9999987043343276
 32
0.0
 13
0.0035840544074962
 23
0.9999935772563762
 33
0.0
 40
0.0
 40
0.0
 40
0.0
 40
0.0
 40
24.24528698209662
 40
45.99803422888631
 40
65.67804132355989
 40
83.48449469846997
 40
99.66251849852284
 40
114.3940293694348
 40
127.8490661409015
 40
140.1325346683845
 40
151.3746111372688
 40
161.7258643540146
 40
171.1839075103623
 40
180.1342497433271
 40
189.4552437176034
 40
198.8885180865465
 40
208.1964174265844
 40
217.2708388497343
 40
217.2708388497343
 40
217.2708388497343
 40
217.2708388497343
 10
23183.24969389387
 20
-6333.26079169916
 30
0.0
 10
23183.2366841901
 20
-6325.179039843057
 30
0.0
 10
23183.19130430342
 20
-6309.846419177678
 30
0.0
 10
23183.11069573914
 20
-6287.953888963256
 30
0.0
 10
23183.0294214858
 20
-6268.207652254297
 30
0.0
 10
23182.94682663613
 20
-6250.319681228145
 30
0.0
 10
23182.86883398809
 20
-6234.081205847942
 30
0.0
 10
23182.79791236161
 20
-6219.29318543672
 30
0.0
 10
23182.73569031673
 20
-6205.803323335209
 30
0.0
 10
23182.68486698901
 20
-6193.476566695784
 30
0.0
 10
23182.64721045302
 20
-6182.184361828428
 30
0.0
 10
23182.62351526833
 20
-6171.833929035851
 30
0.0
 10
23182.61368742394
 20
-6162.247384866496
 30
0.0
 10
23182.61714147766
 20
-6153.004256427788
 30
0.0
 10
23182.63169516351
 20
-6143.76939581536
 30
0.0
 10
23182.65575539705
 20
-6134.415369728259
 30
0.0
 10
23182.68600157932
 20
-6125.14355364139
 30
0.0
 10
23182.70806585312
 20
-6119.016153101457
 30
0.0
 10
23182.71890692649
 20
-6115.991365387968
 30
0.0
 11
23183.24969389387
 21
-6333.26079169916
 31
0.0
 11
23183.18576836005
 21
-6309.015588990781
 31
0.0
 11
23183.10649996639
 21
-6287.262986174004
 31
0.0
 11
23183.02512427951
 21
-6267.583147321921
 31
0.0
 11
23182.94374309608
 21
-6249.776879916992
 31
0.0
 11
23182.86653812476
 21
-6233.599040337262
 31
0.0
 11
23182.79634239519
 21
-6218.867696708816
 31
0.0
 11
23182.73503667579
 21
-6205.412799602918
 31
0.0
 11
23182.68512096409
 21
-6193.129432495834
 31
0.0
 11
23182.64825984909
 21
-6181.887416458199
 31
0.0
 11
23182.62511286719
 21
-6171.536189121578
 31
0.0
 11
23182.61577982515
 21
-6162.078150570078
 31
0.0
 11
23182.61885236664
 21
-6153.127808864496
 31
0.0
 11
23182.63317454525
 21
-6143.806825893602
 31
0.0
 11
23182.65695493711
 21
-6134.373581498765
 31
0.0
 11
23182.68678764098
 21
-6125.065729967179
 31
0.0
 11
23182.71890692649
 21
-6115.991365387968
 31
0.0
  0
SPLINE
  5
99
330
2
100
AcDbEntity
  8
0
  6
Continuous
 62
     7
100
AcDbSpline
210
0.0
220
0.0
230
1.0
 70
     8
 71
     3
 72
    17
 73
    13
 74
    11
 42
0.0000000001
 43
0.0000000001
 44
0.0000000001
 12
0.0035827418528204
 22
0.9999935819598125
 32
0.0
 13
0.0095751621824868
 23
0.9999541570838029
 33
0.0
 40
0.0
 40
0.0
 40
0.0
 40
0.0
 40
11.5442782534959
 40
21.79224515775198
 40
31.01843970055571
 40
39.31246860866494
 40
46.82534257955848
 40
53.65292267276198
 40
59.87166200255636
 40
65.5440075220759
 40
70.72765813598493
 40
75.48175521775926
 40
75.48175521775926
 40
75.48175521775926
 40
75.48175521775926
 10
23182.71890692649
 20
-6115.991365387968
 30
0.0
 10
23182.73269364944
 20
-6112.143297334017
 30
0.0
 10
23182.75364319732
 20
-6104.879243765122
 30
0.0
 10
23182.7746686873
 20
-6094.539785072377
 30
0.0
 10
23182.79154205904
 20
-6085.283736973998
 30
0.0
 10
23182.80975911349
 20
-6076.939390779529
 30
0.0
 10
23182.83215362673
 20
-6069.394594690622
 30
0.0
 10
23182.86273463057
 20
-6062.541595244842
 30
0.0
 10
23182.90119670635
 20
-6056.302155939856
 30
0.0
 10
23182.94497728798
 20
-6050.610744127492
 30
0.0
 10
23182.99087516754
 20
-6045.407581500207
 30
0.0
 10
23183.02225695631
 20
-6042.095147500124
 30
0.0
 10
23183.03743070651
 20
-6040.510521120092
 30
0.0
 11
23182.71890692649
 21
-6115.991365387968
 31
0.0
 11
23182.75315568705
 21
-6104.447137938002
 31
0.0
 11
23182.77498277573
 21
-6094.199194278472
 31
0.0
 11
23182.79269184368
 21
-6084.973016731374
 31
0.0
 11
23182.81146639086
 21
-6076.679009072531
 31
0.0
 11
23182.83479200587
 21
-6069.166171311858
 31
0.0
 11
23182.86566721971
 21
-6062.338661029897
 31
0.0
 11
23182.90397581213
 21
-6056.120039695254
 31
0.0
 11
23182.94734536725
 21
-6050.447859975384
 31
0.0
 11
23182.99272644235
 21
-6045.264408013119
 31
0.0
 11
23183.03743070651
 21
-6040.510521120092
 31
0.0
  0
LINE
  5
9A
330
2
100
AcDbEntity
  8
0
  6
Continuous
 62
     7
100
AcDbLine
 10
23183.03743070651
 20
-6040.510521120092
 30
0.0
 11
23183.04246059486
 21
-6039.987017338563
 31
0.0
  0
SPLINE
  5
9B
330
2
100
AcDbEntity
  8
0
  6
Continuous
 62
     7
100
AcDbSpline
210
0.0
220
0.0
230
1.0
 70
     8
 71
     3
 72
    15
 73
    11
 74
     9
 42
0.0000000001
 43
0.0000000001
 44
0.0000000001
 12
-0.9995011904531752
 22
-0.0315811697485297
 32
0.0
 13
-0.1515077474944639
 23
-0.9884560700654095
 33
0.0
 40
0.0
 40
0.0
 40
0.0
 40
0.0
 40
4.79933257185679
 40
9.42823384098903
 40
13.63967723040398
 40
17.42182110634104
 40
20.81194090960614
 40
23.86191491690607
 40
26.61737731730159
 40
29.12232240646239
 40
29.12232240646239
 40
29.12232240646239
 40
29.12232240646239
 10
23208.48835491251
 20
-6022.155001100202
 30
0.0
 10
23206.88937537286
 20
-6022.205523945746
 30
0.0
 10
23203.7471356898
 20
-6022.605106808962
 30
0.0
 10
23199.42087570043
 20
-6024.109499924637
 30
0.0
 10
23195.7998769727
 20
-6026.31192521138
 30
0.0
 10
23192.99702808566
 20
-6028.903355752115
 30
0.0
 10
23190.93756235493
 20
-6031.638649947697
 30
0.0
 10
23189.50965567926
 20
-6034.364650213598
 30
0.0
 10
23188.58769732156
 20
-6036.985475624361
 30
0.0
 10
23188.21957412423
 20
-6038.704807974674
 30
0.0
 10
23188.09306792821
 20
-6039.530150700861
 30
0.0
 11
23208.48835491251
 21
-6022.155001100202
 31
0.0
 11
23203.72966198897
 21
-6022.77824647296
 31
0.0
 11
23199.36193686363
 21
-6024.31112095864
 31
0.0
 11
23195.76692565641
 21
-6026.504782245674
 31
0.0
 11
23192.98974985187
 21
-6029.072253150856
 31
0.0
 11
23190.95145806867
 21
-6031.781178931871
 31
0.0
 11
23189.53497417063
 21
-6034.4822740453
 31
0.0
 11
23188.61902496367
 21
-6037.081044925979
 31
0.0
 11
23188.09306792821
 21
-6039.530150700861
 31
0.0
  0
SPLINE
  5
9C
330
2
100
AcDbEntity
  8
0
  6
Continuous
 62
     7
100
AcDbSpline
210
0.0
220
0.0
230
1.0
 70
     8
 71
     3
 72
    10
 73
     6
 74
     4
 42
0.0000000001
 43
0.0000000001
 44
0.0000000001
 12
-0.5316099963594113
 22
-0.8469892630787871
 32
0.0
 13
-0.9999604716366473
 23
0.0088912971052656
 33
0.0
 40
0.0
 40
0.0
 40
0.0
 40
0.0
 40
0.3254543677609574
 40
0.6016134943489992
 40
0.8497982941460426
 40
0.8497982941460426
 40
0.8497982941460426
 40
0.8497982941460426
 10
23188.09304990438
 20
-6039.530143840316
 30
0.0
 10
23188.03537830596
 20
-6039.622029292022
 30
0.0
 10
23187.91235230259
 20
-6039.783339721098
 30
0.0
 10
23187.67717919118
 20
-6039.951214513381
 30
0.0
 10
23187.50021586082
 20
-6039.989216651352
 30
0.0
 10
23187.41749086433
 20
-6039.988481089754
 30
0.0
 11
23188.09304990438
 21
-6039.530143840316
 31
0.0
 11
23187.88955197507
 21
-6039.784130332604
 31
0.0
 11
23187.66060101311
 21
-6039.938549632605
 31
0.0
 11
23187.41749086433
 21
-6039.988481089754
 31
0.0
  0
SPLINE
  5
A0
330
2
100
AcDbEntity
  8
0
  6
Continuous
 62
     7
100
AcDbSpline
210
0.0
220
0.0
230
1.0
 70
     8
 71
     3
 72
    10
 73
     6
 74
     4
 42
0.0000000001
 43
0.0000000001
 44
0.0000000001
 12
-0.9999996942493618
 22
0.0007819854109222
 32
0.0
 13
-0.5239116538976536
 23
0.8517726098614732
 33
0.0
 40
0.0
 40
0.0
 40
0.0
 40
0.0
 40
0.2333000104257832
 40
0.4915761805784519
 40
0.7848486578826122
 40
0.7848486578826122
 40
0.7848486578826122
 40
0.7848486578826122
 10
23742.44084763277
 20
-6039.98745343369
 30
0.0
 10
23742.36308098641
 20
-6039.987392621288
 30
0.0
 10
23742.19730351066
 20
-6039.951588447826
 30
0.0
 10
23741.98111736815
 20
-6039.794541838572
 30
0.0
 10
23741.86983302048
 20
-6039.645648872895
 30
0.0
 10
23741.81861673093
 20
-6039.562381718429
 30
0.0
 11
23742.44084763277
 21
-6039.98745343369
 31
0.0
 11
23742.21256765499
 21
-6039.939316684648
 31
0.0
 11
23741.99966853799
 21
-6039.793095803621
 31
0.0
 11
23741.81861673093
 21
-6039.562381718429
 31
0.0
  0
SPLINE
  5
A2
330
2
100
AcDbEntity
  8
0
  6
Continuous
 62
     7
100
AcDbSpline
210
0.0
220
0.0
230
1.0
 70
     8
 71
     3
 72
    10
 73
     6
 74
     4
 42
0.0000000001
 43
0.0000000001
 44
0.0000000001
 12
0.9999993692418243
 22
0.0011231722723837
 32
0.0
 13
0.9997796978767047
 23
0.0209894190859363
 33
0.0
 40
0.0
 40
0.0
 40
0.0
 40
0.0
 40
1.322743449685047
 40
3.218379061452906
 40
5.422346394865742
 40
5.422346394865742
 40
5.422346394865742
 40
5.422346394865742
 10
23746.93575757867
 20
-6039.987170424347
 30
0.0
 10
23747.37667178379
 20
-6039.986675201425
 30
0.0
 10
23748.44881613501
 20
-6039.939248394984
 30
0.0
 10
23750.25572610596
 20
-6039.898493042366
 30
0.0
 10
23751.6222094346
 20
-6039.881689307796
 30
0.0
 10
23752.35670336618
 20
-6039.866269309793
 30
0.0
 11
23746.93575757867
 21
-6039.987170424347
 31
0.0
 11
23748.25802309771
 21
-6039.951615806616
 31
0.0
 11
23750.15305570591
 21
-6039.903805907326
 31
0.0
 11
23752.35670336618
 21
-6039.866269309793
 31
0.0
  0
SPLINE
  5
A3
330
2
100
AcDbEntity
  8
0
  6
Continuous
 62
     7
100
AcDbSpline
210
0.0
220
0.0
230
1.0
 70
     8
 71
     3
 72
    10
 73
     6
 74
     4
 42
0.0000000001
 43
0.0000000001
 44
0.0000000001
 12
0.9997413606102496
 22
-0.0227422928740087
 32
0.0
 13
0.9999990828586803
 23
-0.0013543565995196
 33
0.0
 40
0.0
 40
0.0
 40
0.0
 40
0.0
 40
2.220795644070017
 40
4.125957924778266
 40
5.445548919955931
 40
5.445548919955931
 40
5.445548919955931
 40
5.445548919955931
 10
23177.59795879656
 20
-6039.855302717556
 30
0.0
 10
23178.3380325495
 20
-6039.872138045874
 30
0.0
 10
23179.7135239171
 20
-6039.877113160656
 30
0.0
 10
23181.52788739855
 20
-6039.930066802098
 30
0.0
 10
23182.60181810185
 20
-6039.988235603179
 30
0.0
 10
23183.0416813635
 20
-6039.988831335437
 30
0.0
 11
23177.59795879656
 21
-6039.855302717556
 31
0.0
 11
23179.81851846769
 21
-6039.887676158008
 31
0.0
 11
23181.72281457019
 21
-6039.945118910798
 31
0.0
 11
23183.0416813635
 21
-6039.988831335437
 31
0.0
  0
SPLINE
  5
A8
330
2
100
AcDbEntity
  8
0
  6
Continuous
 62
     7
100
AcDbSpline
210
0.0
220
0.0
230
1.0
 70
     8
 71
     3
 72
    31
 73
    27
 74
    25
 42
0.0000000001
 43
0.0000000001
 44
0.0000000001
 12
-0.9999740582390662
 22
0.0072029750029277
 32
0.0
 13
-0.9984014333310058
 23
-0.056520597330468
 33
0.0
 40
0.0
 40
0.0
 40
0.0
 40
0.0
 40
11.84280161320502
 40
23.66311523175602
 40
35.45598141453775
 40
47.21904052769993
 40
58.94815346162839
 40
70.64125319896104
 40
82.35223952826158
 40
94.21272349584084
 40
106.3321444624567
 40
118.7907183650877
 40
131.6675339122374
 40
144.9797640328544
 40
158.3404561497654
 40
171.2046764183733
 40
183.0318828935445
 40
193.614268372371
 40
203.105167200785
 40
211.6871859039549
 40
219.3988672494068
 40
226.6463671033199
 40
234.2408015531411
 40
241.9222740085779
 40
249.4128882256231
 40
256.5309792133886
 40
256.5309792133886
 40
256.5309792133886
 40
256.5309792133886
 10
23465.00099300889
 20
-6020.330740029405
 30
0.0
 10
23461.05349487887
 20
-6020.30230556141
 30
0.0
 10
23453.16573895501
 20
-6020.277953374433
 30
0.0
 10
23441.34709294006
 20
-6020.319669528237
 30
0.0
 10
23429.55540877934
 20
-6020.420624049535
 30
0.0
 10
23417.79457383494
 20
-6020.562769127016
 30
0.0
 10
23406.06733433013
 20
-6020.729708983243
 30
0.0
 10
23394.3575943079
 20
-6020.905946424149
 30
0.0
 10
23382.60405841884
 20
-6021.082159942637
 30
0.0
 10
23370.70837743881
 20
-6021.256888347465
 30
0.0
 10
23358.56341553883
 20
-6021.427544083497
 30
0.0
 10
23346.07955086022
 20
-6021.591342420068
 30
0.0
 10
23333.19791686166
 20
-6021.744452517032
 30
0.0
 10
23320.01537001374
 20
-6021.880845540833
 30
0.0
 10
23306.8367853535
 20
-6021.992370521619
 30
0.0
 10
23294.15298793214
 20
-6022.072519818798
 30
0.0
 10
23282.39512594797
 20
-6022.118222643037
 30
0.0
 10
23271.76161880879
 20
-6022.129580194928
 30
0.0
 10
23262.20985616059
 20
-6022.10984006203
 30
0.0
 10
23253.61508871543
 20
-6022.066002472555
 30
0.0
 10
23245.76825309504
 20
-6022.005343879345
 30
0.0
 10
23238.25072411299
 20
-6021.931860255775
 30
0.0
 10
23230.74356511991
 20
-6021.835063929233
 30
0.0
 10
23223.15484168685
 20
-6021.772392500688
 30
0.0
 10
23215.72452605771
 20
-6021.83911847164
 30
0.0
 10
23210.8572589941
 20
-6022.020894848708
 30
0.0
 10
23208.48835491251
 20
-6022.155001100202
 30
0.0
 11
23465.00099300889
 21
-6020.330740029405
 31
0.0
 11
23453.15825806093
 21
-6020.291003370241
 31
0.0
 11
23441.33800754095
 21
-6020.329625718694
 31
0.0
 11
23429.54554871799
 21
-6020.427644664136
 31
0.0
 11
23417.78331656305
 21
-6020.567123813677
 31
0.0
 11
23406.05535515746
 21
-6020.731475527142
 31
0.0
 11
23394.36355409355
 21
-6020.905743565707
 31
0.0
 11
23382.65387656554
 21
-6021.080823533039
 31
0.0
 11
23370.79466244555
 21
-6021.254375835159
 31
0.0
 11
23358.67643000185
 21
-6021.424102104798
 31
0.0
 11
23346.21892100023
 21
-6021.586992134622
 31
0.0
 11
23333.34300835993
 21
-6021.739479231217
 31
0.0
 11
23320.03148349459
 21
-6021.876506760067
 31
0.0
 11
23306.67126419019
 21
-6021.988907744298
 31
0.0
 11
23293.80729493977
 21
-6022.069270941449
 31
0.0
 11
23281.98017293239
 21
-6022.113970257697
 31
0.0
 11
23271.39779233951
 21
-6022.124139330588
 31
0.0
 11
23261.90691451155
 21
-6022.104173713922
 31
0.0
 11
23253.32500662842
 21
-6022.060560562639
 31
0.0
 11
23245.61355191673
 21
-6022.001438626021
 31
0.0
 11
23238.36641097035
 21
-6021.929312100217
 31
0.0
 11
23230.77248686689
 21
-6021.841270498296
 31
0.0
 11
23223.0911585415
 21
-6021.794214775791
 31
0.0
 11
23215.60099659525
 21
-6021.87652739755
 31
0.0
 11
23208.48835491251
 21
-6022.155001100202
 31
0.0
  0
SPLINE
  5
A9
330
2
100
AcDbEntity
  8
0
  6
Continuous
 62
     7
100
AcDbSpline
210
0.0
220
0.0
230
1.0
 70
     8
 71
     3
 72
    13
 73
     9
 74
     7
 42
0.0000000001
 43
0.0000000001
 44
0.0000000001
 12
0.9838989690556781
 22
0.1787255401199662
 32
0.0
 13
-0.1698415344891632
 23
-0.9854713862727656
 33
0.0
 40
0.0
 40
0.0
 40
0.0
 40
0.0
 40
1.820870813599727
 40
3.311160235825222
 40
4.560279387124283
 40
5.744847263557642
 40
7.065906063610218
 40
8.656950364920021
 40
8.656950364920021
 40
8.656950364920021
 40
8.656950364920021
 10
23741.38246204318
 20
-5912.726675504664
 30
0.0
 10
23741.9796463486
 20
-5912.618196798113
 30
0.0
 10
23743.08887414418
 20
-5912.513868131452
 30
0.0
 10
23744.61050620046
 20
-5912.77005297919
 30
0.0
 10
23745.77719774115
 20
-5913.428075043186
 30
0.0
 10
23746.55860177459
 20
-5914.448308000159
 30
0.0
 10
23746.92165215222
 20
-5915.794580303487
 30
0.0
 10
23746.86367939834
 20
-5916.778753794948
 30
0.0
 10
23746.77360426315
 20
-5917.301396672692
 30
0.0
 11
23741.38246204318
 21
-5912.726675504664
 31
0.0
 11
23743.19829014125
 21
-5912.591254538512
 31
0.0
 11
23744.66150951097
 21
-5912.87401174542
 31
0.0
 11
23745.73919380467
 21
-5913.505593266096
 31
0.0
 11
23746.46327960314
 21
-5914.443090364939
 31
0.0
 11
23746.83268578075
 21
-5915.711449710367
 31
0.0
 11
23746.77360426315
 21
-5917.301396672692
 31
0.0
  0
SPLINE
  5
AA
330
2
100
AcDbEntity
  8
0
  6
Continuous
 62
     7
100
AcDbSpline
210
0.0
220
0.0
230
1.0
 70
     8
 71
     3
 72
    17
 73
    13
 74
    11
 42
0.0000000001
 43
0.0000000001
 44
0.0000000001
 12
0.9456061331121555
 22
-0.3253137578103277
 32
0.0
 13
0.299479115720452
 23
-0.9541028556960178
 33
0.0
 40
0.0
 40
0.0
 40
0.0
 40
0.0
 40
0.68923215239641
 40
1.338880043854988
 40
1.972733737135518
 40
2.615811350808804
 40
3.286643718075092
 40
3.997102952790924
 40
4.749933272935882
 40
5.528693298988047
 40
6.321458199140682
 40
7.144921051052443
 40
7.144921051052443
 40
7.144921051052443
 40
7.144921051052443
 10
23740.95864278921
 20
-5913.087292235801
 30
0.0
 10
23741.1758901727
 20
-5913.162031136302
 30
0.0
 10
23741.58980747239
 20
-5913.331810959863
 30
0.0
 10
23742.17056944746
 20
-5913.64211040711
 30
0.0
 10
23742.70852204422
 20
-5913.994287354641
 30
0.0
 10
23743.22092539339
 20
-5914.394159311976
 30
0.0
 10
23743.71797632173
 20
-5914.851641561689
 30
0.0
 10
23744.20036081007
 20
-5915.37562353292
 30
0.0
 10
23744.65776829179
 20
-5915.967894686582
 30
0.0
 10
23745.07393215367
 20
-5916.622816216335
 30
0.0
 10
23745.435341184
 20
-5917.336042590914
 30
0.0
 10
23745.62722709327
 20
-5917.84092490103
 30
0.0
 10
23745.70943040217
 20
-5918.102814320553
 30
0.0
 11
23740.95864278921
 21
-5913.087292235801
 31
0.0
 11
23741.5968090313
 21
-5913.347647392008
 31
0.0
 11
23742.17023171985
 21
-5913.652981312703
 31
0.0
 11
23742.70086376756
 21
-5913.99968022305
 31
0.0
 11
23743.20810356079
 21
-5914.39497329074
 31
0.0
 11
23743.70189375685
 21
-5914.849051816162
 31
0.0
 11
23744.18318746787
 21
-5915.371649833693
 31
0.0
 11
23744.64323898363
 21
-5915.967557623347
 31
0.0
 11
23745.06056413578
 21
-5916.625058114272
 31
0.0
 11
23745.41819637708
 21
-5917.332571624318
 31
0.0
 11
23745.70943040217
 21
-5918.102814320553
 31
0.0
  0
SPLINE
  5
AB
330
2
100
AcDbEntity
  8
0
  6
Continuous
 62
     7
100
AcDbSpline
210
0.0
220
0.0
230
1.0
 70
     8
 71
     3
 72
    13
 73
     9
 74
     7
 42
0.0000000001
 43
0.0000000001
 44
0.0000000001
 12
-0.1650193377236521
 22
0.9862903315845933
 32
0.0
 13
0.9840311503053147
 23
-0.1779963348746235
 33
0.0
 40
0.0
 40
0.0
 40
0.0
 40
0.0
 40
1.621787305431801
 40
2.96029507539849
 40
4.138335789168511
 40
5.378294421866709
 40
6.852411424216801
 40
8.643797097558868
 40
8.643797097558868
 40
8.643797097558868
 40
8.643797097558868
 10
23183.21377206071
 20
-5917.362399187206
 30
0.0
 10
23183.12456330502
 20
-5916.829214807461
 30
0.0
 10
23183.07127491503
 20
-5915.828306481582
 30
0.0
 10
23183.44412219493
 20
-5914.470566223416
 30
0.0
 10
23184.22186015917
 20
-5913.448973730529
 30
0.0
 10
23185.37174836527
 20
-5912.78438182061
 30
0.0
 10
23186.87371433671
 20
-5912.518317335755
 30
0.0
 10
23187.96839907221
 20
-5912.618494246784
 30
0.0
 10
23188.55599217381
 20
-5912.724780941519
 30
0.0
 11
23183.21377206071
 21
-5917.362399187206
 31
0.0
 11
23183.16221873481
 21
-5915.741431476655
 31
0.0
 11
23183.54183369567
 21
-5914.45788345194
 31
0.0
 11
23184.25977849549
 21
-5913.523894593488
 31
0.0
 11
23185.32405284141
 21
-5912.887641870568
 31
0.0
 11
23186.76918651959
 21
-5912.596764596083
 31
0.0
 11
23188.55599217381
 21
-5912.724780941519
 31
0.0
  0
SPLINE
  5
AC
330
2
100
AcDbEntity
  8
0
  6
Continuous
 62
     7
100
AcDbSpline
210
0.0
220
0.0
230
1.0
 70
     8
 71
     3
 72
    17
 73
    13
 74
    11
 42
0.0000000001
 43
0.0000000001
 44
0.0000000001
 12
0.2980819660090299
 22
0.9545402775892652
 32
0.0
 13
0.9474292434896648
 23
0.3199653552817891
 33
0.0
 40
0.0
 40
0.0
 40
0.0
 40
0.0
 40
0.6786342687931909
 40
1.315695656691186
 40
1.928685373451305
 40
2.537971182652608
 40
3.167708292382639
 40
3.844387983272718
 40
4.588132236353906
 40
5.395854267534729
 40
6.258901620689042
 40
7.17271992319902
 40
7.17271992319902
 40
7.17271992319902
 40
7.17271992319902
 10
23184.18835404093
 20
-5918.102199605002
 30
0.0
 10
23184.25578358661
 20
-5917.886271690563
 30
0.0
 10
23184.40721030981
 20
-5917.47383185245
 30
0.0
 10
23184.68163532195
 20
-5916.891695701954
 30
0.0
 10
23184.98978881759
 20
-5916.353250579267
 30
0.0
 10
23185.33587195518
 20
-5915.841379117988
 30
0.0
 10
23185.73209512047
 20
-5915.339842913091
 30
0.0
 10
23186.19668069239
 20
-5914.837647883094
 30
0.0
 10
23186.74663929348
 20
-5914.336975390457
 30
0.0
 10
23187.39222180038
 20
-5913.853957314711
 30
0.0
 10
23188.13606288918
 20
-5913.415601303382
 30
0.0
 10
23188.6834453095
 20
-5913.183017830576
 30
0.0
 10
23188.97203803717
 20
-5913.0855544313
 30
0.0
 11
23184.18835404093
 21
-5918.102199605002
 31
0.0
 11
23184.42151382608
 21
-5917.464876307631
 31
0.0
 11
23184.69267278083
 21
-5916.88840425002
 31
0.0
 11
23184.99690028007
 21
-5916.356236962825
 31
0.0
 11
23185.33803070017
 21
-5915.851401114478
 31
0.0
 11
23185.7283903792
 21
-5915.357247142156
 31
0.0
 11
23186.18799956666
 21
-5914.860603609157
 31
0.0
 11
23186.73817576881
 21
-5914.360142161522
 31
0.0
 11
23187.38540405779
 21
-5913.87691300098
 31
0.0
 11
23188.12994474295
 21
-5913.440438600888
 31
0.0
 11
23188.97203803717
 21
-5913.0855544313
 31
0.0
  0
SPLINE
  5
AE
330
2
100
AcDbEntity
  8
0
  6
Continuous
 62
     7
100
AcDbSpline
210
0.0
220
0.0
230
1.0
 70
     8
 71
     3
 72
     9
 73
     5
 74
     3
 42
0.0000000001
 43
0.0000000001
 44
0.0000000001
 12
0.0003062628807372
 22
-0.999999953101523
 32
0.0
 13
0.0018404722872422
 23
-0.9999983063294457
 33
0.0
 40
0.0
 40
0.0
 40
0.0
 40
0.0
 40
60.45945096965788
 40
122.6849513381545
 40
122.6849513381545
 40
122.6849513381545
 40
122.6849513381545
 10
23746.77356186547
 20
-5917.301428737663
 30
0.0
 10
23746.77973402735
 20
-5937.45457811573
 30
0.0
 10
23746.8283503855
 20
-5978.349544038178
 30
0.0
 10
23746.89769114509
 20
-6019.244467294136
 30
0.0
 10
23746.93586591475
 20
-6039.98626562047
 30
0.0
 11
23746.77356186547
 21
-5917.301428737663
 31
0.0
 11
23746.83268356334
 21
-5977.760850800541
 31
0.0
 11
23746.93586591475
 21
-6039.98626562047
 31
0.0
  0
LINE
  5
AF
330
2
100
AcDbEntity
  8
0
  6
Continuous
 62
     7
100
AcDbLine
 10
23177.58078080957
 20
-6040.390231447037
 30
0.0
 11
23177.59795879656
 21
-6039.855302631191
 31
0.0
  0
SPLINE
  5
B0
330
2
100
AcDbEntity
  8
0
  6
Continuous
 62
     7
100
AcDbSpline
210
0.0
220
0.0
230
1.0
 70
     8
 71
     3
 72
    17
 73
    13
 74
    11
 42
0.0000000001
 43
0.0000000001
 44
0.0000000001
 12
0.0056149913667387
 22
0.9999842358117209
 32
0.0
 13
0.0220385115811816
 23
0.9997571225089052
 33
0.0
 40
0.0
 40
0.0
 40
0.0
 40
0.0
 40
11.53472919134978
 40
21.77858027798264
 40
31.00618027571228
 40
39.30629020221445
 40
46.83140856721599
 40
53.67638353614267
 40
59.91426874237582
 40
65.60500905233216
 40
70.80488545830118
 40
75.57246658997804
 40
75.57246658997804
 40
75.57246658997804
 40
75.57246658997804
 10
23176.98020903637
 20
-6115.959126344
 30
0.0
 10
23177.00179817131
 20
-6112.114277225431
 30
0.0
 10
23177.03530582353
 20
-6104.854823462147
 30
0.0
 10
23177.07008957314
 20
-6094.519488250604
 30
0.0
 10
23177.09896567084
 20
-6085.262346181298
 30
0.0
 10
23177.13074176174
 20
-6076.911462869248
 30
0.0
 10
23177.17049468168
 20
-6069.354827410538
 30
0.0
 10
23177.22570401393
 20
-6062.485711482615
 30
0.0
 10
23177.29716101771
 20
-6056.22823996352
 30
0.0
 10
23177.3821232957
 20
-6050.51936063661
 30
0.0
 10
23177.47649025174
 20
-6045.30080693759
 30
0.0
 10
23177.54575734558
 20
-6041.979039178215
 30
0.0
 10
23177.58078080957
 20
-6040.390231447037
 30
0.0
 11
23176.98020903637
 21
-6115.959126344
 31
0.0
 11
23177.03474604185
 21
-6104.424526080756
 31
0.0
 11
23177.07078739217
 21
-6094.180738397181
 31
0.0
 11
23177.10104053207
 21
-6084.953187992788
 31
0.0
 11
23177.13383681141
 21
-6076.653142860616
 31
0.0
 11
23177.17533438145
 21
-6069.1281389165
 31
0.0
 11
23177.23136734787
 21
-6062.283393294352
 31
0.0
 11
23177.30300806057
 21
-6056.045919490445
 31
0.0
 11
23177.38772916875
 21
-6050.355809859762
 31
0.0
 11
23177.48159841205
 21
-6045.15678079632
 31
0.0
 11
23177.58078080957
 21
-6040.390231447037
 31
0.0
  0
SPLINE
  5
B1
330
2
100
AcDbEntity
  8
0
  6
Continuous
 62
     7
100
AcDbSpline
210
0.0
220
0.0
230
1.0
 70
     8
 71
     3
 72
    23
 73
    19
 74
    17
 42
0.0000000001
 43
0.0000000001
 44
0.0000000001
 12
-0.0171775709318624
 22
0.9998524546436243
 32
0.0
 13
0.0056171374331674
 23
0.9999842237590836
 33
0.0
 40
0.0
 40
0.0
 40
0.0
 40
0.0
 40
24.26275582109481
 40
46.02796903823377
 40
65.71219408737325
 40
83.52158394961795
 40
99.70323690221215
 40
114.4389650915558
 40
127.8992584930534
 40
140.1897978269721
 40
151.4405958582831
 40
161.8020437949747
 40
171.2714372698819
 40
180.2325987685129
 40
189.5632815290502
 40
199.0042824221308
 40
208.3173192900014
 40
217.3938624713784
 40
217.3938624713784
 40
217.3938624713784
 40
217.3938624713784
 10
23178.3852637523
 20
-6333.34440364775
 30
0.0
 10
23178.24633868259
 20
-6325.258011659704
 30
0.0
 10
23178.01395887998
 20
-6309.917065456102
 30
0.0
 10
23177.7585892532
 20
-6288.014469200565
 30
0.0
 10
23177.55933876755
 20
-6268.262530373128
 30
0.0
 10
23177.38509593421
 20
-6250.371622281899
 30
0.0
 10
23177.23779807281
 20
-6234.130031750844
 30
0.0
 10
23177.1141712656
 20
-6219.337988934738
 30
0.0
 10
23177.01201698761
 20
-6205.842853413422
 30
0.0
 10
23176.93192992895
 20
-6193.509233406295
 30
0.0
 10
23176.87417030664
 20
-6182.208448256355
 30
0.0
 10
23176.83823482673
 20
-6171.847958788439
 30
0.0
 10
23176.82295611525
 20
-6162.250630155363
 30
0.0
 10
23176.82724198862
 20
-6152.996879505259
 30
0.0
 10
23176.8480833643
 20
-6143.75261697909
 30
0.0
 10
23176.88348619097
 20
-6134.391107575233
 30
0.0
 10
23176.92908372711
 20
-6125.114358127724
 30
0.0
 10
23176.96321430621
 20
-6118.984593006548
 30
0.0
 10
23176.98020903637
 20
-6115.959126344
 30
0.0
 11
23178.3852637523
 21
-6333.34440364775
 31
0.0
 11
23178.01621735298
 21
-6309.084454662041
 31
0.0
 11
23177.75648872587
 21
-6287.320791196812
 31
0.0
 11
23177.55423504351
 21
-6267.637605244503
 31
0.0
 11
23177.38189559901
 21
-6249.829049256403
 31
0.0
 11
23177.23543558205
 21
-6233.648059121629
 31
0.0
 11
23177.11264067397
 21
-6218.912842574841
 31
0.0
 11
23177.01158959083
 21
-6205.452928491422
 31
0.0
 11
23176.93263589047
 21
-6193.162642757079
 31
0.0
 11
23176.8758618943
 21
-6181.911987973703
 31
0.0
 11
23176.84058981091
 21
-6171.550600073189
 31
0.0
 11
23176.8260193219
 21
-6162.081217808044
 31
0.0
 11
23176.82980634506
 21
-6153.120057109617
 31
0.0
 11
23176.8503614754
 21
-6143.789396990183
 31
0.0
 11
23176.88544318831
 21
-6134.348461277206
 31
0.0
 11
23176.93049737811
 21
-6125.035533390537
 31
0.0
 11
23176.98020903637
 21
-6115.959126344
 31
0.0
  0
SPLINE
  5
B2
330
2
100
AcDbEntity
  8
0
  6
Continuous
 62
     7
100
AcDbSpline
210
0.0
220
0.0
230
1.0
 70
     8
 71
     3
 72
    14
 73
    10
 74
     8
 42
0.0000000001
 43
0.0000000001
 44
0.0000000001
 12
-0.9994849281358241
 22
0.0320917190148287
 32
0.0
 13
-0.0172381258817911
 23
0.9998514124689144
 33
0.0
 40
0.0
 40
0.0
 40
0.0
 40
0.0
 40
5.92487031364885
 40
11.55638590679957
 40
16.98829788503775
 40
22.34316377841748
 40
27.7284819128148
 40
33.22211425301736
 40
38.96564370940918
 40
38.96564370940918
 40
38.96564370940918
 40
38.96564370940918
 10
23203.21248341195
 20
-6358.391431788309
 30
0.0
 10
23201.2385438854
 20
-6358.32805203054
 30
0.0
 10
23197.38754230241
 20
-6357.791186288843
 30
0.0
 10
23192.04020417549
 20
-6355.799072469231
 30
0.0
 10
23187.4180246966
 20
-6352.786658967581
 30
0.0
 10
23183.61410360712
 20
-6348.907636169982
 30
0.0
 10
23180.73105261446
 20
-6344.276478464465
 30
0.0
 10
23178.8784428099
 20
-6339.010574958323
 30
0.0
 10
23178.41826631355
 20
-6335.25862899426
 30
0.0
 10
23178.3852637523
 20
-6333.34440364775
 30
0.0
 11
23203.21248341195
 21
-6358.391431788309
 31
0.0
 11
23197.34589062649
 21
-6357.56247019502
 31
0.0
 11
23192.07265957277
 21
-6355.585856391079
 31
0.0
 11
23187.52301147625
 21
-6352.618303537767
 31
0.0
 11
23183.77510190325
 21
-6348.793677730099
 31
0.0
 11
23180.92661690174
 21
-6344.223362138719
 31
0.0
 11
23179.09564045447
 21
-6339.043833054055
 31
0.0
 11
23178.3852637523
 21
-6333.34440364775
 31
0.0
  0
SPLINE
  5
B3
330
2
100
AcDbEntity
  8
0
  6
Continuous
 62
     7
100
AcDbSpline
210
0.0
220
0.0
230
1.0
 70
     8
 71
     3
 72
    12
 73
     8
 74
     6
 42
0.0000000001
 43
0.0000000001
 44
0.0000000001
 12
-0.9999981473561026
 22
0.0019249115206954
 32
0.0
 13
-0.9994825917288139
 23
0.0321644031664414
 33
0.0
 40
0.0
 40
0.0
 40
0.0
 40
0.0
 40
46.45713773831825
 40
97.89854041898321
 40
154.7175314059949
 40
211.4201257304831
 40
261.796105133656
 40
261.796105133656
 40
261.796105133656
 40
261.796105133656
 10
23464.99001737171
 20
-6359.926875290932
 30
0.0
 10
23449.50433348178
 20
-6359.897066664382
 30
0.0
 10
23416.87145806444
 20
-6359.918895136557
 30
0.0
 10
23365.29889160565
 20
-6360.017220866055
 30
0.0
 10
23310.31211455741
 20
-6360.170622386377
 30
0.0
 10
23255.67655493874
 20
-6359.953141249282
 30
0.0
 10
23219.99578823021
 20
-6358.931536225451
 30
0.0
 10
23203.21248341195
 20
-6358.391431788309
 30
0.0
 11
23464.99001737171
 21
-6359.926875290932
 31
0.0
 11
23418.53287963339
 21
-6359.926878788514
 31
0.0
 11
23367.09156305726
 21
-6360.020999286081
 31
0.0
 11
23310.27263647435
 21
-6360.106548970207
 31
0.0
 11
23253.57151315343
 21
-6359.698116266625
 31
0.0
 11
23203.21248341195
 21
-6358.391431788309
 31
0.0
  0
SPLINE
  5
B4
330
2
100
AcDbEntity
  8
0
  6
Continuous
 62
     7
100
AcDbSpline
210
0.0
220
0.0
230
1.0
 70
     8
 71
     3
 72
    23
 73
    19
 74
    17
 42
0.0000000001
 43
0.0000000001
 44
0.0000000001
 12
-0.9996401593391889
 22
-0.026824463392978
 32
0.0
 13
-0.9999982494785909
 23
0.0018711065586878
 33
0.0
 40
0.0
 40
0.0
 40
0.0
 40
0.0
 40
22.87809943671854
 40
43.11867745225742
 40
60.98612872341849
 40
76.70017362142792
 40
91.01363388588747
 40
104.6936318669013
 40
118.3729046946754
 40
132.1145043806752
 40
145.8426914679502
 40
159.5239935731943
 40
173.2738215803611
 40
187.5906142060846
 40
203.0356962006345
 40
220.1707243708554
 40
239.5580784014984
 40
261.771195992825
 40
261.771195992825
 40
261.771195992825
 40
261.771195992825
 10
23726.74668114207
 20
-6358.298265098847
 30
0.0
 10
23719.1233921533
 20
-6358.502829345795
 30
0.0
 10
23704.75512981987
 20
-6358.869680571173
 30
0.0
 10
23684.43040110716
 20
-6359.277677849718
 30
0.0
 10
23666.49152751419
 20
-6359.538289001362
 30
0.0
 10
23650.52733396054
 20
-6359.700903263092
 30
0.0
 10
23635.9584926665
 20
-6359.801327691339
 30
0.0
 10
23622.06770570868
 20
-6359.862249536158
 30
0.0
 10
23608.36745857581
 20
-6359.898227917661
 30
0.0
 10
23594.65112271605
 20
-6359.920418731547
 30
0.0
 10
23580.93410621808
 20
-6359.939404518004
 30
0.0
 10
23567.21434219782
 20
-6359.954751419416
 30
0.0
 10
23553.29837272691
 20
-6359.96649019753
 30
0.0
 10
23538.79447376749
 20
-6359.974391408271
 30
0.0
 10
23523.16217289346
 20
-6359.977777709494
 30
0.0
 10
23505.83968448841
 20
-6359.974638067929
 30
0.0
 10
23486.26118851012
 20
-6359.960587664325
 30
0.0
 10
23472.39437694064
 20
-6359.940729660937
 30
0.0
 10
23464.99001737171
 20
-6359.926875290932
 30
0.0
 11
23726.74668114207
 21
-6358.298265098847
 31
0.0
 11
23703.87572811089
 21
-6358.870052893536
 31
0.0
 11
23683.63917511697
 21
-6359.27368803496
 31
0.0
 11
23665.77363422887
 21
-6359.534961269068
 31
0.0
 11
23650.06042101731
 21
-6359.696632617056
 31
0.0
 11
23635.74731031669
 21
-6359.796666681655
 31
0.0
 11
23622.06745089973
 21
-6359.858238532098
 31
0.0
 11
23608.38822986097
 21
-6359.89587985636
 31
0.0
 11
23594.64665115165
 21
-6359.919890392533
 31
0.0
 11
23580.91847711199
 21
-6359.938817624183
 31
0.0
 11
23567.23718354245
 21
-6359.954100260619
 31
0.0
 11
23553.48736039445
 21
-6359.965659907297
 31
0.0
 11
23539.17056987899
 21
-6359.973433216617
 31
0.0
 11
23523.72548822667
 21
-6359.976684622356
 31
0.0
 11
23506.59046038351
 21
-6359.973336747416
 31
0.0
 11
23487.20311157129
 21
-6359.959112020987
 31
0.0
 11
23464.99001737171
 21
-6359.926875290932
 31
0.0
  0
SPLINE
  5
B5
330
2
100
AcDbEntity
  8
0
  6
Continuous
 62
     7
100
AcDbSpline
210
0.0
220
0.0
230
1.0
 70
     8
 71
     3
 72
    14
 73
    10
 74
     8
 42
0.0000000001
 43
0.0000000001
 44
0.0000000001
 12
-0.0161111307184393
 22
-0.9998702073104155
 32
0.0
 13
-0.9996387252502255
 23
-0.0268778529667884
 33
0.0
 40
0.0
 40
0.0
 40
0.0
 40
0.0
 40
5.66861620950524
 40
11.14880006687992
 40
16.51690531911919
 40
21.86974634579811
 40
27.28693056038826
 40
32.87582317244659
 40
38.77291926111925
 40
38.77291926111925
 40
38.77291926111925
 40
38.77291926111925
 10
23751.5127544775
 20
-6333.470180861279
 30
0.0
 10
23751.48231187191
 20
-6335.359474349466
 30
0.0
 10
23751.02680684379
 20
-6339.081988186315
 30
0.0
 10
23749.18527887866
 20
-6344.315213641991
 30
0.0
 10
23746.29669689378
 20
-6348.930257407577
 30
0.0
 10
23742.4912811744
 20
-6352.792618779396
 30
0.0
 10
23737.87104463711
 20
-6355.772390014756
 30
0.0
 10
23732.54225902865
 20
-6357.731374131094
 30
0.0
 10
23728.71166968099
 20
-6358.245431338313
 30
0.0
 10
23726.74668114207
 20
-6358.298265098847
 30
0.0
 11
23751.5127544775
 21
-6333.470180861279
 31
0.0
 11
23750.81551823925
 21
-6339.095753841762
 31
0.0
 11
23748.98784930633
 21
-6344.262187948791
 31
0.0
 11
23746.13940198317
 21
-6348.812232107512
 31
0.0
 11
23742.38240698511
 21
-6352.625091355037
 31
0.0
 11
23737.83201942347
 21
-6355.564454866695
 31
0.0
 11
23732.58979791657
 21
-6357.502194349106
 31
0.0
 11
23726.74668114207
 21
-6358.298265098847
 31
0.0
  0
SPLINE
  5
B6
330
2
100
AcDbEntity
  8
0
  6
Continuous
 62
     7
100
AcDbSpline
210
0.0
220
0.0
230
1.0
 70
     8
 71
     3
 72
    24
 73
    20
 74
    18
 42
0.0000000001
 43
0.0000000001
 44
0.0000000001
 12
0.0021922280007642
 22
-0.9999975970653094
 32
0.0
 13
-0.0161447584362564
 23
-0.9998696648938976
 33
0.0
 40
0.0
 40
0.0
 40
0.0
 40
0.0
 40
8.915769222361333
 40
18.06414723325633
 40
27.33791004576867
 40
36.52463896799648
 40
45.35317663410092
 40
54.48105669667689
 40
64.40381916957088
 40
75.05814569133343
 40
86.526135926063
 40
98.8994594693081
 40
112.2217155126567
 40
126.5722026543464
 40
142.0419022700503
 40
158.7230334444714
 40
176.7402604103367
 40
196.2136152754468
 40
217.4948763977506
 40
217.4948763977506
 40
217.4948763977506
 40
217.4948763977506
 10
23753.04615244955
 20
-6115.982790246379
 30
0.0
 10
23753.05266758253
 20
-6118.954706179162
 30
0.0
 10
23753.06350971734
 20
-6124.97607967843
 30
0.0
 10
23753.0713185394
 20
-6134.088714547631
 30
0.0
 10
23753.06921656755
 20
-6143.291672927275
 30
0.0
 10
23753.05635122197
 20
-6152.388009191469
 30
0.0
 10
23753.03247360701
 20
-6161.43569560968
 30
0.0
 10
23752.99595204093
 20
-6170.728686313798
 30
0.0
 10
23752.94560161995
 20
-6180.6302164636
 30
0.0
 10
23752.88129775703
 20
-6191.311717173388
 30
0.0
 10
23752.80381935644
 20
-6202.810003612944
 30
0.0
 10
23752.71425515581
 20
-6215.197536658658
 30
0.0
 10
23752.61484855295
 20
-6228.545855521637
 30
0.0
 10
23752.50335604959
 20
-6242.926237922763
 30
0.0
 10
23752.3755759991
 20
-6258.426151539834
 30
0.0
 10
23752.22681945981
 20
-6275.148176607324
 30
0.0
 10
23752.0521244934
 20
-6293.204574000203
 30
0.0
 10
23751.82482038956
 20
-6312.793887971513
 30
0.0
 10
23751.62728141751
 20
-6326.377351718987
 30
0.0
 10
23751.5127544775
 20
-6333.470180861279
 30
0.0
 11
23753.04615244955
 21
-6115.982790246379
 31
0.0
 11
23753.06198588499
 21
-6124.8985454095
 31
0.0
 11
23753.06963916153
 21
-6134.046920219137
 31
0.0
 11
23753.06736827707
 21
-6143.320682753611
 31
0.0
 11
23753.05426985267
 21
-6152.507402337977
 31
0.0
 11
23753.03086913239
 21
-6161.335908991319
 31
0.0
 11
23752.99530943211
 21
-6170.463719788245
 31
0.0
 11
23752.9453503804
 21
-6180.38635649361
 31
0.0
 11
23752.88170227046
 21
-6191.04049289927
 31
0.0
 11
23752.80494829138
 21
-6202.508226278214
 31
0.0
 11
23752.71611126813
 21
-6214.881230904785
 31
0.0
 11
23752.61674686437
 21
-6228.203116386946
 31
0.0
 11
23752.50511865989
 21
-6242.553169360637
 31
0.0
 11
23752.3772875338
 21
-6258.022340812376
 31
0.0
 11
23752.22869878093
 21
-6274.702810189488
 31
0.0
 11
23752.05125504388
 21
-6292.719163351538
 31
0.0
 11
23751.82269891221
 21
-6312.191176904255
 31
0.0
 11
23751.5127544775
 21
-6333.470180861279
 31
0.0
  0
SPLINE
  5
B7
330
2
100
AcDbEntity
  8
0
  6
Continuous
 62
     7
100
AcDbSpline
210
0.0
220
0.0
230
1.0
 70
     8
 71
     3
 72
    16
 73
    12
 74
    10
 42
0.0000000001
 43
0.0000000001
 44
0.0000000001
 12
0.020038965825833
 22
-0.9997991997639481
 32
0.0
 13
0.0021917517800569
 23
-0.9999975981091829
 33
0.0
 40
0.0
 40
0.0
 40
0.0
 40
0.0
 40
8.004111661235453
 40
16.39237933284563
 40
24.85456930619651
 40
33.02721104110716
 40
40.9226491843291
 40
49.4835046473411
 40
58.35843465604115
 40
67.16849891460146
 40
75.65148166484459
 40
75.65148166484459
 40
75.65148166484459
 40
75.65148166484459
 10
23752.3703049722
 20
-6040.335572369155
 30
0.0
 10
23752.42376967888
 20
-6043.003073847064
 30
0.0
 10
23752.52797787631
 20
-6048.466211651483
 30
0.0
 10
23752.6644696121
 20
-6056.749955151015
 30
0.0
 10
23752.77609255819
 20
-6065.090255752535
 30
0.0
 10
23752.86024239631
 20
-6073.266590651544
 30
0.0
 10
23752.92340237387
 20
-6081.475999992566
 30
0.0
 10
23752.97007441595
 20
-6089.919617824125
 30
0.0
 10
23753.00333732585
 20
-6098.668174018376
 30
0.0
 10
23753.02709967176
 20
-6107.390801409419
 30
0.0
 10
23753.0399549187
 20
-6113.155136121363
 30
0.0
 10
23753.04615244955
 20
-6115.982790246379
 30
0.0
 11
23752.3703049722
 21
-6040.335572369155
 31
0.0
 11
23752.52215315974
 21
-6048.338243524055
 31
0.0
 11
23752.659759232
 21
-6056.725382434283
 31
0.0
 11
23752.77294879479
 21
-6065.18681536659
 31
0.0
 11
23752.85759358105
 21
-6073.35901875291
 31
0.0
 11
23752.91896096657
 21
-6081.254218403168
 31
0.0
 11
23752.96707836081
 21
-6089.814938640096
 31
0.0
 11
23753.00181935306
 21
-6098.689800651575
 31
0.0
 11
23753.02665748474
 21
-6107.499829897109
 31
0.0
 11
23753.04615244955
 21
-6115.982790246379
 31
0.0
  0
LINE
  5
B8
330
2
100
AcDbEntity
  8
0
  6
Continuous
 62
     7
100
AcDbLine
 10
23752.35670336618
 20
-6039.866269289478
 30
0.0
 11
23752.3703049722
 21
-6040.335572369155
 31
0.0
  0
SPLINE
  5
B9
330
2
100
AcDbEntity
  8
0
  6
Continuous
 62
     7
100
AcDbSpline
210
0.0
220
0.0
230
1.0
 70
     8
 71
     3
 72
     9
 73
     5
 74
     3
 42
0.0000000001
 43
0.0000000001
 44
0.0000000001
 12
0.007899249631524
 22
-0.9999688004409232
 32
0.0
 13
0.0047625525294647
 23
-0.9999886589823928
 33
0.0
 40
0.0
 40
0.0
 40
0.0
 40
0.0
 40
60.42074127267104
 40
122.6048978260978
 40
122.6048978260978
 40
122.6048978260978
 40
122.6048978260978
 10
23751.60149946637
 20
-5917.263735434832
 30
0.0
 10
23751.76059230578
 20
-5937.403354158893
 30
0.0
 10
23752.04179522493
 20
-5978.270712819529
 30
0.0
 10
23752.25798492881
 20
-6019.138452182207
 30
0.0
 10
23752.35670336618
 20
-6039.866269289478
 30
0.0
 11
23751.60149946637
 21
-5917.263735434832
 31
0.0
 11
23752.02196158202
 21
-5977.68301371212
 31
0.0
 11
23752.35670336618
 21
-6039.866269289478
 31
0.0
  0
SPLINE
  5
BA
330
2
100
AcDbEntity
  8
0
  6
Continuous
 62
     7
100
AcDbSpline
210
0.0
220
0.0
230
1.0
 70
     8
 71
     3
 72
    13
 73
     9
 74
     7
 42
0.0000000001
 43
0.0000000001
 44
0.0000000001
 12
0.9999999364715536
 22
-0.0003564504012815
 32
0.0
 13
0.0074642807321141
 23
-0.9999721418685382
 33
0.0
 40
0.0
 40
0.0
 40
0.0
 40
0.0
 40
2.936060209486844
 40
5.599225648146637
 40
8.029526499073332
 40
10.39741262101483
 40
12.92088108484455
 40
15.70569767798571
 40
15.70569767798571
 40
15.70569767798571
 40
15.70569767798571
 10
23741.38304639304
 20
-5907.640396911685
 30
0.0
 10
23742.36173306735
 20
-5907.640745764966
 30
0.0
 10
23744.23804099215
 20
-5907.834745595985
 30
0.0
 10
23746.77770893807
 20
-5908.769905023451
 30
0.0
 10
23748.82431153919
 20
-5910.236646626657
 30
0.0
 10
23750.36562960378
 20
-5912.168392639933
 30
0.0
 10
23751.36695748773
 20
-5914.556648908106
 30
0.0
 10
23751.59457058209
 20
-5916.335489097047
 30
0.0
 10
23751.60149946637
 20
-5917.263735434832
 30
0.0
 11
23741.38304639304
 21
-5907.640396911685
 31
0.0
 11
23744.30052860225
 21
-5907.970165182798
 31
0.0
 11
23746.79288231198
 21
-5908.908580410358
 31
0.0
 11
23748.76292252479
 21
-5910.331712092919
 31
0.0
 11
23750.24109566953
 21
-5912.181546907339
 31
0.0
 11
23751.22781848399
 21
-5914.504103941164
 31
0.0
 11
23751.60149946637
 21
-5917.263735434832
 31
0.0
  0
SPLINE
  5
BB
330
2
100
AcDbEntity
  8
0
  6
Continuous
 62
     7
100
AcDbSpline
210
0.0
220
0.0
230
1.0
 70
     8
 71
     3
 72
    13
 73
     9
 74
     7
 42
0.0000000001
 43
0.0000000001
 44
0.0000000001
 12
0.008086286179434
 22
0.9999673054534456
 32
0.0
 13
0.9999998382904099
 23
-0.0005686995288736
 33
0.0
 40
0.0
 40
0.0
 40
0.0
 40
0.0
 40
2.84200613343113
 40
5.397461205886587
 40
7.750758260464406
 40
10.17394769873175
 40
12.82833342933674
 40
15.74091604631043
 40
15.74091604631043
 40
15.74091604631043
 40
15.74091604631043
 10
23178.34917900099
 20
-5917.323752271876
 30
0.0
 10
23178.35683942596
 20
-5916.376447866765
 30
0.0
 10
23178.58946472529
 20
-5914.567362800476
 30
0.0
 10
23179.60991462785
 20
-5912.159330273779
 30
0.0
 10
23181.1572211508
 20
-5910.229192637689
 30
0.0
 10
23183.19459078568
 20
-5908.767698600805
 30
0.0
 10
23185.7203962814
 20
-5907.833870877825
 30
0.0
 10
23187.58588522634
 20
-5907.637846817013
 30
0.0
 10
23188.55674594167
 20
-5907.638398945134
 30
0.0
 11
23178.34917900099
 21
-5917.323752271876
 31
0.0
 11
23178.73433846435
 21
-5914.507966227048
 31
0.0
 11
23179.74213118841
 21
-5912.159625439881
 31
0.0
 11
23181.21567777395
 21
-5910.32477735698
 31
0.0
 11
23183.17970072678
 21
-5908.905460304834
 31
0.0
 11
23185.66280462771
 21
-5907.967399206615
 31
0.0
 11
23188.55674594167
 21
-5907.638398945134
 31
0.0
  0
SPLINE
  5
BC
330
2
100
AcDbEntity
  8
0
  6
Continuous
 62
     7
100
AcDbSpline
210
0.0
220
0.0
230
1.0
 70
     8
 71
     3
 72
     9
 73
     5
 74
     3
 42
0.0000000001
 43
0.0000000001
 44
0.0000000001
 12
0.0047188385576247
 22
0.999988866219353
 32
0.0
 13
0.0078939624717663
 23
0.9999688421928427
 33
0.0
 40
0.0
 40
0.0
 40
0.0
 40
0.0
 40
61.9922251952309
 40
122.5338921365652
 40
122.5338921365652
 40
122.5338921365652
 40
122.5338921365652
 10
23177.59795879656
 20
-6039.855302631191
 30
0.0
 10
23177.69546923073
 20
-6019.191457635393
 30
0.0
 10
23177.90975090721
 20
-5978.347377023324
 30
0.0
 10
23178.18987445205
 20
-5937.503679137126
 30
0.0
 10
23178.34917900099
 20
-5917.323752271876
 30
0.0
 11
23177.59795879656
 21
-6039.855302631191
 31
0.0
 11
23177.92914006967
 21
-5977.863962077686
 31
0.0
 11
23178.34917900099
 21
-5917.323752271876
 31
0.0
  0
CIRCLE
  5
C0
330
2
100
AcDbEntity
  8
0
370
     0
100
AcDbCircle
 10
23465.00099108803
 20
-6115.987986198875
 30
0.0
 40
22.25
  0
CIRCLE
  5
C1
330
2
100
AcDbEntity
  8
0
370
     0
100
AcDbCircle
 10
23465.00099108803
 20
-6115.987986198875
 30
0.0
 40
34.0
  0
LINE
  5
C2
330
2
100
AcDbEntity
  8
0
  6
Continuous
 62
     7
100
AcDbLine
 10
23213.56542501082
 20
-5627.324240987497
 30
0.0
 11
23220.19353292044
 21
-5660.214988195456
 31
0.0
  0
LWPOLYLINE
  5
C3
330
2
100
AcDbEntity
  8
0
  6
Continuous
 62
     7
100
AcDbPolyline
 90
        4
 70
     0
 43
0.0
 10
23227.72063856977
 20
-5669.928936661857
 10
23229.01528679581
 20
-5670.472151082156
 10
23232.14048700971
 20
-5671.210225920457
 10
23233.55517407366
 20
-5671.308605688136
  0
LINE
  5
C4
330
2
100
AcDbEntity
  8
0
  6
Continuous
 62
     7
100
AcDbLine
 10
23233.54035012057
 20
-5671.306184709997
 30
0.0
 11
23233.55508630649
 21
-5671.308653493476
 31
0.0
  0
LWPOLYLINE
  5
C5
330
2
100
AcDbEntity
  8
06___PRT_ALL_SURFS
  6
Continuous
 62
     7
100
AcDbPolyline
 90
       18
 70
     0
 43
0.0
 10
23285.01103619855
 20
-5654.149953625017
 10
23289.85845278514
 20
-5655.943348219576
 10
23299.41769367932
 20
-5659.187763107417
 10
23308.88179548767
 20
-5662.059717604797
 10
23318.19211869579
 20
-5664.594030341596
 10
23327.31524398265
 20
-5666.834419259337
 10
23336.24829663721
 20
-5668.824482662996
 10
23345.03361967867
 20
-5670.599189151676
 10
23353.67788439671
 20
-5672.178203214876
 10
23362.11700126495
 20
-5673.561166285876
 10
23370.34963232061
 20
-5674.756680265176
 10
23378.36237670911
 20
-5675.773968121377
 10
23386.12019955259
 20
-5676.621584495737
 10
23393.5899215321
 20
-5677.309083666836
 10
23400.76241024017
 20
-5677.850000494576
 10
23407.62429496952
 20
-5678.257917032056
 10
23420.11548198887
 20
-5678.579260913885
 10
23425.46490990162
 20
-5679.296397721159
  0
LINE
  5
C7
330
2
100
AcDbEntity
  8
0
  6
Continuous
 62
     7
100
AcDbLine
 10
23285.01168196815
 20
-5654.150199644337
 30
0.0
 11
23284.98825692229
 21
-5654.141224554336
 31
0.0
  0
LINE
  5
C8
330
2
100
AcDbEntity
  8
0
  6
Continuous
 62
     7
100
AcDbLine
 10
23292.64702472385
 20
-5667.046946837837
 30
0.0
 11
23293.3716062211
 21
-5666.573360037997
 31
0.0
  0
LINE
  5
C9
330
2
100
AcDbEntity
  8
0
  6
Continuous
 62
     7
100
AcDbLine
 10
23291.46094903912
 20
-5667.673876348516
 30
0.0
 11
23292.64702472385
 21
-5667.046946837837
 31
0.0
  0
LINE
  5
CA
330
2
100
AcDbEntity
  8
0
  6
Continuous
 62
     7
100
AcDbLine
 10
23277.21661671504
 20
-5671.303498847957
 30
0.0
 11
23277.21958791559
 21
-5671.303441469357
 31
0.0
  0
LINE
  5
CB
330
2
100
AcDbEntity
  8
0
  6
Continuous
 62
     7
100
AcDbLine
 10
23233.99432780545
 20
-5671.312904229196
 30
0.0
 11
23276.25094750591
 21
-5671.312904229196
 31
0.0
  0
LINE
  5
CC
330
2
100
AcDbEntity
  8
0
  6
Continuous
 62
     7
100
AcDbLine
 10
23233.55058242167
 20
-5671.308571332097
 30
0.0
 11
23233.99329128733
 21
-5671.312780472777
 31
0.0
  0
LINE
  5
CD
330
2
100
AcDbEntity
  8
0
  6
Continuous
 62
     7
100
AcDbLine
 10
23233.55508630649
 20
-5671.308653493476
 30
0.0
 11
23233.55516078438
 21
-5671.308654791417
 31
0.0
  0
LINE
  5
CE
330
2
100
AcDbEntity
  8
0
  6
Continuous
 62
     7
100
AcDbLine
 10
23291.47045448365
 20
-5667.669420754177
 30
0.0
 11
23291.46094903912
 21
-5667.673876348516
 31
0.0
  0
LINE
  5
CF
330
2
100
AcDbEntity
  8
0
  6
Continuous
 62
     7
100
AcDbLine
 10
23290.02929628139
 20
-5668.250463196357
 30
0.0
 11
23291.46773180939
 21
-5667.664258559777
 31
0.0
  0
LWPOLYLINE
  5
D0
330
2
100
AcDbEntity
  8
0
  6
Continuous
 62
     7
100
AcDbPolyline
 90
        4
 70
     0
 43
0.0
 10
23277.21982684831
 20
-5671.303444032218
 10
23279.21457715141
 20
-5671.170462248397
 10
23282.91195208838
 20
-5670.481607166877
 10
23285.69356217411
 20
-5669.641881134877
  0
LINE
  5
D1
330
2
100
AcDbEntity
  8
0
  6
Continuous
 62
     7
100
AcDbLine
 10
23285.69356040627
 20
-5669.641876433336
 30
0.0
 11
23286.9673443408
 21
-5669.217918675716
 31
0.0
  0
LINE
  5
D2
330
2
100
AcDbEntity
  8
0
  6
Continuous
 62
     7
100
AcDbLine
 10
23286.9673443408
 20
-5669.217918675716
 30
0.0
 11
23290.02929628139
 21
-5668.250463196357
 31
0.0
  0
ARC
  5
D3
330
2
100
AcDbEntity
  8
0
  6
Continuous
 62
     7
100
AcDbCircle
 10
23233.75098906683
 20
-5657.482904228596
 30
0.0
 40
13.8300000006
100
AcDbArc
 50
191.3935886482781
 51
244.1523999909425
  0
ARC
  5
D4
330
2
100
AcDbEntity
  8
0
  6
Continuous
 62
     7
100
AcDbCircle
 10
23203.76291292677
 20
-5629.301098616197
 30
0.0
 40
9.999930170279998
100
AcDbArc
 50
11.40182249345803
 51
86.65793756000198
  0
SPLINE
  5
D5
330
2
100
AcDbEntity
  8
0
  6
Continuous
 62
     7
100
AcDbSpline
210
0.0
220
0.0
230
1.0
 70
     8
 71
     3
 72
     9
 73
     5
 74
     3
 42
0.0000000001
 43
0.0000000001
 44
0.0000000001
 12
-0.7244597099513407
 22
-0.6893171466438505
 32
0.0
 13
-0.7646333090805748
 23
-0.644465594616571
 33
0.0
 40
0.0
 40
0.0
 40
0.0
 40
0.0
 40
0.5769836423575848
 40
7.7392498249261
 40
7.7392498249261
 40
7.7392498249261
 40
7.7392498249261
 10
23301.05827727393
 20
-5659.684990980117
 30
0.0
 10
23300.91894347321
 20
-5659.81756588612
 30
0.0
 10
23299.05383421839
 20
-5661.599586176087
 30
0.0
 10
23297.2416858833
 20
-5663.443774265066
 30
0.0
 10
23295.41618345273
 20
-5664.982385643117
 30
0.0
 11
23301.05827727393
 21
-5659.684990980117
 31
0.0
 11
23300.64113916993
 21
-5660.083621041376
 31
0.0
 11
23295.41618345273
 21
-5664.982385643117
 31
0.0
  0
SPLINE
  5
D6
330
2
100
AcDbEntity
  8
0
  6
Continuous
 62
     7
100
AcDbSpline
210
0.0
220
0.0
230
1.0
 70
     8
 71
     3
 72
     8
 73
     4
 74
     2
 42
0.0000000001
 43
0.0000000001
 44
0.0000000001
 12
-0.7646333092224031
 22
-0.6444655944482971
 32
0.0
 13
-0.794563260955909
 23
-0.6071813768052446
 33
0.0
 40
0.0
 40
0.0
 40
0.0
 40
0.0
 40
1.598820902795528
 40
1.598820902795528
 40
1.598820902795528
 40
1.598820902795528
 10
23295.41618345273
 20
-5664.982385643117
 30
0.0
 10
23295.00867954681
 20
-5665.325847330962
 30
0.0
 10
23294.59376238905
 20
-5665.660803026223
 30
0.0
 10
23294.17030760565
 20
-5665.984394451896
 30
0.0
 11
23295.41618345273
 21
-5664.982385643117
 31
0.0
 11
23294.17030760565
 21
-5665.984394451896
 31
0.0
  0
SPLINE
  5
D7
330
2
100
AcDbEntity
  8
0
  6
Continuous
 62
     7
100
AcDbSpline
210
0.0
220
0.0
230
1.0
 70
     8
 71
     3
 72
     8
 73
     4
 74
     2
 42
0.0000000001
 43
0.0000000001
 44
0.0000000001
 12
-0.7945632614497035
 22
-0.6071813761590606
 32
0.0
 13
-0.8153051929809331
 23
-0.5790314691779052
 33
0.0
 40
0.0
 40
0.0
 40
0.0
 40
0.0
 40
0.9965082956128116
 40
0.9965082956128116
 40
0.9965082956128116
 40
0.9965082956128116
 10
23294.17030760565
 20
-5665.984394451896
 30
0.0
 10
23293.90637797851
 20
-5666.186081544658
 30
0.0
 10
23293.6390568539
 20
-5666.383422551945
 30
0.0
 10
23293.36823739115
 20
-5666.575759106097
 30
0.0
 11
23294.17030760565
 21
-5665.984394451896
 31
0.0
 11
23293.36823739115
 21
-5666.575759106097
 31
0.0
  0
LINE
  5
D8
330
2
100
AcDbEntity
  8
0
  6
Continuous
 62
     7
100
AcDbLine
 10
23277.21653011374
 20
-5671.303757818737
 30
0.0
 11
23276.25094750591
 21
-5671.312904229196
 31
0.0
  0
SPLINE
  5
D9
330
2
100
AcDbEntity
  8
0
  6
Continuous
 62
     7
100
AcDbSpline
210
0.0
220
0.0
230
1.0
 70
     8
 71
     3
 72
    10
 73
     6
 74
     4
 42
0.0000000001
 43
0.0000000001
 44
0.0000000001
 12
0.9999999815208028
 22
0.0001922456614189
 32
0.0
 13
-0.0007029422962273
 23
0.9999997529360337
 33
0.0
 40
0.0
 40
0.0
 40
0.0
 40
0.0
 40
1.49626154452049
 40
2.409893646940408
 40
2.716216407878374
 40
2.716216407878374
 40
2.716216407878374
 40
2.716216407878374
 10
23239.42624629136
 20
-5671.312904229196
 30
0.0
 10
23239.92500013031
 20
-5671.312808345933
 30
0.0
 10
23240.82514057094
 20
-5671.397635929515
 30
0.0
 10
23241.48808630598
 20
-5671.176873829477
 30
0.0
 10
23242.14203331638
 20
-5671.385911529108
 30
0.0
 10
23242.14196154064
 20
-5671.283803967357
 30
0.0
 11
23239.42624629136
 21
-5671.312904229196
 31
0.0
 11
23240.9225048965
 21
-5671.309938398197
 31
0.0
 11
23241.83608685393
 21
-5671.300366271037
 31
0.0
 11
23242.14196154064
 21
-5671.283803967357
 31
0.0
  0
SPLINE
  5
DA
330
2
100
AcDbEntity
  8
0
  6
Continuous
 62
     7
100
AcDbSpline
210
0.0
220
0.0
230
1.0
 70
     8
 71
     3
 72
    11
 73
     7
 74
     5
 42
0.0000000001
 43
0.0000000001
 44
0.0000000001
 12
0.1736536933056288
 22
-0.9848067804403637
 32
0.0
 13
0.9999999999999998
 23
0.0000000263293403
 33
0.0
 40
0.0
 40
0.0
 40
0.0
 40
0.0
 40
3.472906258894724
 40
6.945829403637187
 40
10.41877177590753
 40
13.89172672963885
 40
13.89172672963885
 40
13.89172672963885
 40
13.89172672963885
 10
23232.29388885683
 20
-5663.020449236796
 30
0.0
 10
23232.49491652295
 20
-5664.160496447328
 30
0.0
 10
23233.30431974917
 20
-5666.38913727301
 30
0.0
 10
23235.58283691367
 20
-5669.10073818138
 30
0.0
 10
23238.64895128522
 20
-5670.873721136155
 30
0.0
 10
23240.98430988939
 20
-5671.283803957197
 30
0.0
 10
23242.14196154064
 20
-5671.283803926717
 30
0.0
 11
23232.29388885683
 21
-5663.020449236796
 31
0.0
 11
23233.48171796453
 21
-5666.283904444696
 31
0.0
 11
23235.71409612867
 21
-5668.944295938737
 31
0.0
 11
23238.72176665637
 21
-5670.680742516637
 31
0.0
 11
23242.14196154064
 21
-5671.283803926717
 31
0.0
  0
SPLINE
  5
DB
330
2
100
AcDbEntity
  8
0
  6
Continuous
 62
     7
100
AcDbSpline
210
0.0
220
0.0
230
1.0
 70
     8
 71
     3
 72
    11
 73
     7
 74
     5
 42
0.0000000001
 43
0.0000000001
 44
0.0000000001
 12
0.9999999999999985
 22
0.0000000549562366
 32
0.0
 13
0.1391788378012399
 23
0.9902672624641775
 33
0.0
 40
0.0
 40
0.0
 40
0.0
 40
0.0
 40
3.558860603331616
 40
7.117705310797303
 40
10.67652618201964
 40
14.23532702766063
 40
14.23532702766063
 40
14.23532702766063
 40
14.23532702766063
 10
23267.55814595836
 20
-5671.278199833277
 30
0.0
 10
23268.74443282613
 20
-5671.278199768083
 30
0.0
 10
23271.13859034547
 20
-5670.84714360838
 30
0.0
 10
23274.25951738491
 20
-5668.987335049571
 30
0.0
 10
23276.53563123082
 20
-5666.155684124301
 30
0.0
 10
23277.29571829271
 20
-5663.844851052846
 30
0.0
 10
23277.46082154793
 20
-5662.670129729157
 30
0.0
 11
23267.55814595836
 21
-5671.278199833277
 31
0.0
 11
23271.06021201745
 21
-5670.644936766557
 31
0.0
 11
23274.11872370077
 21
-5668.825353865217
 31
0.0
 11
23276.34630509523
 21
-5666.049910274637
 31
0.0
 11
23277.46082154793
 21
-5662.670129729157
 31
0.0
  0
SPLINE
  5
DC
330
2
100
AcDbEntity
  8
0
  6
Continuous
 62
     7
100
AcDbSpline
210
0.0
220
0.0
230
1.0
 70
     8
 71
     3
 72
    10
 73
     6
 74
     4
 42
0.0000000001
 43
0.0000000001
 44
0.0000000001
 12
-0.84169756420925
 22
0.5399492665095634
 32
0.0
 13
-0.9999999999575049
 23
-0.0000092190214611
 33
0.0
 40
0.0
 40
0.0
 40
0.0
 40
0.0
 40
1.703002557354098
 40
3.391395356102625
 40
5.071998172466279
 40
5.071998172466279
 40
5.071998172466279
 40
5.071998172466279
 10
23238.98523638852
 20
-5620.739346283297
 30
0.0
 10
23238.50743202039
 20
-5620.432834622728
 30
0.0
 10
23237.4978690267
 20
-5619.906923399074
 30
0.0
 10
23235.86824688178
 20
-5619.422209811588
 30
0.0
 10
23234.74222131016
 20
-5619.312899064392
 30
0.0
 10
23234.1820203714
 20
-5619.312904228896
 30
0.0
 11
23238.98523638852
 21
-5620.739346283297
 31
0.0
 11
23237.473325803
 21
-5619.955545229617
 31
0.0
 11
23235.85479991635
 21
-5619.474874659337
 31
0.0
 11
23234.1820203714
 21
-5619.312904228896
 31
0.0
  0
SPLINE
  5
DD
330
2
100
AcDbEntity
  8
0
  6
Continuous
 62
     7
100
AcDbSpline
210
0.0
220
0.0
230
1.0
 70
     8
 71
     3
 72
    10
 73
     6
 74
     4
 42
0.0000000001
 43
0.0000000001
 44
0.0000000001
 12
-0.999999959157418
 22
0.0002858061627694
 32
0.0
 13
0.0213086644105889
 23
0.9997729446334487
 33
0.0
 40
0.0
 40
0.0
 40
0.0
 40
0.0
 40
1.777871081351223
 40
2.876267089895997
 40
3.247610584938044
 40
3.247610584938044
 40
3.247610584938044
 40
3.247610584938044
 10
23270.80515553494
 20
-5671.312904229196
 30
0.0
 10
23270.21253186535
 20
-5671.312734853692
 30
0.0
 10
23269.13656322599
 20
-5671.413430975015
 30
0.0
 10
23268.34991228547
 20
-5671.149721034382
 30
0.0
 10
23267.55550834705
 20
-5671.401957653073
 30
0.0
 10
23267.55814595836
 20
-5671.278204593236
 30
0.0
 11
23270.80515553494
 21
-5671.312904229196
 31
0.0
 11
23269.02728769113
 21
-5671.309511312436
 31
0.0
 11
23267.92894973796
 21
-5671.298218297176
 31
0.0
 11
23267.55814595836
 21
-5671.278204593236
 31
0.0
  0
LINE
  5
DE
330
2
100
AcDbEntity
  8
0
  6
Continuous
 62
     7
100
AcDbLine
 10
23233.54013826171
 20
-5671.306173373977
 30
0.0
 11
23233.99337648401
 21
-5671.312766995537
 31
0.0
  0
SPLINE
  5
DF
330
2
100
AcDbEntity
  8
0
  6
Continuous
 62
     7
100
AcDbSpline
210
0.0
220
0.0
230
1.0
 70
     8
 71
     3
 72
    26
 73
    22
 74
     0
 42
0.0000000001
 43
0.0000000001
 40
0.0
 40
0.0
 40
0.0
 40
0.0
 40
0.1977828978453812
 40
0.5110640165492267
 40
0.8962004808645927
 40
1.341357414582906
 40
1.847883774863739
 40
2.405261763927558
 40
2.997031514833208
 40
3.611286826114681
 40
4.291948541834416
 40
5.139512537701986
 40
6.174973229599048
 40
7.41299924257442
 40
8.983234488089989
 40
11.10587760630417
 40
14.13368462073965
 40
18.34658189986743
 40
23.5792918473296
 40
29.38158527083391
 40
43.7077940328578
 40
43.7077940328578
 40
43.7077940328578
 40
43.7077940328578
 10
23232.29388884668
 20
-5663.020449241876
 30
0.0
 10
23232.29384640028
 20
-5662.954521622925
 30
0.0
 10
23232.29374781218
 20
-5662.784166979003
 30
0.0
 10
23232.29359588151
 20
-5662.485433523783
 30
0.0
 10
23232.29343204308
 20
-5662.104242053064
 30
0.0
 10
23232.29327112871
 20
-5661.658635495498
 30
0.0
 10
23232.29313444744
 20
-5661.155615086016
 30
0.0
 10
23232.29300681257
 20
-5660.603723733649
 30
0.0
 10
23232.29294780869
 20
-5660.015922716439
 30
0.0
 10
23232.2927511999
 20
-5659.387027154886
 30
0.0
 10
23232.29263616489
 20
-5658.672866808188
 30
0.0
 10
23232.29197234686
 20
-5657.818304879239
 30
0.0
 10
23232.29230106379
 20
-5656.777954410033
 30
0.0
 10
23232.29044505405
 20
-5655.496714756482
 30
0.0
 10
23232.28850125647
 20
-5653.853081216695
 30
0.0
 10
23232.28409953987
 20
-5651.612856629182
 30
0.0
 10
23232.27474400757
 20
-5648.491754658071
 30
0.0
 10
23232.26306317267
 20
-5644.333966288085
 30
0.0
 10
23232.24546217432
 20
-5639.251362884703
 30
0.0
 10
23232.2129699334
 20
-5630.797687677075
 30
0.0
 10
23232.18265704537
 20
-5624.088255446823
 30
0.0
 10
23232.16039106173
 20
-5619.312904228896
 30
0.0
  0
LINE
  5
E0
330
2
100
AcDbEntity
  8
0
  6
Continuous
 62
     7
100
AcDbLine
 10
23277.46082173335
 20
-5662.670138060356
 30
0.0
 11
23277.46471927008
 21
-5649.418309976138
 31
0.0
  0
SPLINE
  5
E1
330
2
100
AcDbEntity
  8
0
  6
Continuous
 62
     7
100
AcDbSpline
210
0.0
220
0.0
230
1.0
 70
     8
 71
     3
 72
     8
 73
     4
 74
     2
 42
0.0000000001
 43
0.0000000001
 44
0.0000000001
 12
0.8897865149026802
 22
0.4563769909815157
 32
0.0
 13
0.815299755805646
 23
0.5790391249157987
 33
0.0
 40
0.0
 40
0.0
 40
0.0
 40
0.0
 40
0.8199027910146194
 40
0.8199027910146194
 40
0.8199027910146194
 40
0.8199027910146194
 10
23292.66618447725
 20
-5666.999196242457
 30
0.0
 10
23292.90936395958
 20
-5666.874467986236
 30
0.0
 10
23293.14544475721
 20
-5666.733985302358
 30
0.0
 10
23293.36826693897
 20
-5666.575733370817
 30
0.0
 11
23292.66618447725
 21
-5666.999196242457
 31
0.0
 11
23293.36826693897
 21
-5666.575733370817
 31
0.0
  0
SPLINE
  5
E2
330
2
100
AcDbEntity
  8
0
  6
Continuous
 62
     7
100
AcDbSpline
210
0.0
220
0.0
230
1.0
 70
     8
 71
     3
 72
     8
 73
     4
 74
     2
 42
0.0000000001
 43
0.0000000001
 44
0.0000000001
 12
0.9999999999999998
 22
0.0000000245616844
 32
0.0
 13
0.9567099878106242
 23
0.2910429508223744
 33
0.0
 40
0.0
 40
0.0
 40
0.0
 40
0.0
 40
0.9337271347171084
 40
0.9337271347171084
 40
0.9337271347171084
 40
0.9337271347171084
 10
23276.25098906794
 20
-5671.312904264757
 30
0.0
 10
23276.56223144618
 20
-5671.312904257113
 30
0.0
 10
23276.87589999372
 20
-5671.260280627381
 30
0.0
 10
23277.17366868562
 20
-5671.169695727197
 30
0.0
 11
23276.25098906794
 21
-5671.312904264757
 31
0.0
 11
23277.17366868562
 21
-5671.169695727197
 31
0.0
  0
SPLINE
  5
E3
330
2
100
AcDbEntity
  8
0
  6
Continuous
 62
     7
100
AcDbSpline
210
0.0
220
0.0
230
1.0
 70
     8
 71
     3
 72
    18
 73
    14
 74
    12
 42
0.0000000001
 43
0.0000000001
 44
0.0000000001
 12
-0.8490200429094537
 22
0.5283606407919023
 32
0.0
 13
-0.737151583059298
 23
0.6757274181155973
 33
0.0
 40
0.0
 40
0.0
 40
0.0
 40
0.0
 40
3.056659670982107
 40
6.134744682883171
 40
9.404176704604335
 40
12.74033714048241
 40
16.09241510182906
 40
19.48819205438999
 40
23.00989981193099
 40
26.77923561939596
 40
30.92726244898577
 40
35.58853134228313
 40
40.92005272825064
 40
40.92005272825064
 40
40.92005272825064
 40
40.92005272825064
 10
23271.50591595459
 20
-5645.483326404077
 30
0.0
 10
23270.64086084626
 20
-5644.94498684993
 30
0.0
 10
23268.91322539266
 20
-5643.850756732316
 30
0.0
 10
23266.2900672714
 20
-5642.134305810134
 30
0.0
 10
23263.61576090818
 20
-5640.326489587556
 30
0.0
 10
23260.8941738129
 20
-5638.426218259477
 30
0.0
 10
23258.16697026962
 20
-5636.4610770684
 30
0.0
 10
23255.41948817245
 20
-5634.418919134945
 30
0.0
 10
23252.59262243256
 20
-5632.251061174689
 30
0.0
 10
23249.60383411851
 20
-5629.883028350675
 30
0.0
 10
23246.36281271281
 20
-5627.222577889898
 30
0.0
 10
23242.77854336037
 20
-5624.16086451946
 30
0.0
 10
23240.29527497587
 20
-5621.940243599052
 30
0.0
 10
23238.98522849928
 20
-5620.739358538796
 30
0.0
 11
23271.50591595459
 21
-5645.483326404077
 31
0.0
 11
23268.92333987769
 21
-5643.848251741797
 31
0.0
 11
23266.34757392433
 21
-5642.163010781576
 31
0.0
 11
23263.63880215875
 21
-5640.332234643796
 31
0.0
 11
23260.90329610578
 21
-5638.422529669717
 31
0.0
 11
23258.18363718137
 21
-5636.462967985597
 31
0.0
 11
23255.45820944454
 21
-5634.437296550537
 31
0.0
 11
23252.66363599635
 21
-5632.294218210336
 31
0.0
 11
23249.70927080527
 21
-5629.953359661176
 31
0.0
 11
23246.5032411696
 21
-5627.321345118256
 31
0.0
 11
23242.95922481085
 21
-5624.293577666057
 31
0.0
 11
23238.98522849928
 21
-5620.739358538796
 31
0.0
  0
SPLINE
  5
E4
330
2
100
AcDbEntity
  8
0
  6
Continuous
 62
     7
100
AcDbSpline
210
0.0
220
0.0
230
1.0
 70
     8
 71
     3
 72
    11
 73
     7
 74
     5
 42
0.0000000001
 43
0.0000000001
 44
0.0000000001
 12
0.8998677089377567
 22
-0.4361629356228164
 32
0.0
 13
0.9997476220159516
 23
-0.0224653571850125
 33
0.0
 40
0.0
 40
0.0
 40
0.0
 40
0.0
 40
1.614732277951615
 40
3.173255744576562
 40
4.647215329852398
 40
6.020566620064901
 40
6.020566620064901
 40
6.020566620064901
 40
6.020566620064901
 10
23227.72100731428
 20
-5669.929088124597
 30
0.0
 10
23228.20535579277
 20
-5670.16385024813
 30
0.0
 10
23229.19015967944
 20
-5670.558853948536
 30
0.0
 10
23230.68493154401
 20
-5670.974776877938
 30
0.0
 10
23232.13430066081
 20
-5671.225653131159
 30
0.0
 10
23233.08259397216
 20
-5671.295862842238
 30
0.0
 10
23233.54026220102
 20
-5671.306147117996
 30
0.0
 11
23227.72100731428
 21
-5669.929088124597
 31
0.0
 11
23229.21689191711
 21
-5670.537109164076
 31
0.0
 11
23230.71799223215
 21
-5670.956266938917
 31
0.0
 11
23232.17051267484
 21
-5671.206748919537
 31
0.0
 11
23233.54026220102
 21
-5671.306147117996
 31
0.0
  0
SPLINE
  5
E5
330
2
100
AcDbEntity
  8
0
  6
Continuous
 62
     7
100
AcDbSpline
210
0.0
220
0.0
230
1.0
 70
     8
 71
     3
 72
    21
 73
    17
 74
    15
 42
0.0000000001
 43
0.0000000001
 44
0.0000000001
 12
-0.9332043431734948
 22
0.3593461477212832
 32
0.0
 13
-0.8484038397794833
 23
0.529349529750834
 33
0.0
 40
0.0
 40
0.0
 40
0.0
 40
0.0
 40
0.5033092952582619
 40
1.284747242159832
 40
2.174208626235295
 40
3.131327929954289
 40
4.066941603061955
 40
4.961330252743135
 40
5.876785363787059
 40
6.886967986846213
 40
8.003011666674286
 40
9.224624757761093
 40
10.57807464631011
 40
12.10754646176728
 40
13.88440854687852
 40
16.0379053680686
 40
16.0379053680686
 40
16.0379053680686
 40
16.0379053680686
 10
23284.98825288369
 20
-5654.141235047076
 30
0.0
 10
23284.83168941026
 20
-5654.080947628289
 30
0.0
 10
23284.43775596872
 20
-5653.912083204112
 30
0.0
 10
23283.79248937769
 20
-5653.580909757377
 30
0.0
 10
23283.03586072343
 20
-5653.138923976886
 30
0.0
 10
23282.25114490858
 20
-5652.644509708117
 30
0.0
 10
23281.47300938592
 20
-5652.136922459913
 30
0.0
 10
23280.71068820452
 20
-5651.630576306852
 30
0.0
 10
23279.93127943117
 20
-5651.105078061533
 30
0.0
 10
23279.09330862574
 20
-5650.534297825847
 30
0.0
 10
23278.17273176567
 20
-5649.903524036822
 30
0.0
 10
23277.15797090472
 20
-5649.207774399354
 30
0.0
 10
23276.02768108023
 20
-5648.43682273192
 30
0.0
 10
23274.73945312168
 20
-5647.568992864499
 30
0.0
 10
23273.22041400858
 20
-5646.566554681251
 30
0.0
 10
23272.11492761194
 20
-5645.863310580615
 30
0.0
 10
23271.50591595459
 20
-5645.483326404077
 30
0.0
 11
23284.98825288369
 21
-5654.141235047076
 31
0.0
 11
23284.52497709955
 21
-5653.944522580457
 31
0.0
 11
23283.82779185689
 21
-5653.591566489317
 31
0.0
 11
23283.05785028273
 21
-5653.146222211097
 31
0.0
 11
23282.24646329489
 21
-5652.638552517776
 31
0.0
 11
23281.46222844478
 21
-5652.128308806236
 31
0.0
 11
23280.71710466197
 21
-5651.633615360777
 31
0.0
 11
23279.9578468409
 21
-5651.122160942996
 31
0.0
 11
23279.12272224749
 21
-5650.553798518636
 31
0.0
 11
23278.20179065781
 21
-5649.923371280636
 31
0.0
 11
23277.19395163717
 21
-5649.233009742896
 31
0.0
 11
23276.07546656909
 21
-5648.470895740076
 31
0.0
 11
23274.80659750663
 21
-5647.616931258017
 31
0.0
 11
23273.32275351218
 21
-5646.639462143617
 31
0.0
 11
23271.50591595459
 21
-5645.483326404077
 31
0.0
  0
LINE
  5
E6
330
2
100
AcDbEntity
  8
0
  6
Continuous
 62
     7
100
AcDbLine
 10
23493.15455215351
 20
-5714.312904228517
 30
0.0
 11
23436.84742598212
 21
-5714.312904228517
 31
0.0
  0
LINE
  5
E7
330
2
100
AcDbEntity
  8
0
  6
Continuous
 62
     7
100
AcDbLine
 10
23498.10589563663
 20
-5710.008770350136
 30
0.0
 11
23431.89608249899
 21
-5710.008770350136
 31
0.0
  0
LINE
  5
E8
330
2
100
AcDbEntity
  8
0
  6
Continuous
 62
     7
100
AcDbLine
 10
23424.68364769605
 20
-5678.972384734437
 30
0.0
 11
23425.46490990289
 21
-5679.296397721157
 31
0.0
  0
LWPOLYLINE
  5
E9
330
2
100
AcDbEntity
  8
0
  6
Continuous
 62
     7
100
AcDbPolyline
 90
        5
 70
     0
 43
0.0
 10
23425.46490990289
 20
-5679.296397721157
 10
23426.33068063007
 20
-5679.867860522858
 10
23427.12957043691
 20
-5680.696135114716
 10
23427.7438812784
 20
-5681.745357258076
 10
23428.10452184743
 20
-5683.030294375777
  0
LWPOLYLINE
  5
EA
330
2
100
AcDbEntity
  8
0
  6
Continuous
 62
     7
100
AcDbPolyline
 90
        3
 70
     0
 43
0.0
 10
23505.52329332403
 20
-5678.912915148017
 10
23506.0195558799
 20
-5678.807825881436
 10
23506.07040236586
 20
-5678.801471772951
  0
LINE
  5
EB
330
2
100
AcDbEntity
  8
0
  6
Continuous
 62
     7
100
AcDbLine
 10
23505.57376903462
 20
-5678.794828480457
 30
0.0
 11
23505.55550222076
 21
-5678.795034685276
 31
0.0
  0
LINE
  5
EC
330
2
100
AcDbEntity
  8
0
  6
Continuous
 62
     7
100
AcDbLine
 10
23424.44935238613
 20
-5678.794745579937
 30
0.0
 11
23424.43866342097
 21
-5678.794622143557
 31
0.0
  0
LINE
  5
ED
330
2
100
AcDbEntity
  8
06___PRT_ALL_SURFS
  6
Continuous
 62
     7
100
AcDbLine
 10
23420.64699816206
 20
-5678.732300807697
 30
0.0
 11
23424.43800465928
 21
-5678.794611373956
 31
0.0
  0
LWPOLYLINE
  5
EE
330
2
100
AcDbEntity
  8
0
  6
Continuous
 62
     7
100
AcDbPolyline
 90
        4
 70
     0
 43
0.0
 10
23423.80049255102
 20
-5678.784132959556
 10
23423.84634637345
 20
-5678.788733867296
 10
23424.13225873788
 20
-5678.832975597456
 10
23424.68364769605
 20
-5678.972384734437
  0
LINE
  5
EF
330
2
100
AcDbEntity
  8
0
  6
Continuous
 62
     7
100
AcDbLine
 10
23428.10445368654
 20
-5683.029929489537
 30
0.0
 11
23431.89608249899
 21
-5710.008770350136
 31
0.0
  0
LINE
  5
F0
330
2
100
AcDbEntity
  8
0
  6
Continuous
 62
     7
100
AcDbLine
 10
23428.10452646515
 20
-5683.030446895156
 30
0.0
 11
23428.10451363815
 21
-5683.030346496576
 31
0.0
  0
LINE
  5
F1
330
2
100
AcDbEntity
  8
0
  6
Continuous
 62
     7
100
AcDbLine
 10
23465.0010661365
 20
-5678.706527813777
 30
0.0
 11
23465.00098906781
 21
-5683.008791812737
 31
0.0
  0
LINE
  5
F2
330
2
100
AcDbEntity
  8
0
  6
Continuous
 62
     7
100
AcDbLine
 10
23501.89743022526
 20
-5683.030599932696
 30
0.0
 11
23498.10589563663
 21
-5710.008770350136
 31
0.0
  0
LINE
  5
F3
330
2
100
AcDbEntity
  8
0
  6
Continuous
 62
     7
100
AcDbLine
 10
23501.89739397945
 20
-5683.030857727456
 30
0.0
 11
23501.89737827463
 21
-5683.030963541317
 31
0.0
  0
LWPOLYLINE
  5
F4
330
2
100
AcDbEntity
  8
0
  6
Continuous
 62
     7
100
AcDbPolyline
 90
        7
 70
     0
 43
0.0
 10
23501.89738444429
 20
-5683.030893244277
 10
23501.91978514625
 20
-5682.886800771477
 10
23502.31483025913
 20
-5681.619266019277
 10
23503.00072610095
 20
-5680.535464216856
 10
23503.87010528929
 20
-5679.713297192156
 10
23504.76696824538
 20
-5679.185026432596
 10
23505.52329332403
 20
-5678.912915148017
  0
ARC
  5
F5
330
2
100
AcDbEntity
  8
0
  6
Continuous
 62
     7
100
AcDbCircle
 10
23436.84742275631
 20
-5709.312904228536
 30
0.0
 40
4.999999999979999
100
AcDbArc
 50
188.0000071402497
 51
270.0
  0
ARC
  5
F6
330
2
100
AcDbEntity
  8
0
  6
Continuous
 62
     7
100
AcDbCircle
 10
23493.15455537931
 20
-5709.312904228536
 30
0.0
 40
4.999999999979999
100
AcDbArc
 50
270.0
 51
351.9999928597503
  0
SPLINE
  5
F7
330
2
100
AcDbEntity
  8
0
  6
Continuous
 62
     7
100
AcDbSpline
210
0.0
220
0.0
230
1.0
 70
     8
 71
     3
 72
    14
 73
    10
 74
     0
 42
0.0000000001
 43
0.0000000001
 40
0.9838144847234296
 40
0.9838144847234296
 40
0.9838144847234296
 40
0.9838144847234296
 40
4.242637280174245
 40
5.358610901012017
 40
6.59533598562915
 40
7.902588133566284
 40
9.24078647220957
 40
10.57854662941889
 40
11.89256900080149
 40
11.89256900080149
 40
11.89256900080149
 40
11.89256900080149
 10
23508.21294929432
 20
-5678.80361425864
 30
0.0
 10
23507.12669261878
 20
-5678.807138612415
 30
0.0
 10
23505.66836958029
 20
-5678.797306704585
 30
0.0
 10
23503.79786641383
 20
-5678.800074562001
 30
0.0
 10
23502.57789691263
 20
-5678.792554138246
 30
0.0
 10
23501.28387214786
 20
-5678.783547256749
 30
0.0
 10
23499.9561763765
 20
-5678.77299707845
 30
0.0
 10
23498.62622228536
 20
-5678.762767288212
 30
0.0
 10
23497.74231593958
 20
-5678.756619557755
 30
0.0
 10
23497.30431737695
 20
-5678.753828206857
 30
0.0
  0
SPLINE
  5
F8
330
2
100
AcDbEntity
  8
0
  6
Continuous
 62
     7
100
AcDbSpline
210
0.0
220
0.0
230
1.0
 70
     8
 71
     3
 72
     8
 73
     4
 74
     2
 42
0.0000000001
 43
0.0000000001
 44
0.0000000001
 12
-0.9996377111304198
 22
0.0269155435749582
 32
0.0
 13
-0.9964713922258733
 23
-0.0839330952332255
 33
0.0
 40
0.0
 40
0.0
 40
0.0
 40
0.0
 40
0.6981733736497861
 40
0.6981733736497861
 40
0.6981733736497861
 40
0.6981733736497861
 10
23424.44007259266
 20
-5678.742285814396
 30
0.0
 10
23424.20743244825
 20
-5678.736021909109
 30
0.0
 10
23423.97425479393
 20
-5678.74787975717
 30
0.0
 10
23423.74235152937
 20
-5678.767413041256
 30
0.0
 11
23424.44007259266
 21
-5678.742285814396
 31
0.0
 11
23423.74235152937
 21
-5678.767413041256
 31
0.0
  0
SPLINE
  5
F9
330
2
100
AcDbEntity
  8
0
  6
Continuous
 62
     7
100
AcDbSpline
210
0.0
220
0.0
230
1.0
 70
     8
 71
     3
 72
    10
 73
     6
 74
     4
 42
0.0000000001
 43
0.0000000001
 44
0.0000000001
 12
-0.999979668611283
 22
-0.0063767047970557
 32
0.0
 13
-0.9995694583185368
 23
0.0293410633206596
 33
0.0
 40
0.0
 40
0.0
 40
0.0
 40
0.0
 40
4.650031389183629
 40
7.585758622881254
 40
8.249349773060052
 40
8.249349773060052
 40
8.249349773060052
 40
8.249349773060052
 10
23432.69767470836
 20
-5678.753806957216
 30
0.0
 10
23431.14769575916
 20
-5678.763690916373
 30
0.0
 10
23428.6226242774
 20
-5678.713982110251
 30
0.0
 10
23425.86446852767
 20
-5678.907085887461
 30
0.0
 10
23424.67198516124
 20
-5678.749080166529
 30
0.0
 10
23424.45088334573
 20
-5678.742590009877
 30
0.0
 11
23432.69767470836
 21
-5678.753806957216
 31
0.0
 11
23428.04777015246
 21
-5678.788151409737
 31
0.0
 11
23425.11206336196
 21
-5678.799107270477
 31
0.0
 11
23424.45088334573
 21
-5678.742590009877
 31
0.0
  0
SPLINE
  5
FA
330
2
100
AcDbEntity
  8
0
  6
Continuous
 62
     7
100
AcDbSpline
210
0.0
220
0.0
230
1.0
 70
     8
 71
     3
 72
    28
 73
    24
 74
    22
 42
0.0000000001
 43
0.0000000001
 44
0.0000000001
 12
-0.9999999999499088
 22
-0.0000100091039852
 32
0.0
 13
-0.9999900389881254
 23
-0.0044633983160282
 33
0.0
 40
0.0
 40
0.0
 40
0.0
 40
0.0
 40
3.333074698360265
 40
6.331446570575993
 40
9.026723011333967
 40
11.45053756317407
 40
13.62985326022293
 40
15.59024555279209
 40
17.35612930191103
 40
18.9450737378848
 40
20.37065367762344
 40
21.65357366283042
 40
22.81190904541203
 40
23.85843690605244
 40
24.80478555516051
 40
25.66109347719266
 40
26.43599408930133
 40
27.13750222595507
 40
27.77316788846812
 40
28.34997333643907
 40
28.87446783016128
 40
29.35251260496463
 40
29.79044681855209
 40
29.79044681855209
 40
29.79044681855209
 40
29.79044681855209
 10
23465.0010661365
 20
-5678.706527691857
 30
0.0
 10
23463.8900412371
 20
-5678.70653881222
 30
0.0
 10
23461.77955904569
 20
-5678.707091192459
 30
0.0
 10
23458.77065182686
 20
-5678.708745128158
 30
0.0
 10
23456.06483136827
 20
-5678.71038506256
 30
0.0
 10
23453.63202950526
 20
-5678.711722346537
 30
0.0
 10
23451.4441889849
 20
-5678.712917999957
 30
0.0
 10
23449.47565873298
 20
-5678.714054749915
 30
0.0
 10
23447.70391893173
 20
-5678.715183995977
 30
0.0
 10
23446.11045000843
 20
-5678.716392669197
 30
0.0
 10
23444.67796919941
 20
-5678.717764756422
 30
0.0
 10
23443.38902501667
 20
-5678.719315994442
 30
0.0
 10
23442.22643183033
 20
-5678.721011431785
 30
0.0
 10
23441.17602941622
 20
-5678.722823422675
 30
0.0
 10
23440.22630315306
 20
-5678.724719173033
 30
0.0
 10
23439.36711960448
 20
-5678.726658429159
 30
0.0
 10
23438.58954982457
 20
-5678.728611224162
 30
0.0
 10
23437.88552770377
 20
-5678.730557412
 30
0.0
 10
23437.2475374819
 20
-5678.732469620019
 30
0.0
 10
23436.66855189336
 20
-5678.734317314677
 30
0.0
 10
23436.14210661597
 20
-5678.736084699423
 30
0.0
 10
23435.66195205193
 20
-5678.737858142449
 30
0.0
 10
23435.35662834928
 20
-5678.739128774719
 30
0.0
 10
23435.21065173217
 20
-5678.739780332996
 30
0.0
 11
23465.0010661365
 21
-5678.706527691857
 31
0.0
 11
23461.66799152503
 21
-5678.707288807936
 31
0.0
 11
23458.66962004909
 21
-5678.708830346637
 31
0.0
 11
23455.97434407313
 21
-5678.710413231456
 31
0.0
 11
23453.55052989868
 21
-5678.711765789077
 31
0.0
 11
23451.37121453417
 21
-5678.712969721137
 31
0.0
 11
23449.41082257486
 21
-5678.714112784637
 31
0.0
 11
23447.64493919782
 21
-5678.715259124737
 31
0.0
 11
23446.05599523829
 21
-5678.716489620117
 31
0.0
 11
23444.63041596855
 21
-5678.717871745877
 31
0.0
 11
23443.3474969215
 21
-5678.719423241377
 31
0.0
 11
23442.18916278147
 21
-5678.721119885176
 31
0.0
 11
23441.14263648743
 21
-5678.722930681657
 31
0.0
 11
23440.19628972888
 21
-5678.724822303476
 31
0.0
 11
23439.33998399419
 21
-5678.726757783477
 31
0.0
 11
23438.56508583356
 21
-5678.728706959157
 31
0.0
 11
23437.86358037855
 21
-5678.730646647937
 31
0.0
 11
23437.22791756555
 21
-5678.732549979157
 31
0.0
 11
23436.65111505139
 21
-5678.734389670677
 31
0.0
 11
23436.12662357053
 21
-5678.736167436997
 31
0.0
 11
23435.648582106
 21
-5678.737946452997
 31
0.0
 11
23435.21065173217
 21
-5678.739780332996
 31
0.0
  0
SPLINE
  5
FB
330
2
100
AcDbEntity
  8
0
  6
Continuous
 62
     7
100
AcDbSpline
210
0.0
220
0.0
230
1.0
 70
     8
 71
     3
 72
    28
 73
    24
 74
    22
 42
0.0000000001
 43
0.0000000001
 44
0.0000000001
 12
-0.9999899926307536
 22
0.0044737722724308
 32
0.0
 13
-0.9999999999658019
 23
-0.0000082702115108
 33
0.0
 40
0.0
 40
0.0
 40
0.0
 40
0.0
 40
0.4389145620495599
 40
0.9188345467947645
 40
1.445258738652486
 40
2.02402820222531
 40
2.661676908278632
 40
3.365173542249602
 40
4.142048100922911
 40
5.000296379035105
 40
5.948531171334081
 40
6.996981807878793
 40
8.157447109443591
 40
9.442755601379168
 40
10.87028247913055
 40
12.45987617299683
 40
14.228651697126
 40
16.1920845201723
 40
18.37251611005806
 40
20.79658259925748
 40
23.48788110347325
 40
26.47534493907798
 40
29.7906431642583
 40
29.7906431642583
 40
29.7906431642583
 40
29.7906431642583
 10
23494.79167669231
 20
-5678.739779141737
 30
0.0
 10
23494.64537330243
 20
-5678.739124607137
 30
0.0
 10
23494.33909776593
 20
-5678.737847396839
 30
0.0
 10
23493.85734814086
 20
-5678.736064372904
 30
0.0
 10
23493.32897991299
 20
-5678.734286585655
 30
0.0
 10
23492.74803542988
 20
-5678.732428085019
 30
0.0
 10
23492.10806671147
 20
-5678.730505460491
 30
0.0
 10
23491.40206278157
 20
-5678.728549278384
 30
0.0
 10
23490.62252542022
 20
-5678.726586622531
 30
0.0
 10
23489.76140840677
 20
-5678.724637619589
 30
0.0
 10
23488.80976573403
 20
-5678.722732189983
 30
0.0
 10
23487.75738372089
 20
-5678.720910554911
 30
0.0
 10
23486.59264347955
 20
-5678.719205171777
 30
0.0
 10
23485.30154418541
 20
-5678.717644394492
 30
0.0
 10
23483.86740181621
 20
-5678.716263778318
 30
0.0
 10
23482.2721035755
 20
-5678.71504621095
 30
0.0
 10
23480.49816992509
 20
-5678.713907903
 30
0.0
 10
23478.52729027676
 20
-5678.712765077751
 30
0.0
 10
23476.33798030266
 20
-5678.711569267814
 30
0.0
 10
23473.90604847005
 20
-5678.710241650276
 30
0.0
 10
23471.20510600872
 20
-5678.708627850612
 30
0.0
 10
23468.20708624355
 20
-5678.707027105646
 30
0.0
 10
23466.10616554485
 20
-5678.706518552451
 30
0.0
 10
23465.0010661365
 20
-5678.706527691857
 30
0.0
 11
23494.79167669231
 21
-5678.739779141737
 31
0.0
 11
23494.35276599533
 21
-5678.737937171836
 31
0.0
 11
23493.87284934786
 21
-5678.736147414176
 31
0.0
 11
23493.34642819344
 21
-5678.734359132256
 31
0.0
 11
23492.76766168777
 21
-5678.732508757496
 31
0.0
 11
23492.1300158536
 21
-5678.730594994497
 31
0.0
 11
23491.4265219215
 21
-5678.728645249856
 31
0.0
 11
23490.64964983287
 21
-5678.726686211357
 31
0.0
 11
23489.79140375917
 21
-5678.724740995536
 31
0.0
 11
23488.84317087281
 21
-5678.722839797917
 31
0.0
 11
23487.79472181655
 21
-5678.721019440876
 31
0.0
 11
23486.63425776969
 21
-5678.719312959657
 31
0.0
 11
23485.34895022601
 21
-5678.717751677536
 31
0.0
 11
23483.92142402595
 21
-5678.716360689716
 31
0.0
 11
23482.3318308145
 21
-5678.715122277156
 31
0.0
 11
23480.56305566777
 21
-5678.713966815917
 31
0.0
 11
23478.59962318113
 21
-5678.712817455757
 31
0.0
 11
23476.41919192351
 21
-5678.711613726896
 31
0.0
 11
23473.99512580646
 21
-5678.710270526637
 31
0.0
 11
23471.30382775243
 21
-5678.708713859696
 31
0.0
 11
23468.31636428872
 21
-5678.707223220057
 31
0.0
 11
23465.0010661365
 21
-5678.706527691857
 31
0.0
  0
SPLINE
  5
FC
330
2
100
AcDbEntity
  8
0
  6
Continuous
 62
     7
100
AcDbSpline
210
0.0
220
0.0
230
1.0
 70
     8
 71
     3
 72
    11
 73
     7
 74
     5
 42
0.0000000001
 43
0.0000000001
 44
0.0000000001
 12
0.9998125604940396
 22
-0.0193608852677887
 32
0.0
 13
0.1105986016071004
 23
-0.9938651565089472
 33
0.0
 40
0.0
 40
0.0
 40
0.0
 40
0.0
 40
1.379446979632057
 40
2.861575702721943
 40
4.482027038901813
 40
6.209454535193939
 40
6.209454535193939
 40
6.209454535193939
 40
6.209454535193939
 10
23432.69711617252
 20
-5678.753811963556
 30
0.0
 10
23433.15684564478
 20
-5678.762714401791
 30
0.0
 10
23434.11660382619
 20
-5679.01358084498
 30
0.0
 10
23435.30199679549
 20
-5679.981273243967
 30
0.0
 10
23436.14240972571
 20
-5681.38539669646
 30
0.0
 10
23436.41622958441
 20
-5682.485097294617
 30
0.0
 10
23436.47991327289
 20
-5683.057373960937
 30
0.0
 11
23432.69711617252
 21
-5678.753811963556
 31
0.0
 11
23434.03500622977
 21
-5679.089853872117
 31
0.0
 11
23435.20135241879
 21
-5680.004371296317
 31
0.0
 11
23436.05147304265
 21
-5681.383921026417
 31
0.0
 11
23436.47991327289
 21
-5683.057373960937
 31
0.0
  0
SPLINE
  5
FD
330
2
100
AcDbEntity
  8
0
  6
Continuous
 62
     7
100
AcDbSpline
210
0.0
220
0.0
230
1.0
 70
     8
 71
     3
 72
    11
 73
     7
 74
     5
 42
0.0000000001
 43
0.0000000001
 44
0.0000000001
 12
0.9997224143433887
 22
-0.0235604384387386
 32
0.0
 13
0.101949593868254
 23
-0.9947895658429969
 33
0.0
 40
0.0
 40
0.0
 40
0.0
 40
0.0
 40
1.277578672041554
 40
2.688144089129588
 40
4.273118089513269
 40
5.990378797153286
 40
5.990378797153286
 40
5.990378797153286
 40
5.990378797153286
 10
23435.21106656751
 20
-5678.739824556936
 30
0.0
 10
23435.63680791236
 20
-5678.74985799482
 30
0.0
 10
23436.536590238
 20
-5679.011545781141
 30
0.0
 10
23437.62165542095
 20
-5679.987739815777
 30
0.0
 10
23438.38650066552
 20
-5681.386254176556
 30
0.0
 10
23438.63445610956
 20
-5682.473766334205
 30
0.0
 10
23438.69281412013
 20
-5683.043204012136
 30
0.0
 11
23435.21106656751
 21
-5678.739824556936
 31
0.0
 11
23436.44301929538
 21
-5679.078202658437
 31
0.0
 11
23437.51650100413
 21
-5679.993261026437
 31
0.0
 11
23438.29869222613
 21
-5681.371781782217
 31
0.0
 11
23438.69281412013
 21
-5683.043204012136
 31
0.0
  0
SPLINE
  5
FE
330
2
100
AcDbEntity
  8
0
  6
Continuous
 62
     7
100
AcDbSpline
210
0.0
220
0.0
230
1.0
 70
     8
 71
     3
 72
    11
 73
     7
 74
     5
 42
0.0000000001
 43
0.0000000001
 44
0.0000000001
 12
-0.9997221948423138
 22
-0.0235697505219496
 32
0.0
 13
-0.1019481126042885
 23
-0.9947897176471133
 33
0.0
 40
0.0
 40
0.0
 40
0.0
 40
0.0
 40
1.277630675048186
 40
2.688234864735371
 40
4.273230396233984
 40
5.990499195804757
 40
5.990499195804757
 40
5.990499195804757
 40
5.990499195804757
 10
23494.79203475103
 20
-5678.739780701296
 30
0.0
 10
23494.36627617015
 20
-5678.749818513386
 30
0.0
 10
23493.46646550642
 20
-5679.011511664364
 30
0.0
 10
23492.38135759182
 20
-5679.9877146299
 30
0.0
 10
23491.61648438836
 20
-5681.38624138223
 30
0.0
 10
23491.36852260938
 20
-5682.473763381174
 30
0.0
 10
23491.31016517173
 20
-5683.043203829257
 30
0.0
 11
23494.79203475103
 21
-5678.739780701296
 31
0.0
 11
23493.56003177435
 21
-5679.078172201297
 31
0.0
 11
23492.48651016473
 21
-5679.993243528377
 31
0.0
 11
23491.70429410153
 21
-5681.371774944537
 31
0.0
 11
23491.31016517173
 21
-5683.043203829257
 31
0.0
  0
SPLINE
  5
FF
330
2
100
AcDbEntity
  8
0
  6
Continuous
 62
     7
100
AcDbSpline
210
0.0
220
0.0
230
1.0
 70
     8
 71
     3
 72
    11
 73
     7
 74
     5
 42
0.0000000001
 43
0.0000000001
 44
0.0000000001
 12
-0.9998137996431085
 22
-0.0192967884169889
 32
0.0
 13
-0.1106103929626467
 23
-0.9938638442808194
 33
0.0
 40
0.0
 40
0.0
 40
0.0
 40
0.0
 40
1.379430263308966
 40
2.86155642361202
 40
4.482029939213711
 40
6.20949908381626
 40
6.20949908381626
 40
6.20949908381626
 40
6.20949908381626
 10
23497.30388835317
 20
-5678.753882199637
 30
0.0
 10
23496.84416388221
 20
-5678.762755057612
 30
0.0
 10
23495.88439525504
 20
-5679.013575625282
 30
0.0
 10
23494.69897981526
 20
-5679.981247683013
 30
0.0
 10
23493.85854166983
 20
-5681.385380829969
 30
0.0
 10
23493.58470551703
 20
-5682.485099416426
 30
0.0
 10
23493.52101350339
 20
-5683.057389124737
 30
0.0
 11
23497.30388835317
 21
-5678.753882199637
 31
0.0
 11
23495.96599809018
 21
-5679.089854662056
 31
0.0
 11
23494.79963207391
 21
-5680.004342645116
 31
0.0
 11
23493.94948243309
 21
-5681.383900546396
 31
0.0
 11
23493.52101350339
 21
-5683.057389124737
 31
0.0
  0
SPLINE
  5
100
330
2
100
AcDbEntity
  8
0
  6
Continuous
 62
     7
100
AcDbSpline
210
0.0
220
0.0
230
1.0
 70
     8
 71
     3
 72
    28
 73
    24
 74
    22
 42
0.0000000001
 43
0.0000000001
 44
0.0000000001
 12
-0.9999868376447645
 22
0.0051307443147563
 32
0.0
 13
-0.9999999999506416
 23
-0.000009935645079
 33
0.0
 40
0.0
 40
0.0
 40
0.0
 40
0.0
 40
0.3863867179185282
 40
0.8089612361820089
 40
1.272921749674075
 40
1.783271518057231
 40
2.345488376742424
 40
2.965760132690126
 40
3.650800141737585
 40
4.407691493192998
 40
5.244051216055364
 40
6.168943481444636
 40
7.192853498920801
 40
8.327151167247238
 40
9.587271702844084
 40
10.99091229248611
 40
12.55329378708657
 40
14.28804466952384
 40
16.21499712376956
 40
18.3578406760699
 40
20.73735766043294
 40
23.37860591922702
 40
26.30921474465143
 40
26.30921474465143
 40
26.30921474465143
 40
26.30921474465143
 10
23491.31016517427
 20
-5683.043203829257
 30
0.0
 10
23491.18137129689
 20
-5683.042543012104
 30
0.0
 10
23490.91172076977
 20
-5683.041221452786
 30
0.0
 10
23490.48741725779
 20
-5683.039435189136
 30
0.0
 10
23490.02179248403
 20
-5683.037631180738
 30
0.0
 10
23489.50962021622
 20
-5683.035751384045
 30
0.0
 10
23488.94534412237
 20
-5683.033800520963
 30
0.0
 10
23488.32283774102
 20
-5683.031814436894
 30
0.0
 10
23487.63543958895
 20
-5683.029819000218
 30
0.0
 10
23486.8760118125
 20
-5683.027833545065
 30
0.0
 10
23486.03663293974
 20
-5683.02588857444
 30
0.0
 10
23485.1082474633
 20
-5683.024023442544
 30
0.0
 10
23484.08054895873
 20
-5683.022270954737
 30
0.0
 10
23482.94110734291
 20
-5683.02065888536
 30
0.0
 10
23481.67508854597
 20
-5683.019222148998
 30
0.0
 10
23480.26637491342
 20
-5683.017941989437
 30
0.0
 10
23478.69945105585
 20
-5683.016732500483
 30
0.0
 10
23476.95808987674
 20
-5683.015505928248
 30
0.0
 10
23475.02324134532
 20
-5683.014213727825
 30
0.0
 10
23472.8734708284
 20
-5683.012776068472
 30
0.0
 10
23470.4856018611
 20
-5683.011039191839
 30
0.0
 10
23467.83514438646
 20
-5683.009325187121
 30
0.0
 10
23465.97785867624
 20
-5683.008782195806
 30
0.0
 10
23465.00098906781
 20
-5683.008791901637
 30
0.0
 11
23491.31016517427
 21
-5683.043203829257
 31
0.0
 11
23490.92378303365
 21
-5683.041323086257
 31
0.0
 11
23490.50121238019
 21
-5683.039515789896
 31
0.0
 11
23490.03725539599
 21
-5683.037706123717
 31
0.0
 11
23489.52690906845
 21
-5683.035832076157
 31
0.0
 11
23488.96469555991
 21
-5683.033891198657
 31
0.0
 11
23488.34442696301
 21
-5683.031911570918
 31
0.0
 11
23487.65938984948
 21
-5683.029919819756
 31
0.0
 11
23486.90250109148
 21
-5683.027938426717
 31
0.0
 11
23486.06614362017
 21
-5683.025997749876
 31
0.0
 11
23485.14125323221
 21
-5683.024134195057
 31
0.0
 11
23484.11734471615
 21
-5683.022380733997
 31
0.0
 11
23482.98304819379
 21
-5683.020768364857
 31
0.0
 11
23481.72292848899
 21
-5683.019321367496
 31
0.0
 11
23480.31928850228
 21
-5683.018020376957
 31
0.0
 11
23478.75690748937
 21
-5683.016793511237
 31
0.0
 11
23477.02215704473
 21
-5683.015561060057
 31
0.0
 11
23475.09520502869
 21
-5683.014261517317
 31
0.0
 11
23472.95236196869
 21
-5683.012808985297
 31
0.0
 11
23470.57284557457
 21
-5683.011132984077
 31
0.0
 11
23467.93159779891
 21
-5683.009535438376
 31
0.0
 11
23465.00098906781
 21
-5683.008791901637
 31
0.0
  0
LINE
  5
101
330
2
100
AcDbEntity
  8
0
  6
Continuous
 62
     7
100
AcDbLine
 10
23493.52101353133
 20
-5683.057389129817
 30
0.0
 11
23491.31016517427
 21
-5683.043203829257
 31
0.0
  0
SPLINE
  5
102
330
2
100
AcDbEntity
  8
0
  6
Continuous
 62
     7
100
AcDbSpline
210
0.0
220
0.0
230
1.0
 70
     8
 71
     3
 72
    16
 73
    12
 74
    10
 42
0.0000000001
 43
0.0000000001
 44
0.0000000001
 12
0.1869881142202861
 22
-0.9823621761551802
 32
0.0
 13
-0.9999733193694023
 23
0.0073048305483263
 33
0.0
 40
0.0
 40
0.0
 40
0.0
 40
0.0
 40
0.2205279891642323
 40
0.8023580028687288
 40
1.631505489329436
 40
2.621584165951093
 40
3.714724429958765
 40
4.867835718115656
 40
6.046752651817879
 40
7.224370054663404
 40
8.381051559867072
 40
8.381051559867072
 40
8.381051559867072
 40
8.381051559867072
 10
23501.89771001895
 20
-5683.030900394377
 30
0.0
 10
23501.91145538989
 20
-5683.10311317949
 30
0.0
 10
23501.45503973638
 20
-5683.027499187031
 30
0.0
 10
23501.07303438074
 20
-5683.127037558871
 30
0.0
 10
23500.19595708847
 20
-5683.093928338758
 30
0.0
 10
23499.25260129008
 20
-5683.106670889751
 30
0.0
 10
23498.16521405789
 20
-5683.095621819129
 30
0.0
 10
23497.02605313303
 20
-5683.087561274177
 30
0.0
 10
23495.8555150927
 20
-5683.076642610825
 30
0.0
 10
23494.68468133995
 20
-5683.06638252096
 30
0.0
 10
23493.90656374607
 20
-5683.060205583947
 30
0.0
 10
23493.52101353133
 20
-5683.057389129817
 30
0.0
 11
23501.89771001895
 21
-5683.030900394377
 31
0.0
 11
23501.68085069651
 21
-5683.070958206057
 31
0.0
 11
23501.09947721614
 21
-5683.094002536396
 31
0.0
 11
23500.27037867875
 21
-5683.103011954496
 31
0.0
 11
23499.28030010774
 21
-5683.102554670677
 31
0.0
 11
23498.18717722159
 21
-5683.096390857757
 31
0.0
 11
23497.0341026418
 21
-5683.087189971917
 31
0.0
 11
23495.85523192613
 21
-5683.076750991016
 31
0.0
 11
23494.67765927748
 21
-5683.066484316096
 31
0.0
 11
23493.52101353133
 21
-5683.057389129817
 31
0.0
  0
SPLINE
  5
103
330
2
100
AcDbEntity
  8
0
  6
Continuous
 62
     7
100
AcDbSpline
210
0.0
220
0.0
230
1.0
 70
     8
 71
     3
 72
    11
 73
     7
 74
     5
 42
0.0000000001
 43
0.0000000001
 44
0.0000000001
 12
-0.9999732672585292
 22
-0.0073119606332494
 32
0.0
 13
0.1985590104507701
 23
0.9800889344181021
 33
0.0
 40
0.0
 40
0.0
 40
0.0
 40
0.0
 40
4.094748106704611
 40
6.692625582145296
 40
8.008465416245453
 40
8.379399436281662
 40
8.379399436281662
 40
8.379399436281662
 40
8.379399436281662
 10
23436.47990759853
 20
-5683.057374992177
 30
0.0
 10
23435.11502805092
 20
-5683.067355204496
 30
0.0
 10
23432.99790826226
 20
-5683.023638084249
 30
0.0
 10
23430.01992777442
 20
-5683.220991089702
 30
0.0
 10
23429.03355311242
 20
-5682.9548240025
 30
0.0
 10
23428.07961647405
 20
-5683.151556895222
 30
0.0
 10
23428.10416723803
 20
-5683.030374119077
 30
0.0
 11
23436.47990759853
 21
-5683.057374992177
 31
0.0
 11
23432.38530557694
 21
-5683.091963170396
 31
0.0
 11
23429.78745139749
 21
-5683.102964977197
 31
0.0
 11
23428.47181880906
 21
-5683.079612006377
 31
0.0
 11
23428.10416723803
 21
-5683.030374119077
 31
0.0
  0
LINE
  5
104
330
2
100
AcDbEntity
  8
0
  6
Continuous
 62
     7
100
AcDbLine
 10
23438.69281409728
 20
-5683.043204017216
 30
0.0
 11
23436.47990759853
 21
-5683.057374992177
 31
0.0
  0
SPLINE
  5
105
330
2
100
AcDbEntity
  8
0
  6
Continuous
 62
     7
100
AcDbSpline
210
0.0
220
0.0
230
1.0
 70
     8
 71
     3
 72
    28
 73
    24
 74
    22
 42
0.0000000001
 43
0.0000000001
 44
0.0000000001
 12
-0.9999999999247336
 22
-0.0000122691972843
 32
0.0
 13
-0.9999869080019273
 23
-0.0051170132640942
 33
0.0
 40
0.0
 40
0.0
 40
0.0
 40
0.0
 40
2.946296521057165
 40
5.59715714191249
 40
7.980156998580399
 40
10.12273529312693
 40
12.04866327191772
 40
13.78069467908409
 40
15.34049276080693
 40
16.74353668920556
 40
18.00192200884472
 40
19.1341027011483
 40
20.15612921173797
 40
21.07932560565959
 40
21.91402603081471
 40
22.66921354611811
 40
23.35252259244731
 40
23.97105409490794
 40
24.53153697157187
 40
25.04017058597904
 40
25.50244450659665
 40
25.92338402599236
 40
26.30821336688506
 40
26.30821336688506
 40
26.30821336688506
 40
26.30821336688506
 10
23465.00098906781
 20
-5683.008791901637
 30
0.0
 10
23464.01889022753
 20
-5683.008803951201
 30
0.0
 10
23462.15317117843
 20
-5683.009393917758
 30
0.0
 10
23459.49311943083
 20
-5683.01116510149
 30
0.0
 10
23457.10097382395
 20
-5683.01293012484
 30
0.0
 10
23454.95047226767
 20
-5683.014378677185
 30
0.0
 10
23453.01696013939
 20
-5683.015670827572
 30
0.0
 10
23451.27770807772
 20
-5683.016891189912
 30
0.0
 10
23449.71275072983
 20
-5683.018090973608
 30
0.0
 10
23448.30567551935
 20
-5683.019361600281
 30
0.0
 10
23447.04113966405
 20
-5683.020789087321
 30
0.0
 10
23445.90360993511
 20
-5683.022390697017
 30
0.0
 10
23444.87781019969
 20
-5683.024132336001
 30
0.0
 10
23443.95117093102
 20
-5683.025986930513
 30
0.0
 10
23443.1134783734
 20
-5683.027921290102
 30
0.0
 10
23442.35574860721
 20
-5683.029896116739
 30
0.0
 10
23441.67007544888
 20
-5683.031880850318
 30
0.0
 10
23441.04930410767
 20
-5683.033856038398
 30
0.0
 10
23440.48675811633
 20
-5683.035795951457
 30
0.0
 10
23439.97629805856
 20
-5683.037663674864
 30
0.0
 10
23439.51235250665
 20
-5683.039457407373
 30
0.0
 10
23439.08967527669
 20
-5683.0412307361
 30
0.0
 10
23438.82108886484
 20
-5683.042547624935
 30
0.0
 10
23438.69281409728
 20
-5683.043204017216
 30
0.0
 11
23465.00098906781
 21
-5683.008791901637
 31
0.0
 11
23462.05469265917
 21
-5683.009605806536
 31
0.0
 11
23459.40383255323
 21
-5683.011258053677
 31
0.0
 11
23457.02083330603
 21
-5683.012962380978
 31
0.0
 11
23454.87825551094
 21
-5683.014425329536
 31
0.0
 11
23452.95232797087
 21
-5683.015725298997
 31
0.0
 11
23451.22029699755
 21
-5683.016951217297
 31
0.0
 11
23449.66049939071
 21
-5683.018168359897
 31
0.0
 11
23448.25745605762
 21
-5683.019460823658
 31
0.0
 11
23446.99907155889
 21
-5683.020898204577
 31
0.0
 11
23445.86689199953
 21
-5683.022499887936
 31
0.0
 11
23444.84486697475
 21
-5683.024242607337
 31
0.0
 11
23443.92167244066
 21
-5683.026095702436
 31
0.0
 11
23443.08697424721
 21
-5683.028025889075
 31
0.0
 11
23442.33178930343
 21
-5683.029996664917
 31
0.0
 11
23441.64848312877
 21
-5683.031977692197
 31
0.0
 11
23441.02995475954
 21
-5683.033946443657
 31
0.0
 11
23440.46947520485
 21
-5683.035876162937
 31
0.0
 11
23439.96084500037
 21
-5683.037738633177
 31
0.0
 11
23439.49857457871
 21
-5683.039537227497
 31
0.0
 11
23439.07763889023
 21
-5683.041333098937
 31
0.0
 11
23438.69281409728
 21
-5683.043204017216
 31
0.0
  0
LINE
  5
106
330
2
100
AcDbEntity
  8
0
  6
Continuous
 62
     7
100
AcDbLine
 10
23497.30434526615
 20
-5678.753885118096
 30
0.0
 11
23494.7916975127
 21
-5678.739820426897
 31
0.0
  0
LINE
  5
107
330
2
100
AcDbEntity
  8
0
  6
Continuous
 62
     7
100
AcDbLine
 10
23435.2106317754
 20
-5678.739826449237
 30
0.0
 11
23432.69763248085
 21
-5678.753871280177
 31
0.0
  0
LINE
  5
108
330
2
100
AcDbEntity
  8
0
  6
Continuous
 62
     7
100
AcDbLine
 10
23716.43655312227
 20
-5627.324240987497
 30
0.0
 11
23709.80844521265
 21
-5660.214988195456
 31
0.0
  0
LWPOLYLINE
  5
109
330
2
100
AcDbEntity
  8
0
  6
Continuous
 62
     7
100
AcDbPolyline
 90
        4
 70
     0
 43
0.0
 10
23702.28133956331
 20
-5669.928936661857
 10
23700.98669133728
 20
-5670.472151082156
 10
23697.86149112337
 20
-5671.210225920457
 10
23696.44680405943
 20
-5671.308605688136
  0
LINE
  5
10A
330
2
100
AcDbEntity
  8
0
  6
Continuous
 62
     7
100
AcDbLine
 10
23696.46162801251
 20
-5671.306184709997
 30
0.0
 11
23696.44689182659
 21
-5671.308653493476
 31
0.0
  0
LWPOLYLINE
  5
10B
330
2
100
AcDbEntity
  8
06___PRT_ALL_SURFS
  6
Continuous
 62
     7
100
AcDbPolyline
 90
       18
 70
     0
 43
0.0
 10
23644.99094193453
 20
-5654.149953625017
 10
23640.14352534796
 20
-5655.943348219576
 10
23630.58428445377
 20
-5659.187763107417
 10
23621.12018264541
 20
-5662.059717604797
 10
23611.80985943729
 20
-5664.594030341596
 10
23602.68673415043
 20
-5666.834419259337
 10
23593.75368149587
 20
-5668.824482662996
 10
23584.96835845441
 20
-5670.599189151676
 10
23576.32409373637
 20
-5672.178203214876
 10
23567.88497686813
 20
-5673.561166285876
 10
23559.65234581247
 20
-5674.756680265176
 10
23551.63960142397
 20
-5675.773968121377
 10
23543.88177858049
 20
-5676.621584495737
 10
23536.412056601
 20
-5677.309083666836
 10
23529.23956789291
 20
-5677.850000494576
 10
23522.37768316357
 20
-5678.257917032056
 10
23509.88649614422
 20
-5678.579260913885
 10
23504.53706823147
 20
-5679.296397721159
  0
LINE
  5
10C
330
2
100
AcDbEntity
  8
0
  6
Continuous
 62
     7
100
AcDbLine
 10
23644.99029616494
 20
-5654.150199644337
 30
0.0
 11
23645.01372121079
 21
-5654.141224554336
 31
0.0
  0
LINE
  5
10D
330
2
100
AcDbEntity
  8
0
  6
Continuous
 62
     7
100
AcDbLine
 10
23637.35495340923
 20
-5667.046946837837
 30
0.0
 11
23636.63037191199
 21
-5666.573360037997
 31
0.0
  0
LINE
  5
10E
330
2
100
AcDbEntity
  8
0
  6
Continuous
 62
     7
100
AcDbLine
 10
23638.54102909397
 20
-5667.673876348516
 30
0.0
 11
23637.35495340923
 21
-5667.046946837837
 31
0.0
  0
LINE
  5
10F
330
2
100
AcDbEntity
  8
0
  6
Continuous
 62
     7
100
AcDbLine
 10
23652.78536141806
 20
-5671.303498847957
 30
0.0
 11
23652.78239021749
 21
-5671.303441469357
 31
0.0
  0
LINE
  5
110
330
2
100
AcDbEntity
  8
0
  6
Continuous
 62
     7
100
AcDbLine
 10
23696.00765032763
 20
-5671.312904229196
 30
0.0
 11
23653.75103062717
 21
-5671.312904229196
 31
0.0
  0
LINE
  5
111
330
2
100
AcDbEntity
  8
0
  6
Continuous
 62
     7
100
AcDbLine
 10
23696.45139571141
 20
-5671.308571332097
 30
0.0
 11
23696.00868684575
 21
-5671.312780472777
 31
0.0
  0
LINE
  5
112
330
2
100
AcDbEntity
  8
0
  6
Continuous
 62
     7
100
AcDbLine
 10
23696.44689182659
 20
-5671.308653493476
 30
0.0
 11
23696.44681734871
 21
-5671.308654791417
 31
0.0
  0
LINE
  5
113
330
2
100
AcDbEntity
  8
0
  6
Continuous
 62
     7
100
AcDbLine
 10
23638.53152364943
 20
-5667.669420754177
 30
0.0
 11
23638.54102909397
 21
-5667.673876348516
 31
0.0
  0
LINE
  5
114
330
2
100
AcDbEntity
  8
0
  6
Continuous
 62
     7
100
AcDbLine
 10
23639.97268185169
 20
-5668.250463196357
 30
0.0
 11
23638.53424632369
 21
-5667.664258559777
 31
0.0
  0
LWPOLYLINE
  5
115
330
2
100
AcDbEntity
  8
0
  6
Continuous
 62
     7
100
AcDbPolyline
 90
        4
 70
     0
 43
0.0
 10
23652.78215128477
 20
-5671.303444032218
 10
23650.78740098168
 20
-5671.170462248397
 10
23647.09002604471
 20
-5670.481607166877
 10
23644.30841595897
 20
-5669.641881134877
  0
LINE
  5
116
330
2
100
AcDbEntity
  8
0
  6
Continuous
 62
     7
100
AcDbLine
 10
23644.30841772681
 20
-5669.641876433336
 30
0.0
 11
23643.03463379229
 21
-5669.217918675716
 31
0.0
  0
LINE
  5
117
330
2
100
AcDbEntity
  8
0
  6
Continuous
 62
     7
100
AcDbLine
 10
23643.03463379229
 20
-5669.217918675716
 30
0.0
 11
23639.97268185169
 21
-5668.250463196357
 31
0.0
  0
ARC
  5
118
330
2
100
AcDbEntity
  8
0
  6
Continuous
 62
     7
100
AcDbCircle
 10
23696.25098906626
 20
-5657.482904228596
 30
0.0
 40
13.8300000006
100
AcDbArc
 50
295.8476000090575
 51
348.6064113517218
  0
ARC
  5
119
330
2
100
AcDbEntity
  8
0
  6
Continuous
 62
     7
100
AcDbCircle
 10
23726.23906520631
 20
-5629.301098616197
 30
0.0
 40
9.999930170279998
100
AcDbArc
 50
93.34206243999801
 51
168.5981775065419
  0
SPLINE
  5
11A
330
2
100
AcDbEntity
  8
0
  6
Continuous
 62
     7
100
AcDbSpline
210
0.0
220
0.0
230
1.0
 70
     8
 71
     3
 72
     9
 73
     5
 74
     3
 42
0.0000000001
 43
0.0000000001
 44
0.0000000001
 12
0.7244597099513407
 22
-0.6893171466438505
 32
0.0
 13
0.7646333090805748
 23
-0.644465594616571
 33
0.0
 40
0.0
 40
0.0
 40
0.0
 40
0.0
 40
0.5769836423575848
 40
7.739249824923446
 40
7.739249824923446
 40
7.739249824923446
 40
7.739249824923446
 10
23628.94370085915
 20
-5659.684990980117
 30
0.0
 10
23629.08303465989
 20
-5659.81756588612
 30
0.0
 10
23630.94814391469
 20
-5661.599586176083
 30
0.0
 10
23632.76029224979
 20
-5663.443774265068
 30
0.0
 10
23634.58579468035
 20
-5664.982385643117
 30
0.0
 11
23628.94370085915
 21
-5659.684990980117
 31
0.0
 11
23629.36083896316
 21
-5660.083621041376
 31
0.0
 11
23634.58579468035
 21
-5664.982385643117
 31
0.0
  0
SPLINE
  5
11B
330
2
100
AcDbEntity
  8
0
  6
Continuous
 62
     7
100
AcDbSpline
210
0.0
220
0.0
230
1.0
 70
     8
 71
     3
 72
     8
 73
     4
 74
     2
 42
0.0000000001
 43
0.0000000001
 44
0.0000000001
 12
0.7646333092224031
 22
-0.6444655944482971
 32
0.0
 13
0.794563260955909
 23
-0.6071813768052446
 33
0.0
 40
0.0
 40
0.0
 40
0.0
 40
0.0
 40
1.598820902795528
 40
1.598820902795528
 40
1.598820902795528
 40
1.598820902795528
 10
23634.58579468035
 20
-5664.982385643117
 30
0.0
 10
23634.99329858627
 20
-5665.325847330962
 30
0.0
 10
23635.40821574403
 20
-5665.660803026223
 30
0.0
 10
23635.83167052743
 20
-5665.984394451896
 30
0.0
 11
23634.58579468035
 21
-5664.982385643117
 31
0.0
 11
23635.83167052743
 21
-5665.984394451896
 31
0.0
  0
SPLINE
  5
11C
330
2
100
AcDbEntity
  8
0
  6
Continuous
 62
     7
100
AcDbSpline
210
0.0
220
0.0
230
1.0
 70
     8
 71
     3
 72
     8
 73
     4
 74
     2
 42
0.0000000001
 43
0.0000000001
 44
0.0000000001
 12
0.7945632614497033
 22
-0.6071813761590605
 32
0.0
 13
0.8153051929809331
 23
-0.5790314691779052
 33
0.0
 40
0.0
 40
0.0
 40
0.0
 40
0.0
 40
0.9965082956128116
 40
0.9965082956128116
 40
0.9965082956128116
 40
0.9965082956128116
 10
23635.83167052743
 20
-5665.984394451896
 30
0.0
 10
23636.09560015457
 20
-5666.186081544658
 30
0.0
 10
23636.36292127918
 20
-5666.383422551945
 30
0.0
 10
23636.63374074194
 20
-5666.575759106097
 30
0.0
 11
23635.83167052743
 21
-5665.984394451896
 31
0.0
 11
23636.63374074194
 21
-5666.575759106097
 31
0.0
  0
LINE
  5
11D
330
2
100
AcDbEntity
  8
0
  6
Continuous
 62
     7
100
AcDbLine
 10
23652.78544801936
 20
-5671.303757818737
 30
0.0
 11
23653.75103062717
 21
-5671.312904229196
 31
0.0
  0
SPLINE
  5
11E
330
2
100
AcDbEntity
  8
0
  6
Continuous
 62
     7
100
AcDbSpline
210
0.0
220
0.0
230
1.0
 70
     8
 71
     3
 72
    10
 73
     6
 74
     4
 42
0.0000000001
 43
0.0000000001
 44
0.0000000001
 12
-0.9999999815208028
 22
0.0001922456614189
 32
0.0
 13
0.0007029422962273
 23
0.9999997529360337
 33
0.0
 40
0.0
 40
0.0
 40
0.0
 40
0.0
 40
1.496261544516852
 40
2.409893646940408
 40
2.716216407878374
 40
2.716216407878374
 40
2.716216407878374
 40
2.716216407878374
 10
23690.57573184173
 20
-5671.312904229196
 30
0.0
 10
23690.07697800278
 20
-5671.312808345933
 30
0.0
 10
23689.17683756214
 20
-5671.397635929515
 30
0.0
 10
23688.51389182711
 20
-5671.176873829474
 30
0.0
 10
23687.85994481671
 20
-5671.385911529108
 30
0.0
 10
23687.86001659245
 20
-5671.283803967357
 30
0.0
 11
23690.57573184173
 21
-5671.312904229196
 31
0.0
 11
23689.0794732366
 21
-5671.309938398197
 31
0.0
 11
23688.16589127916
 21
-5671.300366271037
 31
0.0
 11
23687.86001659245
 21
-5671.283803967357
 31
0.0
  0
SPLINE
  5
11F
330
2
100
AcDbEntity
  8
0
  6
Continuous
 62
     7
100
AcDbSpline
210
0.0
220
0.0
230
1.0
 70
     8
 71
     3
 72
    11
 73
     7
 74
     5
 42
0.0000000001
 43
0.0000000001
 44
0.0000000001
 12
-0.1736536933056288
 22
-0.9848067804403637
 32
0.0
 13
-0.9999999999999998
 23
0.0000000263293403
 33
0.0
 40
0.0
 40
0.0
 40
0.0
 40
0.0
 40
3.472906258894724
 40
6.945829403637187
 40
10.41877177590753
 40
13.89172672963885
 40
13.89172672963885
 40
13.89172672963885
 40
13.89172672963885
 10
23697.70808927625
 20
-5663.020449236796
 30
0.0
 10
23697.50706161013
 20
-5664.160496447328
 30
0.0
 10
23696.69765838392
 20
-5666.38913727301
 30
0.0
 10
23694.41914121943
 20
-5669.10073818138
 30
0.0
 10
23691.35302684786
 20
-5670.873721136155
 30
0.0
 10
23689.01766824369
 20
-5671.283803957197
 30
0.0
 10
23687.86001659245
 20
-5671.283803926717
 30
0.0
 11
23697.70808927625
 21
-5663.020449236796
 31
0.0
 11
23696.52026016855
 21
-5666.283904444696
 31
0.0
 11
23694.28788200441
 21
-5668.944295938737
 31
0.0
 11
23691.28021147671
 21
-5670.680742516637
 31
0.0
 11
23687.86001659245
 21
-5671.283803926717
 31
0.0
  0
SPLINE
  5
120
330
2
100
AcDbEntity
  8
0
  6
Continuous
 62
     7
100
AcDbSpline
210
0.0
220
0.0
230
1.0
 70
     8
 71
     3
 72
    11
 73
     7
 74
     5
 42
0.0000000001
 43
0.0000000001
 44
0.0000000001
 12
-0.9999999999999984
 22
0.0000000549562366
 32
0.0
 13
-0.1391788378012399
 23
0.9902672624641775
 33
0.0
 40
0.0
 40
0.0
 40
0.0
 40
0.0
 40
3.558860603335196
 40
7.117705310797756
 40
10.67652618202237
 40
14.23532702766336
 40
14.23532702766336
 40
14.23532702766336
 40
14.23532702766336
 10
23662.44383217473
 20
-5671.278199833277
 30
0.0
 10
23661.25754530695
 20
-5671.278199768083
 30
0.0
 10
23658.86338778761
 20
-5670.847143608383
 30
0.0
 10
23655.74246074817
 20
-5668.987335049568
 30
0.0
 10
23653.46634690227
 20
-5666.155684124302
 30
0.0
 10
23652.70625984038
 20
-5663.844851052846
 30
0.0
 10
23652.54115658515
 20
-5662.670129729157
 30
0.0
 11
23662.44383217473
 21
-5671.278199833277
 31
0.0
 11
23658.94176611563
 21
-5670.644936766557
 31
0.0
 11
23655.88325443232
 21
-5668.825353865217
 31
0.0
 11
23653.65567303785
 21
-5666.049910274637
 31
0.0
 11
23652.54115658515
 21
-5662.670129729157
 31
0.0
  0
SPLINE
  5
121
330
2
100
AcDbEntity
  8
0
  6
Continuous
 62
     7
100
AcDbSpline
210
0.0
220
0.0
230
1.0
 70
     8
 71
     3
 72
    10
 73
     6
 74
     4
 42
0.0000000001
 43
0.0000000001
 44
0.0000000001
 12
0.9999999591574177
 22
0.0002858061627694
 32
0.0
 13
-0.0213086644105889
 23
0.9997729446334487
 33
0.0
 40
0.0
 40
0.0
 40
0.0
 40
0.0
 40
1.777871081347585
 40
2.876267089895997
 40
3.247610584938044
 40
3.247610584938044
 40
3.247610584938044
 40
3.247610584938044
 10
23659.19682259816
 20
-5671.312904229196
 30
0.0
 10
23659.78944626773
 20
-5671.312734853692
 30
0.0
 10
23660.8654149071
 20
-5671.413430975014
 30
0.0
 10
23661.65206584761
 20
-5671.149721034382
 30
0.0
 10
23662.44646978604
 20
-5671.401957653073
 30
0.0
 10
23662.44383217473
 20
-5671.278204593236
 30
0.0
 11
23659.19682259816
 21
-5671.312904229196
 31
0.0
 11
23660.97469044195
 21
-5671.309511312436
 31
0.0
 11
23662.07302839514
 21
-5671.298218297176
 31
0.0
 11
23662.44383217473
 21
-5671.278204593236
 31
0.0
  0
LINE
  5
122
330
2
100
AcDbEntity
  8
0
  6
Continuous
 62
     7
100
AcDbLine
 10
23696.46183987137
 20
-5671.306173373977
 30
0.0
 11
23696.00860164907
 21
-5671.312766995537
 31
0.0
  0
SPLINE
  5
123
330
2
100
AcDbEntity
  8
0
  6
Continuous
 62
     7
100
AcDbSpline
210
0.0
220
0.0
230
1.0
 70
     8
 71
     3
 72
    26
 73
    22
 74
     0
 42
0.0000000001
 43
0.0000000001
 40
0.0
 40
0.0
 40
0.0
 40
0.0
 40
0.1977828978453812
 40
0.5110640165492267
 40
0.8962004808645927
 40
1.341357414582906
 40
1.847883774863739
 40
2.405261763927558
 40
2.997031514833208
 40
3.611286826114681
 40
4.291948541834416
 40
5.139512537701986
 40
6.174973229599048
 40
7.41299924257442
 40
8.983234488089989
 40
11.10587760630417
 40
14.13368462073965
 40
18.34658189986743
 40
23.5792918473296
 40
29.38158527083391
 40
43.7077940328578
 40
43.7077940328578
 40
43.7077940328578
 40
43.7077940328578
 10
23697.70808928641
 20
-5663.020449241876
 30
0.0
 10
23697.70813173281
 20
-5662.954521622925
 30
0.0
 10
23697.70823032091
 20
-5662.784166979003
 30
0.0
 10
23697.70838225158
 20
-5662.485433523783
 30
0.0
 10
23697.70854609001
 20
-5662.104242053064
 30
0.0
 10
23697.70870700438
 20
-5661.658635495498
 30
0.0
 10
23697.70884368565
 20
-5661.155615086016
 30
0.0
 10
23697.70897132052
 20
-5660.603723733649
 30
0.0
 10
23697.70903032439
 20
-5660.015922716439
 30
0.0
 10
23697.70922693319
 20
-5659.387027154886
 30
0.0
 10
23697.70934196819
 20
-5658.672866808188
 30
0.0
 10
23697.71000578622
 20
-5657.818304879239
 30
0.0
 10
23697.7096770693
 20
-5656.777954410033
 30
0.0
 10
23697.71153307904
 20
-5655.496714756482
 30
0.0
 10
23697.71347687662
 20
-5653.853081216695
 30
0.0
 10
23697.71787859322
 20
-5651.612856629182
 30
0.0
 10
23697.72723412552
 20
-5648.491754658071
 30
0.0
 10
23697.73891496042
 20
-5644.333966288085
 30
0.0
 10
23697.75651595877
 20
-5639.251362884703
 30
0.0
 10
23697.78900819969
 20
-5630.797687677075
 30
0.0
 10
23697.81932108772
 20
-5624.088255446823
 30
0.0
 10
23697.84158707135
 20
-5619.312904228896
 30
0.0
  0
LINE
  5
124
330
2
100
AcDbEntity
  8
0
  6
Continuous
 62
     7
100
AcDbLine
 10
23652.54115639973
 20
-5662.670138060356
 30
0.0
 11
23652.537258863
 21
-5649.418309976138
 31
0.0
  0
SPLINE
  5
125
330
2
100
AcDbEntity
  8
0
  6
Continuous
 62
     7
100
AcDbSpline
210
0.0
220
0.0
230
1.0
 70
     8
 71
     3
 72
     8
 73
     4
 74
     2
 42
0.0000000001
 43
0.0000000001
 44
0.0000000001
 12
-0.8897865149026802
 22
0.4563769909815157
 32
0.0
 13
-0.815299755805646
 23
0.5790391249157987
 33
0.0
 40
0.0
 40
0.0
 40
0.0
 40
0.0
 40
0.8199027910115042
 40
0.8199027910115042
 40
0.8199027910115042
 40
0.8199027910115042
 10
23637.33579365583
 20
-5666.999196242457
 30
0.0
 10
23637.09261417351
 20
-5666.874467986236
 30
0.0
 10
23636.85653337588
 20
-5666.733985302357
 30
0.0
 10
23636.63371119411
 20
-5666.575733370817
 30
0.0
 11
23637.33579365583
 21
-5666.999196242457
 31
0.0
 11
23636.63371119411
 21
-5666.575733370817
 31
0.0
  0
SPLINE
  5
126
330
2
100
AcDbEntity
  8
0
  6
Continuous
 62
     7
100
AcDbSpline
210
0.0
220
0.0
230
1.0
 70
     8
 71
     3
 72
     8
 73
     4
 74
     2
 42
0.0000000001
 43
0.0000000001
 44
0.0000000001
 12
-0.9999999999999996
 22
0.0000000245616844
 32
0.0
 13
-0.9567099878106242
 23
0.2910429508223744
 33
0.0
 40
0.0
 40
0.0
 40
0.0
 40
0.0
 40
0.9337271347171084
 40
0.9337271347171084
 40
0.9337271347171084
 40
0.9337271347171084
 10
23653.75098906515
 20
-5671.312904264757
 30
0.0
 10
23653.43974668691
 20
-5671.312904257113
 30
0.0
 10
23653.12607813937
 20
-5671.260280627381
 30
0.0
 10
23652.82830944748
 20
-5671.169695727197
 30
0.0
 11
23653.75098906515
 21
-5671.312904264757
 31
0.0
 11
23652.82830944748
 21
-5671.169695727197
 31
0.0
  0
SPLINE
  5
127
330
2
100
AcDbEntity
  8
0
  6
Continuous
 62
     7
100
AcDbSpline
210
0.0
220
0.0
230
1.0
 70
     8
 71
     3
 72
    18
 73
    14
 74
     0
 42
0.0000000001
 43
0.0000000001
 40
0.0
 40
0.0
 40
0.0
 40
0.0
 40
3.056659670981216
 40
6.134744682882669
 40
9.404176704606092
 40
12.74033714048381
 40
16.09241510182986
 40
19.48819205439184
 40
23.00989981193023
 40
26.77923561939635
 40
30.92726244898616
 40
35.58853134228311
 40
43.09582836003367
 40
43.09582836003367
 40
43.09582836003367
 40
43.09582836003367
 10
23658.49606217849
 20
-5645.483326404077
 30
0.0
 10
23659.36111728683
 20
-5644.944986849928
 30
0.0
 10
23661.08875275918
 20
-5643.850756753653
 30
0.0
 10
23663.71191079381
 20
-5642.134305732884
 30
0.0
 10
23666.38621749674
 20
-5640.326489896938
 30
0.0
 10
23669.10780328301
 20
-5638.426217079036
 30
0.0
 10
23671.83501177298
 20
-5636.461081517927
 30
0.0
 10
23674.58247492931
 20
-5634.418902027277
 30
0.0
 10
23677.40941583397
 20
-5632.251129614662
 30
0.0
 10
23680.39789193574
 20
-5629.882741450887
 30
0.0
 10
23683.64026451353
 20
-5627.223828806602
 30
0.0
 10
23687.76905874633
 20
-5623.683094161282
 30
0.0
 10
23690.8063883978
 20
-5620.994031193243
 30
0.0
 10
23692.66006861422
 20
-5619.312904228882
 30
0.0
  0
SPLINE
  5
128
330
2
100
AcDbEntity
  8
0
  6
Continuous
 62
     7
100
AcDbSpline
210
0.0
220
0.0
230
1.0
 70
     8
 71
     3
 72
    11
 73
     7
 74
     5
 42
0.0000000001
 43
0.0000000001
 44
0.0000000001
 12
-0.8998677089377567
 22
-0.4361629356228164
 32
0.0
 13
-0.9997476220159514
 23
-0.0224653571850125
 33
0.0
 40
0.0
 40
0.0
 40
0.0
 40
0.0
 40
1.614732277951615
 40
3.173255744580066
 40
4.647215329852317
 40
6.020566620064819
 40
6.020566620064819
 40
6.020566620064819
 40
6.020566620064819
 10
23702.28097081882
 20
-5669.929088124597
 30
0.0
 10
23701.79662234031
 20
-5670.16385024813
 30
0.0
 10
23700.81181845366
 20
-5670.558853948538
 30
0.0
 10
23699.31704658908
 20
-5670.974776877937
 30
0.0
 10
23697.86767747227
 20
-5671.225653131159
 30
0.0
 10
23696.91938416094
 20
-5671.295862842238
 30
0.0
 10
23696.46171593208
 20
-5671.306147117996
 30
0.0
 11
23702.28097081882
 21
-5669.929088124597
 31
0.0
 11
23700.78508621598
 21
-5670.537109164076
 31
0.0
 11
23699.28398590093
 21
-5670.956266938917
 31
0.0
 11
23697.83146545826
 21
-5671.206748919537
 31
0.0
 11
23696.46171593208
 21
-5671.306147117996
 31
0.0
  0
SPLINE
  5
129
330
2
100
AcDbEntity
  8
0
  6
Continuous
 62
     7
100
AcDbSpline
210
0.0
220
0.0
230
1.0
 70
     8
 71
     3
 72
    21
 73
    17
 74
    15
 42
0.0000000001
 43
0.0000000001
 44
0.0000000001
 12
0.9332043431734948
 22
0.3593461477212832
 32
0.0
 13
0.8484038397794833
 23
0.529349529750834
 33
0.0
 40
0.0
 40
0.0
 40
0.0
 40
0.0
 40
0.5033092952582619
 40
1.284747242156586
 40
2.174208626232049
 40
3.131327929954127
 40
4.066941603061793
 40
4.961330252742972
 40
5.876785363786896
 40
6.886967986843043
 40
8.003011666671117
 40
9.224624757757924
 40
10.57807464630694
 40
12.10754646176713
 40
13.88440854687837
 40
16.03790536806538
 40
16.03790536806538
 40
16.03790536806538
 40
16.03790536806538
 10
23645.01372524939
 20
-5654.141235047076
 30
0.0
 10
23645.17028872283
 20
-5654.080947628289
 30
0.0
 10
23645.56422216437
 20
-5653.912083204112
 30
0.0
 10
23646.20948875539
 20
-5653.580909757375
 30
0.0
 10
23646.96611740965
 20
-5653.138923976883
 30
0.0
 10
23647.75083322451
 20
-5652.644509708121
 30
0.0
 10
23648.52896874717
 20
-5652.136922459912
 30
0.0
 10
23649.29128992856
 20
-5651.630576306852
 30
0.0
 10
23650.07069870192
 20
-5651.105078061533
 30
0.0
 10
23650.90866950735
 20
-5650.534297825846
 30
0.0
 10
23651.82924636742
 20
-5649.903524036822
 30
0.0
 10
23652.84400722836
 20
-5649.207774399356
 30
0.0
 10
23653.97429705287
 20
-5648.436822731916
 30
0.0
 10
23655.2625250114
 20
-5647.568992864501
 30
0.0
 10
23656.7815641245
 20
-5646.566554681252
 30
0.0
 10
23657.88705052114
 20
-5645.863310580615
 30
0.0
 10
23658.49606217849
 20
-5645.483326404077
 30
0.0
 11
23645.01372524939
 21
-5654.141235047076
 31
0.0
 11
23645.47700103353
 21
-5653.944522580457
 31
0.0
 11
23646.17418627619
 21
-5653.591566489317
 31
0.0
 11
23646.94412785035
 21
-5653.146222211097
 31
0.0
 11
23647.75551483819
 21
-5652.638552517776
 31
0.0
 11
23648.53974968831
 21
-5652.128308806236
 31
0.0
 11
23649.28487347111
 21
-5651.633615360777
 31
0.0
 11
23650.0441312922
 21
-5651.122160942996
 31
0.0
 11
23650.87925588559
 21
-5650.553798518636
 31
0.0
 11
23651.80018747528
 21
-5649.923371280636
 31
0.0
 11
23652.80802649591
 21
-5649.233009742896
 31
0.0
 11
23653.92651156399
 21
-5648.470895740076
 31
0.0
 11
23655.19538062645
 21
-5647.616931258017
 31
0.0
 11
23656.67922462092
 21
-5646.639462143617
 31
0.0
 11
23658.49606217849
 21
-5645.483326404077
 31
0.0
  0
MTEXT
  5
19B
330
2
100
AcDbEntity
  8
尺寸标注
100
AcDbMText
 10
23468.13958951913
 20
-5173.525817956484
 30
0.0
 40
75.0
 41
801.6353349369019
 71
     2
 72
     5
  1
SCALE\P1:1
 73
     1
 44
1.0
  0
LINE
  5
24B
330
2
100
AcDbEntity
  8
0
  6
Continuous
 62
     7
100
AcDbLine
 10
23988.61766690871
 20
-5609.844725263338
 30
0.0
 11
23988.61922543747
 21
-5609.955358417739
 31
0.0
  0
LINE
  5
24C
330
2
100
AcDbEntity
  8
0
  6
Continuous
 62
     7
100
AcDbLine
 10
23988.61652447259
 20
-5616.351230571359
 30
0.0
 11
23988.61652447259
 21
-5663.903988018358
 31
0.0
  0
LINE
  5
24D
330
2
100
AcDbEntity
  8
0
  6
Continuous
 62
     7
100
AcDbLine
 10
23988.61652447259
 20
-5616.280922464579
 30
0.0
 11
23988.61652447259
 21
-5545.312904228179
 31
0.0
  0
LINE
  5
24F
330
2
100
AcDbEntity
  8
0
  6
Continuous
 62
     7
100
AcDbLine
 10
23988.71892425002
 20
-5615.039557423818
 30
0.0
 11
23988.70727775312
 21
-5616.351229938898
 31
0.0
  0
LINE
  5
250
330
2
100
AcDbEntity
  8
0
  6
Continuous
 62
     7
100
AcDbLine
 10
23993.1382152387
 20
-5670.037931638178
 30
0.0
 11
23993.62461199513
 21
-5670.384483297119
 31
0.0
  0
LINE
  5
251
330
2
100
AcDbEntity
  8
0
  6
Continuous
 62
     7
100
AcDbLine
 10
23992.70241061119
 20
-5669.697200473059
 30
0.0
 11
23992.72361654034
 21
-5669.714729663298
 31
0.0
  0
LWPOLYLINE
  5
252
330
2
100
AcDbEntity
  8
0
  6
Continuous
 62
     7
100
AcDbPolyline
 90
        3
 70
     0
 43
0.0
 10
23992.14483464735
 20
-5669.236493263919
 10
23992.67916886697
 20
-5669.679029056519
 10
23993.18075244851
 20
-5670.070009575039
  0
LINE
  5
253
330
2
100
AcDbEntity
  8
0
  6
Continuous
 62
     7
100
AcDbLine
 10
23990.35910997141
 20
-5667.697304488099
 30
0.0
 11
23992.14966870423
 21
-5669.240845465019
 31
0.0
  0
LINE
  5
254
330
2
100
AcDbEntity
  8
0
  6
Continuous
 62
     7
100
AcDbLine
 10
23993.62461199513
 20
-5670.384483297119
 30
0.0
 11
23994.33144463277
 21
-5670.789545247979
 31
0.0
  0
LINE
  5
255
330
2
100
AcDbEntity
  8
0
  6
Continuous
 62
     7
100
AcDbLine
 10
23993.18075244851
 20
-5670.070009575039
 30
0.0
 11
23993.36764857967
 21
-5670.201400048859
 31
0.0
  0
LINE
  5
256
330
2
100
AcDbEntity
  8
0
  6
Continuous
 62
     7
100
AcDbLine
 10
23993.94196882803
 20
-5670.566349796479
 30
0.0
 11
23994.40465443555
 21
-5670.824335592419
 31
0.0
  0
LINE
  5
257
330
2
100
AcDbEntity
  8
0
  6
Continuous
 62
     7
100
AcDbLine
 10
23994.40465443555
 20
-5670.824335592419
 30
0.0
 11
23994.81478190333
 21
-5670.968870705938
 31
0.0
  0
LINE
  5
258
330
2
100
AcDbEntity
  8
0
  6
Continuous
 62
     7
100
AcDbLine
 10
23994.33144463277
 20
-5670.789545247979
 30
0.0
 11
23995.27997384823
 21
-5671.141463975178
 31
0.0
  0
LINE
  5
259
330
2
100
AcDbEntity
  8
0
  6
Continuous
 62
     7
100
AcDbLine
 10
24241.77009078573
 20
-5714.312904228518
 30
0.0
 11
24185.46295816273
 21
-5714.312904228518
 31
0.0
  0
LINE
  5
25A
330
2
100
AcDbEntity
  8
0
  6
Continuous
 62
     7
100
AcDbLine
 10
23995.67376093467
 20
-5671.229120861078
 30
0.0
 11
23995.64948917473
 21
-5671.224653470979
 31
0.0
  0
LINE
  5
25B
330
2
100
AcDbEntity
  8
0
  6
Continuous
 62
     7
100
AcDbLine
 10
23995.27997384823
 20
-5671.141463975178
 30
0.0
 11
23995.64945468915
 21
-5671.224598812719
 31
0.0
  0
LINE
  5
25C
330
2
100
AcDbEntity
  8
0
  6
Continuous
 62
     7
100
AcDbLine
 10
23995.67515823693
 20
-5671.229413372558
 30
0.0
 11
23996.09145785138
 21
-5671.287623644758
 31
0.0
  0
LWPOLYLINE
  5
25D
330
2
100
AcDbEntity
  8
0
  6
Continuous
 62
     7
100
AcDbPolyline
 90
        6
 70
     0
 43
0.0
 10
24174.73065461849
 20
-5698.699160680859
 10
24176.33100630221
 20
-5699.015046267017
 10
24177.74453129329
 20
-5699.829251913178
 10
24178.82078664904
 20
-5701.055173708219
 10
24179.44515079019
 20
-5702.562341448259
 10
24179.52686545531
 20
-5703.000801020919
  0
LWPOLYLINE
  5
25E
330
2
100
AcDbEntity
  8
06___PRT_ALL_SURFS
  6
Continuous
 62
     7
100
AcDbPolyline
 90
        6
 70
     0
 43
0.0
 10
24319.11840719878
 20
-5669.805083820918
 10
24324.37325357247
 20
-5668.431188913139
 10
24333.60428333237
 20
-5665.650203339738
 10
24342.24559531311
 20
-5662.696058519058
 10
24349.60179139317
 20
-5659.898685231418
 10
24355.29575900445
 20
-5657.543784228758
  0
LINE
  5
25F
330
2
100
AcDbEntity
  8
06___PRT_ALL_SURFS
  6
Continuous
 62
     7
100
AcDbLine
 10
24310.38121420837
 20
-5671.949890313618
 30
0.0
 11
24320.15907385759
 21
-5669.576885107898
 31
0.0
  0
LWPOLYLINE
  5
260
330
2
100
AcDbEntity
  8
06___PRT_ALL_SURFS
  6
Continuous
 62
     7
100
AcDbPolyline
 90
        6
 70
     0
 43
0.0
 10
24271.30478858693
 20
-5677.830965274838
 10
24276.98739813609
 20
-5677.310073743599
 10
24284.52648736573
 20
-5676.448627175918
 10
24292.54905389867
 20
-5675.314109206198
 10
24301.1755869199
 20
-5673.836080925278
 10
24310.38121420837
 20
-5671.949890313618
  0
LINE
  5
261
330
2
100
AcDbEntity
  8
0
  6
Continuous
 62
     7
100
AcDbLine
 10
24269.83238488201
 20
-5677.948139051158
 30
0.0
 11
24271.30478858693
 21
-5677.830965274838
 31
0.0
  0
LINE
  5
262
330
2
100
AcDbEntity
  8
0
  6
Continuous
 62
     7
100
AcDbLine
 10
24255.33062530545
 20
-5678.706527691858
 30
0.0
 11
24269.83238488201
 21
-5677.948139051158
 31
0.0
  0
LINE
  5
263
330
2
100
AcDbEntity
  8
0
  6
Continuous
 62
     7
100
AcDbLine
 10
24255.33062530545
 20
-5678.706527691858
 30
0.0
 11
24255.33052066761
 21
-5678.706530640798
 31
0.0
  0
LINE
  5
264
330
2
100
AcDbEntity
  8
0
  6
Continuous
 62
     7
100
AcDbLine
 10
23996.08837487304
 20
-5671.287469601378
 30
0.0
 11
23996.59493778421
 21
-5671.312780503258
 31
0.0
  0
LINE
  5
265
330
2
100
AcDbEntity
  8
0
  6
Continuous
 62
     7
100
AcDbLine
 10
24179.52671522193
 20
-5703.000823609139
 30
0.0
 11
24180.51161781905
 21
-5710.008769732918
 31
0.0
  0
LINE
  5
266
330
2
100
AcDbEntity
  8
0
  6
Continuous
 62
     7
100
AcDbLine
 10
23996.59528881475
 20
-5671.312904229199
 30
0.0
 11
24002.61652447355
 21
-5671.312904229199
 31
0.0
  0
LINE
  5
267
330
2
100
AcDbEntity
  8
0
  6
Continuous
 62
     7
100
AcDbLine
 10
24469.69405385993
 20
-5619.312904228898
 30
0.0
 11
23993.33194769349
 21
-5619.312904228898
 31
0.0
  0
LINE
  5
269
330
2
100
AcDbEntity
  8
0
  6
Continuous
 62
     7
100
AcDbLine
 10
24250.51603055062
 20
-5683.008791901638
 30
0.0
 11
24246.72143112941
 21
-5710.008769732918
 31
0.0
  0
LINE
  5
26A
330
2
100
AcDbEntity
  8
0
  6
Continuous
 62
     7
100
AcDbLine
 10
24311.33420004941
 20
-5645.150348446719
 30
0.0
 11
24311.42151322505
 21
-5645.122525360378
 31
0.0
  0
LWPOLYLINE
  5
26B
330
2
100
AcDbEntity
  8
06___PRT_ALL_SURFS
  6
Continuous
 62
     7
100
AcDbPolyline
 90
        6
 70
     0
 43
0.0
 10
24320.15907385759
 20
-5669.576885107898
 10
24330.18118128857
 20
-5666.724019939878
 10
24339.73879154847
 20
-5663.587380274638
 10
24347.94009342117
 20
-5660.552765802858
 10
24354.0689209222
 20
-5658.065004613799
 10
24358.7921979501
 20
-5656.011127464259
  0
LWPOLYLINE
  5
26C
330
2
100
AcDbEntity
  8
06___PRT_ALL_SURFS
  6
Continuous
 62
     7
100
AcDbPolyline
 90
        3
 70
     0
 43
0.0
 10
24362.41442611837
 20
-5654.350262241418
 10
24370.07585347774
 20
-5650.575060114419
 10
24379.39749738204
 20
-5645.456692540658
  0
LINE
  5
26D
330
2
100
AcDbEntity
  8
0
  6
Continuous
 62
     7
100
AcDbLine
 10
24358.7921979501
 20
-5656.011127464259
 30
0.0
 11
24362.41442611837
 21
-5654.350262241418
 31
0.0
  0
LINE
  5
26F
330
2
100
AcDbEntity
  8
0
  6
Continuous
 62
     7
100
AcDbLine
 10
24468.55222591499
 20
-5539.312904229219
 30
0.0
 11
23994.61652447409
 21
-5539.312904229219
 31
0.0
  0
LINE
  5
273
330
2
100
AcDbEntity
  8
0
  6
Continuous
 62
     7
100
AcDbLine
 10
24472.69302583505
 20
-5616.391435073118
 30
0.0
 11
24474.55016986523
 21
-5545.469965918119
 31
0.0
  0
ARC
  5
274
330
2
100
AcDbEntity
  8
0
  6
Continuous
 62
     7
100
AcDbCircle
 10
24418.52030793992
 20
-5629.312904228858
 30
0.0
 40
10.00000002028
100
AcDbArc
 50
91.96443386314845
 51
131.7429872282594
  0
ARC
  5
275
330
2
100
AcDbEntity
  8
0
  6
Continuous
 62
     7
100
AcDbCircle
 10
24468.55210962109
 20
-5545.312904228179
 30
0.0
 40
5.999999998959999
100
AcDbArc
 50
358.5000290692802
 51
89.99888948477881
  0
ARC
  5
276
330
2
100
AcDbEntity
  8
0
  6
Continuous
 62
     7
100
AcDbCircle
 10
23994.61652447409
 20
-5545.312904228179
 30
0.0
 40
5.999999998959999
100
AcDbArc
 50
90.0
 51
180.0
  0
ARC
  5
277
330
2
100
AcDbEntity
  8
0
  6
Continuous
 62
     7
100
AcDbCircle
 10
24241.77009078573
 20
-5709.312904228538
 30
0.0
 40
4.999999999979999
100
AcDbArc
 50
270.0
 51
351.9999999801244
  0
ARC
  5
278
330
2
100
AcDbEntity
  8
0
  6
Continuous
 62
     7
100
AcDbCircle
 10
24185.46295816273
 20
-5709.312904228538
 30
0.0
 40
4.999999999979999
100
AcDbArc
 50
188.0000000103097
 51
270.0
  0
ARC
  5
279
330
2
100
AcDbEntity
  8
0
  6
Continuous
 62
     7
100
AcDbCircle
 10
24255.46737015769
 20
-5683.704657451738
 30
0.0
 40
4.999999913619999
100
AcDbArc
 50
91.56717599168196
 51
171.9999983089395
  0
ARC
  5
27A
330
2
100
AcDbEntity
  8
0
  6
Continuous
 62
     7
100
AcDbCircle
 10
24469.69405385993
 20
-5616.312904229419
 30
0.0
 40
2.999999999479999
100
AcDbArc
 50
270.0
 51
358.4999999999608
  0
SPLINE
  5
27B
330
2
100
AcDbEntity
  8
0
  6
Continuous
 62
     7
100
AcDbSpline
210
0.0
220
0.0
230
1.0
 70
     8
 71
     3
 72
    10
 73
     6
 74
     4
 42
0.0000000001
 43
0.0000000001
 44
0.0000000001
 12
0.0000002701014428
 22
-0.9999999999999634
 32
0.0
 13
0.7584719453251085
 23
-0.651705691362862
 33
0.0
 40
0.0
 40
0.0
 40
0.0
 40
0.0
 40
1.594177400631394
 40
3.174162171888056
 40
4.290470917335992
 40
4.290470917335992
 40
4.290470917335992
 40
4.290470917335992
 10
23988.61652447259
 20
-5663.903988076778
 30
0.0
 10
23988.61652461612
 20
-5664.435380543656
 30
0.0
 10
23988.78802589982
 20
-5665.501082432274
 30
0.0
 10
23989.45857018987
 20
-5666.791159730831
 30
0.0
 10
23990.07695274712
 20
-5667.454718643643
 30
0.0
 10
23990.35918236903
 20
-5667.697220231218
 30
0.0
 11
23988.61652447259
 21
-5663.903988076778
 31
0.0
 11
23988.87066465011
 21
-5665.477777883218
 31
0.0
 11
23989.59867760607
 21
-5666.880043554678
 31
0.0
 11
23990.35918236903
 21
-5667.697220231218
 31
0.0
  0
SPLINE
  5
27C
330
2
100
AcDbEntity
  8
0
  6
Continuous
 62
     7
100
AcDbSpline
210
0.0
220
0.0
230
1.0
 70
     8
 71
     3
 72
    10
 73
     6
 74
     4
 42
0.0000000001
 43
0.0000000001
 44
0.0000000001
 12
0.5265922485367468
 22
-0.8501179940343652
 32
0.0
 13
0.999905804724883
 23
-0.0137252204894508
 33
0.0
 40
0.0
 40
0.0
 40
0.0
 40
0.0
 40
21.24855220560085
 40
68.6362647487081
 40
79.88307367346425
 40
79.88307367346425
 40
79.88307367346425
 40
79.88307367346425
 10
24109.66934495727
 20
-5668.830211732058
 30
0.0
 10
24113.39911925197
 20
-5674.851470591111
 30
0.0
 10
24128.1211379484
 20
-5693.436440305248
 30
0.0
 10
24157.05990570711
 20
-5698.239159241077
 30
0.0
 10
24176.40887372307
 20
-5698.764972563127
 30
0.0
 10
24180.15745689924
 20
-5698.816427540559
 30
0.0
 11
24109.66934495727
 21
-5668.830211732058
 31
0.0
 11
24123.48652447298
 21
-5684.972904229439
 31
0.0
 11
24168.91652447386
 21
-5698.452904228998
 31
0.0
 11
24180.15745689924
 21
-5698.816427540559
 31
0.0
  0
SPLINE
  5
27D
330
2
100
AcDbEntity
  8
0
  6
Continuous
 62
     7
100
AcDbSpline
210
0.0
220
0.0
230
1.0
 70
     8
 71
     3
 72
    10
 73
     6
 74
     4
 42
0.0000000001
 43
0.0000000001
 44
0.0000000001
 12
0.5266051349149472
 22
-0.8501100116345003
 32
0.0
 13
0.999534637278719
 23
-0.0305042436408357
 33
0.0
 40
0.0
 40
0.0
 40
0.0
 40
0.0
 40
21.24720176495905
 40
68.6349143080663
 40
74.45470721178755
 40
74.45470721178755
 40
74.45470721178755
 40
74.45470721178755
 10
24109.67006454181
 20
-5668.831373390899
 30
0.0
 10
24113.39969305914
 20
-5674.852193037435
 30
0.0
 10
24128.10619379272
 20
-5693.434887905624
 30
0.0
 10
24155.16991077609
 20
-5697.920968053349
 30
0.0
 10
24172.79207882662
 20
-5698.639937812887
 30
0.0
 10
24174.73110702297
 20
-5698.699113939778
 30
0.0
 11
24109.67006454181
 21
-5668.831373390899
 31
0.0
 11
24123.48652447298
 21
-5684.972904229439
 31
0.0
 11
24168.91652447386
 21
-5698.452904228998
 31
0.0
 11
24174.73110702297
 21
-5698.699113939778
 31
0.0
  0
SPLINE
  5
27E
330
2
100
AcDbEntity
  8
0
  6
Continuous
 62
     7
100
AcDbSpline
210
0.0
220
0.0
230
1.0
 70
     8
 71
     3
 72
    11
 73
     7
 74
     5
 42
0.0000000001
 43
0.0000000001
 44
0.0000000001
 12
0.9999835653026108
 22
0.0057331600953621
 32
0.0
 13
0.9509195165871057
 23
0.3094383185285
 33
0.0
 40
0.0
 40
0.0
 40
0.0
 40
0.0
 40
98.1059187196795
 40
173.6581307298143
 40
250.7890136957426
 40
302.6244669848949
 40
302.6244669848949
 40
302.6244669848949
 40
302.6244669848949
 10
24012.65403556689
 20
-5671.283803967359
 30
0.0
 10
24045.35547102642
 20
-5671.096318321252
 30
0.0
 10
24103.2347420076
 20
-5669.174322658176
 30
0.0
 10
24186.70708881264
 20
-5665.485528267831
 30
0.0
 10
24254.82606296402
 20
-5660.066280782288
 30
0.0
 10
24296.78716153095
 20
-5649.89019454445
 30
0.0
 10
24313.21760959221
 20
-5644.543569375798
 30
0.0
 11
24012.65403556689
 21
-5671.283803967359
 31
0.0
 11
24110.7265244736
 21
-5668.722904227599
 31
0.0
 11
24186.19028093719
 21
-5665.068017084758
 31
0.0
 11
24262.89577265417
 21
-5656.978477693638
 31
0.0
 11
24313.21760959221
 21
-5644.543569375798
 31
0.0
  0
SPLINE
  5
27F
330
2
100
AcDbEntity
  8
0
  6
Continuous
 62
     7
100
AcDbSpline
210
0.0
220
0.0
230
1.0
 70
     8
 71
     3
 72
     9
 73
     5
 74
     3
 42
0.0000000001
 43
0.0000000001
 44
0.0000000001
 12
0.9509195165859152
 22
0.3094383185321585
 32
0.0
 13
0.8931422596350186
 23
0.4497742812278766
 33
0.0
 40
0.0
 40
0.0
 40
0.0
 40
0.0
 40
15.91167863362485
 40
45.75354079808332
 40
45.75354079808332
 40
45.75354079808332
 40
45.75354079808332
 10
24313.21760959221
 20
-5644.543569375798
 30
0.0
 10
24318.26118484366
 20
-5642.902341681994
 30
0.0
 10
24332.65256371319
 20
-5637.838047232417
 30
0.0
 10
24346.63022412994
 20
-5631.652117186972
 30
0.0
 10
24355.51456686503
 20
-5627.178083151798
 30
0.0
 11
24313.21760959221
 21
-5644.543569375798
 31
0.0
 11
24328.22090890991
 21
-5639.244274467678
 31
0.0
 11
24355.51456686503
 21
-5627.178083151798
 31
0.0
  0
SPLINE
  5
280
330
2
100
AcDbEntity
  8
0
  6
Continuous
 62
     7
100
AcDbSpline
210
0.0
220
0.0
230
1.0
 70
     8
 71
     3
 72
     8
 73
     4
 74
     2
 42
0.0000000001
 43
0.0000000001
 44
0.0000000001
 12
0.999980487063253
 22
0.0062470387176068
 32
0.0
 13
0.9998832531136992
 23
0.0152800570275812
 33
0.0
 40
0.0
 40
0.0
 40
0.0
 40
0.0
 40
17.62448918397321
 40
17.62448918397321
 40
17.62448918397321
 40
17.62448918397321
 10
24013.58874563041
 20
-5671.278204593239
 30
0.0
 10
24019.46346072322
 20
-5671.241504304469
 30
0.0
 10
24025.33805000588
 20
-5671.176422618169
 30
0.0
 10
24031.2121938658
 20
-5671.086654884899
 30
0.0
 11
24013.58874563041
 21
-5671.278204593239
 31
0.0
 11
24031.2121938658
 21
-5671.086654884899
 31
0.0
  0
LINE
  5
281
330
2
100
AcDbEntity
  8
0
  6
Continuous
 62
     7
100
AcDbLine
 10
24002.61652447355
 20
-5671.312904229199
 30
0.0
 11
24005.90900643823
 21
-5671.309726204058
 31
0.0
  0
LINE
  5
282
330
2
100
AcDbEntity
  8
0
  6
Continuous
 62
     7
100
AcDbLine
 10
24005.90900643823
 20
-5671.309726204058
 30
0.0
 11
24006.94077121747
 21
-5671.307434661779
 31
0.0
  0
LINE
  5
283
330
2
100
AcDbEntity
  8
0
  6
Continuous
 62
     7
100
AcDbLine
 10
24010.80928196405
 20
-5671.293437648878
 30
0.0
 11
24012.65403598853
 21
-5671.283803964819
 31
0.0
  0
SPLINE
  5
284
330
2
100
AcDbEntity
  8
0
  6
Continuous
 62
     7
100
AcDbSpline
210
0.0
220
0.0
230
1.0
 70
     8
 71
     3
 72
     8
 73
     4
 74
     2
 42
0.0000000001
 43
0.0000000001
 44
0.0000000001
 12
1.0
 22
0.0
 32
0.0
 13
0.999983565303199
 23
0.0057331599927778
 33
0.0
 40
0.0
 40
0.0
 40
0.0
 40
0.0
 40
10.03755327627842
 40
10.03755327627842
 40
10.03755327627842
 40
10.03755327627842
 10
24002.61652447355
 20
-5671.312904229199
 30
0.0
 10
24005.96237556565
 20
-5671.312904229199
 30
0.0
 10
24009.30823946285
 20
-5671.302986266982
 30
0.0
 10
24012.65403556689
 20
-5671.283803967359
 30
0.0
 11
24002.61652447355
 21
-5671.312904229199
 31
0.0
 11
24012.65403556689
 21
-5671.283803967359
 31
0.0
  0
LINE
  5
285
330
2
100
AcDbEntity
  8
0
  6
Continuous
 62
     7
100
AcDbLine
 10
24006.0233029051
 20
-5671.309502574838
 30
0.0
 11
24005.91371801885
 21
-5671.309717136259
 31
0.0
  0
LINE
  5
286
330
2
100
AcDbEntity
  8
0
  6
Continuous
 62
     7
100
AcDbLine
 10
24005.80183789209
 20
-5671.309929028137
 30
0.0
 11
24003.40388430853
 21
-5671.312721496518
 31
0.0
  0
LINE
  5
287
330
2
100
AcDbEntity
  8
0
  6
Continuous
 62
     7
100
AcDbLine
 10
24003.40388430853
 20
-5671.312721496518
 30
0.0
 11
24002.61923316257
 21
-5671.312904226659
 31
0.0
  0
LINE
  5
288
330
2
100
AcDbEntity
  8
0
  6
Continuous
 62
     7
100
AcDbLine
 10
24016.66852336975
 20
-5671.256385249018
 30
0.0
 11
24013.58874428929
 21
-5671.278204600859
 31
0.0
  0
LINE
  5
289
330
2
100
AcDbEntity
  8
0
  6
Continuous
 62
     7
100
AcDbLine
 10
24016.56165882097
 20
-5671.257228130238
 30
0.0
 11
24013.58874428929
 21
-5671.278204600859
 31
0.0
  0
LINE
  5
28A
330
2
100
AcDbEntity
  8
0
  6
Continuous
 62
     7
100
AcDbLine
 10
24005.91413904417
 20
-5671.309716323459
 30
0.0
 11
24005.80183789209
 21
-5671.309929028137
 31
0.0
  0
LINE
  5
28B
330
2
100
AcDbEntity
  8
0
  6
Continuous
 62
     7
100
AcDbLine
 10
24005.80183789209
 20
-5671.309929028137
 30
0.0
 11
24002.61652448625
 21
-5671.312904229199
 31
0.0
  0
LINE
  5
28C
330
2
100
AcDbEntity
  8
0
  6
Continuous
 62
     7
100
AcDbLine
 10
24358.61633162669
 20
-5656.089834296938
 30
0.0
 11
24358.7921979501
 21
-5656.011127464259
 31
0.0
  0
SPLINE
  5
28D
330
2
100
AcDbEntity
  8
0
  6
Continuous
 62
     7
100
AcDbSpline
210
0.0
220
0.0
230
1.0
 70
     8
 71
     3
 72
    10
 73
     6
 74
     4
 42
0.0000000001
 43
0.0000000001
 44
0.0000000001
 12
0.8640969837528633
 22
0.5033253447514876
 32
0.0
 13
0.7461389967173533
 23
0.665790205378257
 33
0.0
 40
0.0
 40
0.0
 40
0.0
 40
0.0
 40
8.868966283384159
 40
26.9973616419626
 40
40.19891086460222
 40
40.19891086460222
 40
40.19891086460222
 40
40.19891086460222
 10
24379.39749738204
 20
-5645.456692540658
 30
0.0
 10
24381.95204638686
 20
-5643.968700703268
 30
0.0
 10
24389.63144215924
 20
-5639.272058397741
 30
0.0
 10
24400.56903034138
 20
-5631.493950392268
 30
0.0
 10
24408.57900645897
 20
-5624.78133499253
 30
0.0
 10
24411.86240335633
 20
-5621.851514269779
 30
0.0
 11
24379.39749738204
 21
-5645.456692540658
 31
0.0
 11
24386.96157791298
 21
-5640.826006991279
 31
0.0
 11
24401.73730458194
 21
-5630.322835104598
 31
0.0
 11
24411.86240335633
 21
-5621.851514269779
 31
0.0
  0
SPLINE
  5
28E
330
2
100
AcDbEntity
  8
0
  6
Continuous
 62
     7
100
AcDbSpline
210
0.0
220
0.0
230
1.0
 70
     8
 71
     3
 72
     9
 73
     5
 74
     3
 42
0.0000000001
 43
0.0000000001
 44
0.0000000001
 12
0.9053164135539187
 22
0.4247377912899558
 32
0.0
 13
0.8640969837597099
 23
0.5033253447397334
 33
0.0
 40
0.0
 40
0.0
 40
0.0
 40
0.0
 40
9.918384150478049
 40
19.17553725639294
 40
19.17553725639294
 40
19.17553725639294
 40
19.17553725639294
 10
24362.41442611837
 20
-5654.350262241418
 30
0.0
 10
24365.40751810749
 20
-5652.946024715672
 30
0.0
 10
24371.13533298874
 20
-5650.103656933165
 30
0.0
 10
24376.73113802302
 20
-5647.009812466773
 30
0.0
 10
24379.39749738204
 20
-5645.456692540658
 30
0.0
 11
24362.41442611837
 21
-5654.350262241418
 31
0.0
 11
24371.29752777047
 21
-5649.938363648419
 31
0.0
 11
24379.39749738204
 21
-5645.456692540658
 31
0.0
  0
LINE
  5
28F
330
2
100
AcDbEntity
  8
0
  6
Continuous
 62
     7
100
AcDbLine
 10
24271.30478858693
 20
-5677.830965274838
 30
0.0
 11
24271.98658362923
 21
-5677.774197143518
 31
0.0
  0
LINE
  5
290
330
2
100
AcDbEntity
  8
0
  6
Continuous
 62
     7
100
AcDbLine
 10
23988.61652447259
 20
-5616.280918954299
 30
0.0
 11
23988.70596303133
 21
-5616.352571419579
 31
0.0
  0
SPLINE
  5
291
330
2
100
AcDbEntity
  8
0
  6
Continuous
 62
     7
100
AcDbSpline
210
0.0
220
0.0
230
1.0
 70
     8
 71
     3
 72
     8
 73
     4
 74
     2
 42
0.0000000001
 43
0.0000000001
 44
0.0000000001
 12
0.9347086667902376
 22
-0.3554148396271835
 32
0.0
 13
0.9678758797621977
 23
-0.2514284816295715
 33
0.0
 40
0.0
 40
0.0
 40
0.0
 40
0.0
 40
0.6271640287204329
 40
0.6271640287204329
 40
0.6271640287204329
 40
0.6271640287204329
 10
23991.61652447461
 20
-5618.920994580919
 30
0.0
 10
23991.81192969233
 20
-5618.995295715148
 30
0.0
 10
23992.01183898693
 20
-5619.058550727373
 30
0.0
 10
23992.21417796561
 20
-5619.111113027198
 30
0.0
 11
23991.61652447461
 21
-5618.920994580919
 31
0.0
 11
23992.21417796561
 21
-5619.111113027198
 31
0.0
  0
LINE
  5
292
330
2
100
AcDbEntity
  8
0
  6
Continuous
 62
     7
100
AcDbLine
 10
23992.21417796561
 20
-5619.111113027198
 30
0.0
 11
23993.27740594385
 21
-5619.312293539213
 31
0.0
  0
SPLINE
  5
293
330
2
100
AcDbEntity
  8
0
  6
Continuous
 62
     7
100
AcDbSpline
210
0.0
220
0.0
230
1.0
 70
     8
 71
     3
 72
     9
 73
     5
 74
     3
 42
0.0000000001
 43
0.0000000001
 44
0.0000000001
 12
-0.9347086668938104
 22
0.3554148393547968
 32
0.0
 13
-0.7126396838590377
 23
0.7015302423910825
 33
0.0
 40
0.0
 40
0.0
 40
0.0
 40
0.0
 40
0.8230084041057683
 40
1.800013715399884
 40
1.800013715399884
 40
1.800013715399884
 40
1.800013715399884
 10
23991.61652447461
 20
-5618.920994580919
 30
0.0
 10
23991.36010011186
 20
-5618.823491447674
 30
0.0
 10
23990.81796888376
 20
-5618.557387411045
 30
0.0
 10
23990.34233459673
 20
-5618.181820769756
 30
0.0
 10
23990.11025034468
 20
-5617.953354512138
 30
0.0
 11
23991.61652447461
 21
-5618.920994580919
 31
0.0
 11
23990.87825133851
 21
-5618.557269946418
 31
0.0
 11
23990.11025034468
 21
-5617.953354512138
 31
0.0
  0
SPLINE
  5
294
330
2
100
AcDbEntity
  8
0
  6
Continuous
 62
     7
100
AcDbSpline
210
0.0
220
0.0
230
1.0
 70
     8
 71
     3
 72
     8
 73
     4
 74
     2
 42
0.0000000001
 43
0.0000000001
 44
0.0000000001
 12
-0.7126396839183907
 22
0.7015302423307896
 32
0.0
 13
-0.5611485372600502
 23
0.8277151195495379
 33
0.0
 40
0.0
 40
0.0
 40
0.0
 40
0.0
 40
0.9179845506275329
 40
0.9179845506275329
 40
0.9179845506275329
 40
0.9179845506275329
 10
23990.11025034468
 20
-5617.953354512138
 30
0.0
 10
23989.89218627134
 20
-5617.738689870719
 30
0.0
 10
23989.69541285406
 20
-5617.500472905041
 30
0.0
 10
23989.52370429145
 20
-5617.247196341018
 30
0.0
 11
23990.11025034468
 21
-5617.953354512138
 31
0.0
 11
23989.52370429145
 21
-5617.247196341018
 31
0.0
  0
LINE
  5
295
330
2
100
AcDbEntity
  8
0
  6
Continuous
 62
     7
100
AcDbLine
 10
23989.52370429145
 20
-5617.247196341018
 30
0.0
 11
23989.41446252111
 21
-5617.078678321438
 31
0.0
  0
SPLINE
  5
296
330
2
100
AcDbEntity
  8
0
  6
Continuous
 62
     7
100
AcDbSpline
210
0.0
220
0.0
230
1.0
 70
     8
 71
     3
 72
     8
 73
     4
 74
     2
 42
0.0000000001
 43
0.0000000001
 44
0.0000000001
 12
-0.5266436998555009
 22
0.8500861211680314
 32
0.0
 13
-0.3936284449630766
 23
0.9192696271040125
 33
0.0
 40
0.0
 40
0.0
 40
0.0
 40
0.0
 40
0.7702043604560948
 40
0.7702043604560948
 40
0.7702043604560948
 40
0.7702043604560948
 10
23989.41446252111
 20
-5617.078678321438
 30
0.0
 10
23989.2792547631
 20
-5616.860431642343
 30
0.0
 10
23989.16077148776
 20
-5616.631043778642
 30
0.0
 10
23989.05971337285
 20
-5616.395035286899
 30
0.0
 11
23989.41446252111
 21
-5617.078678321438
 31
0.0
 11
23989.05971337285
 21
-5616.395035286899
 31
0.0
  0
SPLINE
  5
297
330
2
100
AcDbEntity
  8
0
  6
Continuous
 62
     7
100
AcDbSpline
210
0.0
220
0.0
230
1.0
 70
     8
 71
     3
 72
    10
 73
     6
 74
     4
 42
0.0000000001
 43
0.0000000001
 44
0.0000000001
 12
-0.9963842974024553
 22
0.0849607667680524
 32
0.0
 13
-0.9789531703953421
 23
0.2040850072222553
 33
0.0
 40
0.0
 40
0.0
 40
0.0
 40
0.0
 40
0.1462294662149084
 40
0.2650683287873413
 40
0.3552990254829544
 40
0.3552990254829544
 40
0.3552990254829544
 40
0.3552990254829544
 10
23989.05971337285
 20
-5616.395035286899
 30
0.0
 10
23989.0111464582
 20
-5616.390894031042
 30
0.0
 10
23988.92316290256
 20
-5616.382653244684
 30
0.0
 10
23988.80557998797
 20
-5616.368451923384
 30
0.0
 10
23988.73672162865
 20
-5616.357368183027
 30
0.0
 10
23988.70727775312
 20
-5616.351229938898
 30
0.0
 11
23989.05971337285
 21
-5616.395035286899
 31
0.0
 11
23988.91415082933
 21
-5616.381085279239
 31
0.0
 11
23988.7962194142
 21
-5616.366427292298
 31
0.0
 11
23988.70727775312
 21
-5616.351229938898
 31
0.0
  0
LINE
  5
298
330
2
100
AcDbEntity
  8
0
  6
Continuous
 62
     7
100
AcDbLine
 10
24212.72355070519
 20
-5663.178009297599
 30
0.0
 11
24212.72269424513
 21
-5663.148733486199
 31
0.0
  0
SPLINE
  5
299
330
2
100
AcDbEntity
  8
0
  6
Continuous
 62
     7
100
AcDbSpline
210
0.0
220
0.0
230
1.0
 70
     8
 71
     3
 72
    19
 73
    15
 74
    13
 42
0.0000000001
 43
0.0000000001
 44
0.0000000001
 12
-0.9999427706353978
 22
0.0106983855793367
 32
0.0
 13
-0.9998275388393578
 23
0.0185712837044908
 33
0.0
 40
0.0
 40
0.0
 40
0.0
 40
0.0
 40
1.746219962610659
 40
3.64012288255923
 40
5.685372952556831
 40
7.886454083072997
 40
10.28788104688383
 40
12.85894372335414
 40
15.43252555421677
 40
17.79717214806763
 40
19.84235106971385
 40
21.61209067318107
 40
23.16541901191103
 40
24.53143611649491
 40
24.53143611649491
 40
24.53143611649491
 40
24.53143611649491
 10
24213.48456967337
 20
-5678.725655621599
 30
0.0
 10
24212.90252966419
 20
-5678.719428376776
 30
0.0
 10
24211.68922281468
 20
-5678.706633998054
 30
0.0
 10
24209.79420122784
 20
-5678.686901868013
 30
0.0
 10
24207.74756727818
 20
-5678.665609058908
 30
0.0
 10
24205.53177269639
 20
-5678.642088093069
 30
0.0
 10
24203.14072479634
 20
-5678.615993790046
 30
0.0
 10
24200.62552829006
 20
-5678.58755113589
 30
0.0
 10
24198.12261695729
 20
-5678.557023088934
 30
0.0
 10
24195.79501872768
 20
-5678.526159808916
 30
0.0
 10
24193.73537230664
 20
-5678.496814802246
 30
0.0
 10
24191.94617277415
 20
-5678.468964231943
 30
0.0
 10
24190.38337114232
 20
-5678.442316796956
 30
0.0
 10
24189.41041595717
 20
-5678.424664876277
 30
0.0
 10
24188.95515545061
 20
-5678.416208645878
 30
0.0
 11
24213.48456967337
 21
-5678.725655621599
 31
0.0
 11
24211.73844734648
 21
-5678.707190050198
 31
0.0
 11
24209.84464751457
 21
-5678.687429815399
 31
0.0
 11
24207.79950887943
 21
-5678.666080063838
 31
0.0
 11
24205.59855200627
 21
-5678.642692340739
 31
0.0
 11
24203.19726834301
 21
-5678.616458181878
 31
0.0
 11
24200.62637237483
 21
-5678.587180081938
 31
0.0
 11
24198.05298309947
 21
-5678.555698697099
 31
0.0
 11
24195.68854457208
 21
-5678.524330497198
 31
0.0
 11
24193.64357561909
 21
-5678.495025158298
 31
0.0
 11
24191.87405202835
 21
-5678.467375096758
 31
0.0
 11
24190.32094844673
 21
-5678.440951761238
 31
0.0
 11
24188.95515545061
 21
-5678.416208645878
 31
0.0
  0
LINE
  5
29A
330
2
100
AcDbEntity
  8
0
  6
Continuous
 62
     7
100
AcDbLine
 10
24188.95515545061
 20
-5678.416208645878
 30
0.0
 11
24187.05728635837
 21
-5678.304786216958
 31
0.0
  0
SPLINE
  5
29B
330
2
100
AcDbEntity
  8
0
  6
Continuous
 62
     7
100
AcDbSpline
210
0.0
220
0.0
230
1.0
 70
     8
 71
     3
 72
    12
 73
     8
 74
     6
 42
0.0000000001
 43
0.0000000001
 44
0.0000000001
 12
-0.9980010359303259
 22
0.0631975654752337
 32
0.0
 13
-0.9962328371051734
 23
0.0867187077473908
 33
0.0
 40
0.0
 40
0.0
 40
0.0
 40
0.0
 40
1.239109488533108
 40
2.354534266970925
 40
3.365036599060577
 40
4.284233684376956
 40
5.125560273490066
 40
5.125560273490066
 40
5.125560273490066
 40
5.125560273490066
 10
24187.05728466674
 20
-5678.304785736898
 30
0.0
 10
24186.64507381567
 20
-5678.278682835887
 30
0.0
 10
24185.86192876971
 20
-5678.22698825499
 30
0.0
 10
24184.74307463045
 20
-5678.147378123822
 30
0.0
 10
24183.73092749731
 20
-5678.070734202603
 30
0.0
 10
24182.81021030385
 20
-5677.996832157567
 30
0.0
 10
24182.22546492195
 20
-5677.947253151766
 30
0.0
 10
24181.94607919701
 20
-5677.922933566899
 30
0.0
 11
24187.05728466674
 21
-5678.304785736898
 31
0.0
 11
24185.82086647155
 21
-5678.223162387318
 31
0.0
 11
24184.70825353296
 21
-5678.144011359439
 31
0.0
 11
24183.70064114381
 21
-5678.067642279259
 31
0.0
 11
24182.78439560268
 21
-5677.994039358138
 31
0.0
 11
24181.94607919701
 21
-5677.922933566899
 31
0.0
  0
SPLINE
  5
29C
330
2
100
AcDbEntity
  8
0
  6
Continuous
 62
     7
100
AcDbSpline
210
0.0
220
0.0
230
1.0
 70
     8
 71
     3
 72
    28
 73
    24
 74
    22
 42
0.0000000001
 43
0.0000000001
 44
0.0000000001
 12
-0.9999804061186036
 22
-0.0062599823380285
 32
0.0
 13
-0.9999903225553099
 23
-0.0043994085655958
 33
0.0
 40
0.0
 40
0.0
 40
0.0
 40
0.0
 40
0.1314091512008007
 40
0.4773174010680855
 40
0.9777210145186758
 40
1.587120339133448
 40
2.269998345558567
 40
2.999259705653797
 40
3.754776516659671
 40
4.519306376609431
 40
5.277751514024116
 40
6.022627377945203
 40
6.749126041734711
 40
7.452324249015681
 40
8.128881306164903
 40
8.776417445199507
 40
9.393088113788754
 40
9.977973937363362
 40
10.53105274833764
 40
11.052971408617
 40
11.54500050186018
 40
12.00858063367097
 40
12.44641801823033
 40
12.44641801823033
 40
12.44641801823033
 40
12.44641801823033
 10
24255.33052065238
 20
-5678.706528347178
 30
0.0
 10
24255.28671846024
 20
-5678.7068025535
 30
0.0
 10
24255.1276152683
 20
-5678.707718619495
 30
0.0
 10
24254.8017110632
 20
-5678.709104667957
 30
0.0
 10
24254.31647622642
 20
-5678.710598902882
 30
0.0
 10
24253.71891716877
 20
-5678.711852734451
 30
0.0
 10
24253.04507194746
 20
-5678.713016534158
 30
0.0
 10
24252.32252074548
 20
-5678.714132446835
 30
0.0
 10
24251.57275223869
 20
-5678.715251799443
 30
0.0
 10
24250.81325592236
 20
-5678.716457336876
 30
0.0
 10
24250.05730687096
 20
-5678.717828984251
 30
0.0
 10
24249.31403525676
 20
-5678.719378992322
 30
0.0
 10
24248.58917964863
 20
-5678.721072101978
 30
0.0
 10
24247.88709733004
 20
-5678.722881135796
 30
0.0
 10
24247.21133617279
 20
-5678.724773180563
 30
0.0
 10
24246.56441777506
 20
-5678.726708194863
 30
0.0
 10
24245.94805664174
 20
-5678.728656701761
 30
0.0
 10
24245.36318142906
 20
-5678.73059861104
 30
0.0
 10
24244.80989028588
 20
-5678.732506525449
 30
0.0
 10
24244.28755135002
 20
-5678.73434976647
 30
0.0
 10
24243.79504521259
 20
-5678.736113835748
 30
0.0
 10
24243.33056638222
 20
-5678.737885517219
 30
0.0
 10
24243.0300964783
 20
-5678.739138257819
 30
0.0
 10
24242.88415209583
 20
-5678.739780332999
 30
0.0
 11
24255.33052065238
 21
-5678.706528347178
 31
0.0
 11
24255.19911370157
 21
-5678.707288807938
 31
0.0
 11
24254.85320888665
 21
-5678.708830346638
 31
0.0
 11
24254.35280777671
 21
-5678.710413231459
 31
0.0
 11
24253.74340995309
 21
-5678.711765789079
 31
0.0
 11
24253.06053300795
 21
-5678.712969721138
 31
0.0
 11
24252.33127254369
 21
-5678.714112784638
 31
0.0
 11
24251.57575660235
 21
-5678.715259124738
 31
0.0
 11
24250.81122773264
 21
-5678.716489620118
 31
0.0
 11
24250.05278385455
 21
-5678.717871745878
 31
0.0
 11
24249.30790960643
 21
-5678.719423241378
 31
0.0
 11
24248.58141292379
 21
-5678.721119885178
 31
0.0
 11
24247.878217048
 21
-5678.722930681658
 31
0.0
 11
24247.20166263529
 21
-5678.724822303479
 31
0.0
 11
24246.55412938883
 21
-5678.726757783478
 31
0.0
 11
24245.93746180073
 21
-5678.728706959159
 31
0.0
 11
24245.35257919351
 21
-5678.730646647938
 31
0.0
 11
24244.79950365755
 21
-5678.732549979159
 31
0.0
 11
24244.27758823961
 21
-5678.734389670678
 31
0.0
 11
24243.78556235804
 21
-5678.736167436999
 31
0.0
 11
24243.32198563977
 21
-5678.737946452998
 31
0.0
 11
24242.88415209583
 21
-5678.739780332999
 31
0.0
  0
LINE
  5
29D
330
2
100
AcDbEntity
  8
0
  6
Continuous
 62
     7
100
AcDbLine
 10
24242.88417034573
 20
-5678.739826449239
 30
0.0
 11
24240.09588295051
 21
-5678.753871280179
 31
0.0
  0
SPLINE
  5
29E
330
2
100
AcDbEntity
  8
0
  6
Continuous
 62
     7
100
AcDbSpline
210
0.0
220
0.0
230
1.0
 70
     8
 71
     3
 72
     8
 73
     4
 74
     2
 42
0.0000000001
 43
0.0000000001
 44
0.0000000001
 12
-0.9999731486261087
 22
-0.007328166672958
 32
0.0
 13
-0.9839303022752446
 23
0.1785529620716101
 33
0.0
 40
0.0
 40
0.0
 40
0.0
 40
0.0
 40
0.9260891059599263
 40
0.9260891059599263
 40
0.9260891059599263
 40
0.9260891059599263
 10
23996.59651318365
 20
-5671.308474916238
 30
0.0
 10
23996.28782510392
 20
-5671.310737094679
 30
0.0
 10
23995.97762878188
 20
-5671.283511365203
 30
0.0
 10
23995.67389307056
 20
-5671.228392714199
 30
0.0
 11
23996.59651318365
 21
-5671.308474916238
 31
0.0
 11
23995.67389307056
 21
-5671.228392714199
 31
0.0
  0
LINE
  5
2A3
330
2
100
AcDbEntity
  8
0
  6
Continuous
 62
     7
100
AcDbLine
 10
24311.59746923839
 20
-5646.066937647319
 30
0.0
 11
24311.68552351999
 21
-5646.041599991619
 31
0.0
  0
SPLINE
  5
2A4
330
2
100
AcDbEntity
  8
0
  6
Continuous
 62
     7
100
AcDbSpline
210
0.0
220
0.0
230
1.0
 70
     8
 71
     3
 72
    11
 73
     7
 74
     5
 42
0.0000000001
 43
0.0000000001
 44
0.0000000001
 12
-0.9999862326827191
 22
-0.0052473274171459
 32
0.0
 13
-0.9999432641367139
 23
0.0106521597629003
 33
0.0
 40
0.0
 40
0.0
 40
0.0
 40
0.0
 40
6.974879959587053
 40
14.034721021075
 40
20.62508637652969
 40
26.61162629889243
 40
26.61162629889243
 40
26.61162629889243
 40
26.61162629889243
 10
24240.09585026325
 20
-5678.753806957218
 30
0.0
 10
24237.77092228518
 20
-5678.7660067835
 30
0.0
 10
24233.09275624811
 20
-5678.792878605829
 30
0.0
 10
24226.21770988266
 20
-5678.805209298491
 30
0.0
 10
24219.67213641927
 20
-5678.78262308211
 30
0.0
 10
24215.47996978143
 20
-5678.746912173558
 30
0.0
 10
24213.48456969115
 20
-5678.725655646998
 30
0.0
 11
24240.09585026325
 21
-5678.753806957218
 31
0.0
 11
24233.12105486057
 21
-5678.788151409738
 31
0.0
 11
24226.06122230005
 21
-5678.799107270478
 31
0.0
 11
24219.47089712157
 21
-5678.776095093998
 31
0.0
 11
24213.48456969115
 21
-5678.725655646998
 31
0.0
  0
SPLINE
  5
2A5
330
2
100
AcDbEntity
  8
0
  6
Continuous
 62
     7
100
AcDbSpline
210
0.0
220
0.0
230
1.0
 70
     8
 71
     3
 72
    23
 73
    19
 74
    17
 42
0.0000000001
 43
0.0000000001
 44
0.0000000001
 12
-0.9962496732069675
 22
0.0865250751806107
 32
0.0
 13
-0.8152054955050541
 23
0.5791718226039308
 33
0.0
 40
0.0
 40
0.0
 40
0.0
 40
0.0
 40
2.198704154054186
 40
4.142956991499578
 40
6.005598264374786
 40
7.883258358260921
 40
9.761415453267247
 40
11.62088560263627
 40
13.44693753445959
 40
15.28974772536901
 40
17.24809211082331
 40
19.42183747844856
 40
21.88452902761777
 40
24.65740525738123
 40
27.70986402815338
 40
30.97963700036194
 40
34.41134857172277
 40
35.05508985718289
 40
35.05508985718289
 40
35.05508985718289
 40
35.05508985718289
 10
24181.94608988279
 20
-5677.922962487339
 30
0.0
 10
24181.21593711781
 20
-5677.859548139929
 30
0.0
 10
24179.84057513336
 20
-5677.734754696134
 30
0.0
 10
24177.84919171032
 20
-5677.529496101912
 30
0.0
 10
24175.96773702155
 20
-5677.303702417917
 30
0.0
 10
24174.11285893496
 20
-5677.044075427904
 30
0.0
 10
24172.2653915509
 20
-5676.742329709544
 30
0.0
 10
24170.44315913112
 20
-5676.396343369326
 30
0.0
 10
24168.64293531397
 20
-5676.001380542655
 30
0.0
 10
24166.82364062207
 20
-5675.543410284279
 30
0.0
 10
24164.90945280228
 20
-5674.991888531156
 30
0.0
 10
24162.82150009138
 20
-5674.302325658656
 30
0.0
 10
24160.51186368492
 20
-5673.424905306639
 30
0.0
 10
24157.9803400275
 20
-5672.315511505338
 30
0.0
 10
24155.27198997976
 20
-5670.949624386315
 30
0.0
 10
24152.45437094892
 20
-5669.323882390322
 30
0.0
 10
24150.4051623752
 20
-5667.981210262832
 30
0.0
 10
24149.29373265408
 20
-5667.200054397241
 30
0.0
 10
24149.11880550955
 20
-5667.075775459379
 30
0.0
 11
24181.94608988279
 21
-5677.922962487339
 31
0.0
 11
24179.75655625577
 21
-5677.722357270059
 31
0.0
 11
24177.82273721257
 21
-5677.521203090198
 31
0.0
 11
24175.97348392353
 21
-5677.298279820018
 31
0.0
 11
24174.11408684731
 21
-5677.037032923158
 31
0.0
 11
24172.26064381557
 21
-5676.733350520619
 31
0.0
 11
24170.43398416943
 21
-5676.385580807219
 31
0.0
 11
24168.65051242015
 21
-5675.993542317739
 31
0.0
 11
24166.86361249892
 21
-5675.543055834919
 31
0.0
 11
24164.9819552818
 21
-5675.000396780539
 31
0.0
 11
24162.91796203107
 21
-5674.318413801098
 31
0.0
 11
24160.61582619085
 21
-5673.443759446779
 31
0.0
 11
24158.07585041737
 21
-5672.331390058618
 31
0.0
 11
24155.34983510233
 21
-5670.957947286079
 31
0.0
 11
24152.51691985885
 21
-5669.325156266678
 31
0.0
 11
24149.64548386945
 21
-5667.445927789938
 31
0.0
 11
24149.11880550955
 21
-5667.075775459379
 31
0.0
  0
SPLINE
  5
2A6
330
2
100
AcDbEntity
  8
0
  6
Continuous
 62
     7
100
AcDbSpline
210
0.0
220
0.0
230
1.0
 70
     8
 71
     3
 72
    11
 73
     7
 74
     5
 42
0.0000000001
 43
0.0000000001
 44
0.0000000001
 12
0.0681168221425055
 22
0.9976773519235598
 32
0.0
 13
0.9480886697312904
 23
0.3180060916510122
 33
0.0
 40
0.0
 40
0.0
 40
0.0
 40
0.0
 40
2.984069814775425
 40
5.923279579876849
 40
8.796301475993576
 40
11.60441021011807
 40
11.60441021011807
 40
11.60441021011807
 40
11.60441021011807
 10
24003.41184391161
 20
-5628.634256241479
 30
0.0
 10
24003.47959902922
 20
-5627.641876617891
 30
0.0
 10
24003.86999389324
 20
-5625.676741106328
 30
0.0
 10
24005.25120774593
 20
-5623.044430605649
 30
0.0
 10
24007.29007970343
 20
-5620.961406451959
 30
0.0
 10
24008.99761195203
 20
-5620.058886827802
 30
0.0
 10
24009.88505731009
 20
-5619.761221599979
 30
0.0
 11
24003.41184391161
 21
-5628.634256241479
 31
0.0
 11
24004.00992472713
 21
-5625.710735761379
 31
0.0
 11
24005.37975972685
 21
-5623.110253860499
 31
0.0
 11
24007.39848299699
 21
-5621.065990870039
 31
0.0
 11
24009.88505731009
 21
-5619.761221599979
 31
0.0
  0
SPLINE
  5
2A7
330
2
100
AcDbEntity
  8
0
  6
Continuous
 62
     7
100
AcDbSpline
210
0.0
220
0.0
230
1.0
 70
     8
 71
     3
 72
     8
 73
     4
 74
     2
 42
0.0000000001
 43
0.0000000001
 44
0.0000000001
 12
0.9480886695916124
 22
0.3180060920674422
 32
0.0
 13
0.9876246798313985
 23
0.1568358753217113
 33
0.0
 40
0.0
 40
0.0
 40
0.0
 40
0.0
 40
1.437073741064389
 40
1.437073741064389
 40
1.437073741064389
 40
1.437073741064389
 10
24009.88505731009
 20
-5619.761221599979
 30
0.0
 10
24010.33921508719
 20
-5619.608888865176
 30
0.0
 10
24010.80768797511
 20
-5619.494112167199
 30
0.0
 10
24011.28078447291
 20
-5619.418983927839
 30
0.0
 11
24009.88505731009
 21
-5619.761221599979
 31
0.0
 11
24011.28078447291
 21
-5619.418983927839
 31
0.0
  0
SPLINE
  5
2A8
330
2
100
AcDbEntity
  8
0
  6
Continuous
 62
     7
100
AcDbSpline
210
0.0
220
0.0
230
1.0
 70
     8
 71
     3
 72
    24
 73
    20
 74
    18
 42
0.0000000001
 43
0.0000000001
 44
0.0000000001
 12
-0.996189264857702
 22
0.0872178226182671
 32
0.0
 13
-0.7690693643079666
 23
0.6391653251569114
 33
0.0
 40
0.0
 40
0.0
 40
0.0
 40
0.0
 40
2.24927224065181
 40
4.263426040468399
 40
6.214712409233244
 40
8.19753761102233
 40
10.19548267145978
 40
12.18841295990705
 40
14.1585618949035
 40
16.15838024713319
 40
18.29298359843954
 40
20.66898675119944
 40
23.36422348870662
 40
26.39627951661018
 40
29.72472097290986
 40
33.27711400190443
 40
36.99036448832462
 40
40.81300830546823
 40
43.09946892198593
 40
43.09946892198593
 40
43.09946892198593
 40
43.09946892198593
 10
24181.51293496551
 20
-5682.459444173819
 30
0.0
 10
24180.76603467889
 20
-5682.394051964717
 30
0.0
 10
24179.35077155711
 20
-5682.264627721405
 30
0.0
 10
24177.29017587467
 20
-5682.051003213535
 30
0.0
 10
24175.32154800752
 20
-5681.813835009972
 30
0.0
 10
24173.3632562026
 20
-5681.538879260241
 30
0.0
 10
24171.39799107035
 20
-5681.217134546865
 30
0.0
 10
24169.44570332919
 20
-5680.846012306031
 30
0.0
 10
24167.50398835327
 20
-5680.419931425571
 30
0.0
 10
24165.53030428147
 20
-5679.923345959459
 30
0.0
 10
24163.44439044157
 20
-5679.322957883371
 30
0.0
 10
24161.16266368903
 20
-5678.570445296113
 30
0.0
 10
24158.63620190154
 20
-5677.612164330009
 30
0.0
 10
24155.869441797
 20
-5676.401706578101
 30
0.0
 10
24152.91663429096
 20
-5674.914906253281
 30
0.0
 10
24149.85516734946
 20
-5673.150980552343
 30
0.0
 10
24146.76080271275
 20
-5671.126014179759
 30
0.0
 10
24144.12418738804
 20
-5669.181940037397
 30
0.0
 10
24142.53762372471
 20
-5667.904854860509
 30
0.0
 10
24141.9514747871
 20
-5667.417712746038
 30
0.0
 11
24181.51293496551
 21
-5682.459444173819
 31
0.0
 11
24179.27318227967
 21
-5682.252723302018
 31
0.0
 11
24177.26995415253
 21
-5682.043217693598
 31
0.0
 11
24175.33279717595
 21
-5681.808822000338
 31
0.0
 11
24173.36936756459
 21
-5681.532163470599
 31
0.0
 11
24171.39781905913
 21
-5681.208464605678
 31
0.0
 11
24169.44012233191
 21
-5680.835376601538
 31
0.0
 11
24167.51591825297
 21
-5680.412380752078
 31
0.0
 11
24165.57670317027
 21
-5679.923792679218
 31
0.0
 11
24163.52551855789
 21
-5679.332883927079
 31
0.0
 11
24161.26916744957
 21
-5678.588390369078
 31
0.0
 11
24158.74915128565
 21
-5677.632451247178
 31
0.0
 11
24155.97105270927
 21
-5676.417736442679
 31
0.0
 11
24152.99766805915
 21
-5674.921906823218
 31
0.0
 11
24149.91886908849
 21
-5673.149763169138
 31
0.0
 11
24146.81079108571
 21
-5671.117995391179
 31
0.0
 11
24143.73269996225
 21
-5668.851288354878
 31
0.0
 11
24141.9514747871
 21
-5667.417712746038
 31
0.0
  0
SPLINE
  5
2A9
330
2
100
AcDbEntity
  8
0
  6
Continuous
 62
     7
100
AcDbSpline
210
0.0
220
0.0
230
1.0
 70
     8
 71
     3
 72
    12
 73
     8
 74
     6
 42
0.0000000001
 43
0.0000000001
 44
0.0000000001
 12
-0.9979715727498199
 22
0.063661134008522
 32
0.0
 13
-0.9961881228116038
 23
0.0872308659196562
 33
0.0
 40
0.0
 40
0.0
 40
0.0
 40
0.0
 40
1.265738490551227
 40
2.405174559904217
 40
3.437949418854997
 40
4.379579647061491
 40
5.242761983683127
 40
5.242761983683127
 40
5.242761983683127
 40
5.242761983683127
 10
24186.74082288411
 20
-5682.852572107399
 30
0.0
 10
24186.31976587341
 20
-5682.825712658176
 30
0.0
 10
24185.51980191064
 20
-5682.772534496253
 30
0.0
 10
24184.3767430263
 20
-5682.690662239423
 30
0.0
 10
24183.34179391592
 20
-5682.611783458239
 30
0.0
 10
24182.39899758833
 20
-5682.535647860656
 30
0.0
 10
24181.79956562937
 20
-5682.484542888041
 30
0.0
 10
24181.51293496551
 20
-5682.459444173819
 30
0.0
 11
24186.74082288411
 21
-5682.852572107399
 31
0.0
 11
24185.47787247631
 21
-5682.768606674618
 31
0.0
 11
24184.34134707347
 21
-5682.687215244818
 31
0.0
 11
24183.31156374569
 21
-5682.608664578959
 31
0.0
 11
24182.37299349939
 21
-5682.532813544479
 31
0.0
 11
24181.51293496551
 21
-5682.459444173819
 31
0.0
  0
LINE
  5
2AA
330
2
100
AcDbEntity
  8
0
  6
Continuous
 62
     7
100
AcDbLine
 10
24188.68457470653
 20
-5682.967524844219
 30
0.0
 11
24186.74082288411
 21
-5682.852572107399
 31
0.0
  0
LINE
  5
2AB
330
2
100
AcDbEntity
  8
0
  6
Continuous
 62
     7
100
AcDbLine
 10
24188.68457470653
 20
-5682.967524844219
 30
0.0
 11
24189.70123977505
 21
-5691.558526435358
 31
0.0
  0
SPLINE
  5
2AC
330
2
100
AcDbEntity
  8
0
  6
Continuous
 62
     7
100
AcDbSpline
210
0.0
220
0.0
230
1.0
 70
     8
 71
     3
 72
    10
 73
     6
 74
     4
 42
0.0000000001
 43
0.0000000001
 44
0.0000000001
 12
-0.0830719906365419
 22
-0.9965435486579011
 32
0.0
 13
-0.759246040472728
 23
-0.6508036954616078
 33
0.0
 40
0.0
 40
0.0
 40
0.0
 40
0.0
 40
6.386192838015821
 40
8.646145229638712
 40
11.23199641127914
 40
11.23199641127914
 40
11.23199641127914
 40
11.23199641127914
 10
24003.58055571287
 20
-5658.983392385859
 30
0.0
 10
24003.40371779566
 20
-5661.104765476929
 30
0.0
 10
24003.55032960503
 20
-5663.952243335421
 30
0.0
 10
24002.97383845598
 20
-5667.775588434967
 30
0.0
 10
24001.73242588739
 20
-5668.952255165397
 30
0.0
 10
24001.07799346375
 20
-5669.513215667039
 30
0.0
 11
24003.58055571287
 21
-5658.983392385859
 31
0.0
 11
24003.29821160131
 21
-5665.36334072162
 31
0.0
 11
24002.77464985707
 21
-5667.561810169299
 31
0.0
 11
24001.07799346375
 21
-5669.513215667039
 31
0.0
  0
SPLINE
  5
2AD
330
2
100
AcDbEntity
  8
0
  6
Continuous
 62
     7
100
AcDbSpline
210
0.0
220
0.0
230
1.0
 70
     8
 71
     3
 72
     9
 73
     5
 74
     3
 42
0.0000000001
 43
0.0000000001
 44
0.0000000001
 12
-0.7592460405926069
 22
-0.6508036953217534
 32
0.0
 13
-0.9990065143557311
 23
-0.044564383478429
 33
0.0
 40
0.0
 40
0.0
 40
0.0
 40
0.0
 40
2.440829950177287
 40
4.784318365211678
 40
4.784318365211678
 40
4.784318365211678
 40
4.784318365211678
 10
24001.07799346375
 20
-5669.513215667039
 30
0.0
 10
24000.46026330528
 20
-5670.042716050781
 30
0.0
 10
23999.08604394002
 20
-5670.910450606604
 30
0.0
 10
23997.49460989257
 20
-5671.271361335177
 30
0.0
 10
23996.71422316159
 20
-5671.306173373978
 30
0.0
 11
24001.07799346375
 21
-5669.513215667039
 31
0.0
 11
23999.00154826181
 21
-5670.796191180839
 31
0.0
 11
23996.71422316159
 21
-5671.306173373978
 31
0.0
  0
SPLINE
  5
2AE
330
2
100
AcDbEntity
  8
0
  6
Continuous
 62
     7
100
AcDbSpline
210
0.0
220
0.0
230
1.0
 70
     8
 71
     3
 72
    10
 73
     6
 74
     0
 42
0.0000000001
 43
0.0000000001
 40
0.0
 40
0.0
 40
0.0
 40
0.0
 40
5.843204230031319
 40
11.28631120609954
 40
19.19883575417103
 40
19.19883575417103
 40
19.19883575417103
 40
19.19883575417103
 10
24355.51456317695
 20
-5627.178081937678
 30
0.0
 10
24357.25420201627
 20
-5626.302109712562
 30
0.0
 10
24360.63144133921
 20
-5624.641609758959
 30
0.0
 10
24366.48752997915
 20
-5622.061452398209
 30
0.0
 10
24370.56646626723
 20
-5620.269598903041
 30
0.0
 10
24373.02404390248
 20
-5619.312904228899
 30
0.0
  0
LINE
  5
2AF
330
2
100
AcDbEntity
  8
0
  6
Continuous
 62
     7
100
AcDbLine
 10
24003.35999634035
 20
-5619.312904228898
 30
0.0
 11
24003.58055571287
 21
-5658.983392385859
 31
0.0
  0
SPLINE
  5
2B0
330
2
100
AcDbEntity
  8
0
  6
Continuous
 62
     7
100
AcDbSpline
210
0.0
220
0.0
230
1.0
 70
     8
 71
     3
 72
    10
 73
     6
 74
     4
 42
0.0000000001
 43
0.0000000001
 44
0.0000000001
 12
-0.9998761962875901
 22
0.0157350594997419
 32
0.0
 13
-0.9993911482974095
 23
0.0348902952808559
 33
0.0
 40
0.0
 40
0.0
 40
0.0
 40
0.0
 40
2.625309701260535
 40
4.261925167799089
 40
4.816737703503388
 40
4.816737703503388
 40
4.816737703503388
 40
4.816737703503388
 10
24184.34191741777
 20
-5703.119998991819
 30
0.0
 10
24183.46692252505
 20
-5703.106229190368
 30
0.0
 10
24182.04653502396
 20
-5703.077917995862
 30
0.0
 10
24180.44160408693
 20
-5703.031830045516
 30
0.0
 10
24179.71154013431
 20
-5703.007276133537
 30
0.0
 10
24179.52671522193
 20
-5703.000823609139
 30
0.0
 11
24184.34191741777
 21
-5703.119998991819
 31
0.0
 11
24181.71715044989
 21
-5703.066619296699
 31
0.0
 11
24180.08121402403
 21
-5703.019479124279
 31
0.0
 11
24179.52671522193
 21
-5703.000823609139
 31
0.0
  0
SPLINE
  5
2B1
330
2
100
AcDbEntity
  8
0
  6
Continuous
 62
     7
100
AcDbSpline
210
0.0
220
0.0
230
1.0
 70
     8
 71
     3
 72
    15
 73
    11
 74
     9
 42
0.0000000001
 43
0.0000000001
 44
0.0000000001
 12
0.112932869416984
 22
-0.9936026202689113
 32
0.0
 13
-0.9998629906938829
 23
0.0165529405449362
 33
0.0
 40
0.0
 40
0.0
 40
0.0
 40
0.0
 40
1.98555701034058
 40
3.932833385189244
 40
5.929635083797782
 40
7.961653168441255
 40
10.00293491282491
 40
12.03560393124023
 40
14.00499236068324
 40
15.80361452432665
 40
15.80361452432665
 40
15.80361452432665
 40
15.80361452432665
 10
24192.61165578555
 20
-5691.298423676419
 30
0.0
 10
24192.68640066908
 20
-5691.956041892474
 30
0.0
 10
24192.7134521057
 20
-5693.27620905062
 30
0.0
 10
24192.37261067024
 20
-5695.234520299202
 30
0.0
 10
24191.67358599881
 20
-5697.111275804305
 30
0.0
 10
24190.65415775937
 20
-5698.869039009352
 30
0.0
 10
24189.37136046446
 20
-5700.459065561598
 30
0.0
 10
24187.86693932867
 20
-5701.814284514816
 30
0.0
 10
24186.20063498457
 20
-5702.81987453561
 30
0.0
 10
24184.94137599633
 20
-5703.129923153731
 30
0.0
 10
24184.34191741777
 20
-5703.119998991819
 30
0.0
 11
24192.61165578555
 21
-5691.298423676419
 31
0.0
 11
24192.64919888801
 21
-5693.283625720738
 31
0.0
 11
24192.31826387805
 21
-5695.202575250879
 31
0.0
 11
24191.62725920215
 21
-5697.076002474299
 31
0.0
 11
24190.61298965081
 21
-5698.836784906499
 31
0.0
 11
24189.32981565125
 21
-5700.424328810398
 31
0.0
 11
24187.81162306915
 21
-5701.775933272538
 31
0.0
 11
24186.10326729867
 21
-5702.755734960379
 31
0.0
 11
24184.34191741777
 21
-5703.119998991819
 31
0.0
  0
LINE
  5
2B2
330
2
100
AcDbEntity
  8
0
  6
Continuous
 62
     7
100
AcDbLine
 10
24191.63127472117
 20
-5682.707436735999
 30
0.0
 11
24192.61165578555
 21
-5691.298423676419
 31
0.0
  0
SPLINE
  5
2B3
330
2
100
AcDbEntity
  8
0
  6
Continuous
 62
     7
100
AcDbSpline
210
0.0
220
0.0
230
1.0
 70
     8
 71
     3
 72
    19
 73
    15
 74
    13
 42
0.0000000001
 43
0.0000000001
 44
0.0000000001
 12
-0.9999246466299803
 22
0.0122760360829154
 32
0.0
 13
-0.999758815954053
 23
0.021961555549411
 33
0.0
 40
0.0
 40
0.0
 40
0.0
 40
0.0
 40
1.543215083941269
 40
3.218516400686407
 40
5.02953551862541
 40
6.98027368153015
 40
9.111274576988595
 40
11.39728494537897
 40
13.68928251892704
 40
15.7960082429286
 40
17.61988201275953
 40
19.2055364706592
 40
20.59824881614398
 40
21.82349295058534
 40
21.82349295058534
 40
21.82349295058534
 40
21.82349295058534
 10
24213.45231418543
 20
-5683.028348905958
 30
0.0
 10
24212.93794791961
 20
-5683.022034051273
 30
0.0
 10
24211.86518772732
 20
-5683.009046059232
 30
0.0
 10
24210.18879605254
 20
-5682.988973922138
 30
0.0
 10
24208.37657329628
 20
-5682.967257340401
 30
0.0
 10
24206.41246790932
 20
-5682.943195724028
 30
0.0
 10
24204.29005387039
 20
-5682.91640032487
 30
0.0
 10
24202.05390952351
 20
-5682.887084397542
 30
0.0
 10
24199.82588926412
 20
-5682.855425560088
 30
0.0
 10
24197.75193827868
 20
-5682.823317976824
 30
0.0
 10
24195.91344215988
 20
-5682.792647487432
 30
0.0
 10
24194.31296398364
 20
-5682.763272838528
 30
0.0
 10
24192.91204255125
 20
-5682.735123216712
 30
0.0
 10
24192.03959092954
 20
-5682.716406158371
 30
0.0
 10
24191.63127472117
 20
-5682.707436735999
 30
0.0
 11
24213.45231418543
 21
-5683.028348905958
 31
0.0
 11
24211.90921285203
 21
-5683.009612039699
 31
0.0
 11
24210.23403210791
 21
-5682.989512874918
 31
0.0
 11
24208.42314390343
 21
-5682.967737741939
 31
0.0
 11
24206.47255242744
 21
-5682.943815493619
 31
0.0
 11
24204.34172168783
 21
-5682.916886408539
 31
0.0
 11
24202.05591073241
 21
-5682.886692361739
 31
0.0
 11
24199.76414572997
 21
-5682.854041929198
 31
0.0
 11
24197.65767279789
 21
-5682.821406632518
 31
0.0
 11
24195.83405619367
 21
-5682.790779698598
 31
0.0
 11
24194.24867018487
 21
-5682.761603287559
 31
0.0
 11
24192.85623807007
 21
-5682.733666162839
 31
0.0
 11
24191.63127472117
 21
-5682.707436735999
 31
0.0
  0
SPLINE
  5
2B4
330
2
100
AcDbEntity
  8
0
  6
Continuous
 62
     7
100
AcDbSpline
210
0.0
220
0.0
230
1.0
 70
     8
 71
     3
 72
    11
 73
     7
 74
     5
 42
0.0000000001
 43
0.0000000001
 44
0.0000000001
 12
-0.9999820537008188
 22
-0.0059910162988436
 32
0.0
 13
-0.9999253636126885
 23
0.0122174958167653
 33
0.0
 40
0.0
 40
0.0
 40
0.0
 40
0.0
 40
6.169722091932927
 40
12.41936396523517
 40
18.25756889372674
 40
23.56584220837167
 40
23.56584220837167
 40
23.56584220837167
 40
23.56584220837167
 10
24237.01775551521
 20
-5683.057374992179
 30
0.0
 10
24234.96121839246
 20
-5683.069695960716
 30
0.0
 10
24230.82151535397
 20
-5683.096723538802
 30
0.0
 10
24224.73563884662
 20
-5683.109136075732
 30
0.0
 10
24218.93694219601
 20
-5683.086232869875
 30
0.0
 10
24215.2216065602
 20
-5683.049966841631
 30
0.0
 10
24213.45231418543
 20
-5683.028348905958
 30
0.0
 11
24237.01775551521
 21
-5683.057374992179
 31
0.0
 11
24230.84813037671
 21
-5683.091963170398
 31
0.0
 11
24224.59849818715
 21
-5683.102964977198
 31
0.0
 11
24218.76033996509
 21
-5683.079612006379
 31
0.0
 11
24213.45231418543
 21
-5683.028348905958
 31
0.0
  0
SPLINE
  5
2B5
330
2
100
AcDbEntity
  8
0
  6
Continuous
 62
     7
100
AcDbSpline
210
0.0
220
0.0
230
1.0
 70
     8
 71
     3
 72
    10
 73
     6
 74
     4
 42
0.0000000001
 43
0.0000000001
 44
0.0000000001
 12
0.9936483558812449
 22
0.1125297509750154
 32
0.0
 13
0.9988656990402297
 23
0.0476163341813805
 33
0.0
 40
0.0
 40
0.0
 40
0.0
 40
0.0
 40
1.049749546083524
 40
2.050707274747529
 40
2.958575725988668
 40
2.958575725988668
 40
2.958575725988668
 40
2.958575725988668
 10
24188.68457871465
 20
-5682.967523779958
 30
0.0
 10
24189.03227268484
 20
-5682.928147761622
 30
0.0
 10
24189.71170332874
 20
-5682.852583274107
 30
0.0
 10
24190.69420308722
 20
-5682.766901234102
 30
0.0
 10
24191.32899575111
 20
-5682.721846784268
 30
0.0
 10
24191.63127530283
 20
-5682.707436995078
 30
0.0
 11
24188.68457871465
 21
-5682.967523779958
 31
0.0
 11
24189.72828263181
 21
-5682.855023811919
 31
0.0
 11
24190.72536398791
 21
-5682.767017312798
 31
0.0
 11
24191.63127530283
 21
-5682.707436995078
 31
0.0
  0
SPLINE
  5
2B6
330
2
100
AcDbEntity
  8
0
  6
Continuous
 62
     7
100
AcDbSpline
210
0.0
220
0.0
230
1.0
 70
     8
 71
     3
 72
    15
 73
    11
 74
     9
 42
0.0000000001
 43
0.0000000001
 44
0.0000000001
 12
0.1879988274949928
 22
-0.9821692526548099
 32
0.0
 13
-0.9999053947109748
 23
0.0137550582655954
 33
0.0
 40
0.0
 40
0.0
 40
0.0
 40
0.0
 40
1.220920451657035
 40
2.467813627074328
 40
3.877881662451649
 40
5.478047566229856
 40
7.251384183679674
 40
9.181633273041352
 40
11.22240618388396
 40
13.23215122848257
 40
13.23215122848257
 40
13.23215122848257
 40
13.23215122848257
 10
24189.70123814183
 20
-5691.558526554739
 30
0.0
 10
24189.77774867962
 20
-5691.958243397257
 30
0.0
 10
24189.79443982744
 20
-5692.801735642647
 30
0.0
 10
24189.35140975962
 20
-5694.040041317503
 30
0.0
 10
24188.50465994939
 20
-5695.196607767063
 30
0.0
 10
24187.31190138082
 20
-5696.266914482536
 30
0.0
 10
24185.82526596634
 20
-5697.234106416829
 30
0.0
 10
24184.0903950798
 20
-5698.058275695188
 30
0.0
 10
24182.1820853191
 20
-5698.656977710552
 30
0.0
 10
24180.82842419349
 20
-5698.825499449121
 30
0.0
 10
24180.15857255613
 20
-5698.816284729058
 30
0.0
 11
24189.70123814183
 21
-5691.558526554739
 31
0.0
 11
24189.72117049211
 21
-5692.779284291018
 31
0.0
 11
24189.32051439731
 21
-5693.960054075779
 31
0.0
 11
24188.50915250975
 21
-5695.113303290739
 31
0.0
 11
24187.33158611711
 21
-5696.196755324999
 31
0.0
 11
24185.85081082111
 21
-5697.172474178739
 31
0.0
 11
24184.10776660337
 21
-5698.001725890819
 31
0.0
 11
24182.15663853205
 21
-5698.599934318479
 31
0.0
 11
24180.15857255613
 21
-5698.816284729058
 31
0.0
  0
SPLINE
  5
2B7
330
2
100
AcDbEntity
  8
0
  6
Continuous
 62
     7
100
AcDbSpline
210
0.0
220
0.0
230
1.0
 70
     8
 71
     3
 72
    11
 73
     7
 74
     5
 42
0.0000000001
 43
0.0000000001
 44
0.0000000001
 12
0.9930414011487233
 22
-0.117765765842967
 32
0.0
 13
0.0706824830957801
 23
-0.9974988654547006
 33
0.0
 40
0.0
 40
0.0
 40
0.0
 40
0.0
 40
1.050672703705239
 40
2.29555842864466
 40
3.767653306465309
 40
5.404241596620468
 40
5.404241596620468
 40
5.404241596620468
 40
5.404241596620468
 10
24188.95515606021
 20
-5678.416209169118
 30
0.0
 10
24189.30294322483
 20
-5678.457453594319
 30
0.0
 10
24190.03759393581
 20
-5678.790542324839
 30
0.0
 10
24190.85288559552
 20
-5679.780104118684
 30
0.0
 10
24191.41830669255
 20
-5681.132486385195
 30
0.0
 10
24191.59271592811
 20
-5682.163272007531
 30
0.0
 10
24191.63127530283
 20
-5682.707436995078
 30
0.0
 11
24188.95515606021
 21
-5678.416209169118
 31
0.0
 11
24189.92560065475
 21
-5678.818888221518
 31
0.0
 11
24190.75437069139
 21
-5679.747801938998
 31
0.0
 11
24191.34551700211
 21
-5681.095989377239
 31
0.0
 11
24191.63127530283
 21
-5682.707436995078
 31
0.0
  0
LINE
  5
2B8
330
2
100
AcDbEntity
  8
0
  6
Continuous
 62
     7
100
AcDbLine
 10
24239.48342585437
 20
-5683.043204017218
 30
0.0
 11
24237.01775551521
 21
-5683.057374992179
 31
0.0
  0
SPLINE
  5
2B9
330
2
100
AcDbEntity
  8
0
  6
Continuous
 62
     7
100
AcDbSpline
210
0.0
220
0.0
230
1.0
 70
     8
 71
     3
 72
    28
 73
    24
 74
    22
 42
0.0000000001
 43
0.0000000001
 44
0.0000000001
 12
-0.9999721949246868
 22
-0.0074571695370328
 32
0.0
 13
-0.9999873689906499
 23
-0.005026117702363
 33
0.0
 40
0.0
 40
0.0
 40
0.0
 40
0.0
 40
0.1179313713433191
 40
0.4273347323641915
 40
0.8738672467950719
 40
1.416488971867342
 40
2.023576860976843
 40
2.671149078269545
 40
3.341428126521168
 40
4.019179776295223
 40
4.691157190880093
 40
5.350870731705247
 40
5.994124477999213
 40
6.616591368612759
 40
7.215363924750374
 40
7.788354946232731
 40
8.333941330226432
 40
8.851334180845844
 40
9.34056784128743
 40
9.802237659772718
 40
10.23719529647461
 40
10.64663790046433
 40
11.03266422765627
 40
11.03266422765627
 40
11.03266422765627
 40
11.03266422765627
 10
24250.51603055062
 20
-5683.008791901638
 30
0.0
 10
24250.47672118653
 20
-5683.009085046382
 30
0.0
 10
24250.33427959891
 20
-5683.010063227162
 30
0.0
 10
24250.04299412785
 20
-5683.011549717334
 30
0.0
 10
24249.61014449459
 20
-5683.013159784861
 30
0.0
 10
24249.07806544772
 20
-5683.014519195905
 30
0.0
 10
24248.47897282675
 20
-5683.015776365189
 30
0.0
 10
24247.83732755303
 20
-5683.0169737607
 30
0.0
 10
24247.17212764476
 20
-5683.018162314714
 30
0.0
 10
24246.49879279501
 20
-5683.019429018571
 30
0.0
 10
24245.82898010288
 20
-5683.020855509766
 30
0.0
 10
24245.17066713705
 20
-5683.022455474278
 30
0.0
 10
24244.5288580925
 20
-5683.024194479804
 30
0.0
 10
24243.90736311187
 20
-5683.026045858873
 30
0.0
 10
24243.30928939925
 20
-5683.027976290538
 30
0.0
 10
24242.73684279941
 20
-5683.029946699688
 30
0.0
 10
24242.19152297325
 20
-5683.03192697628
 30
0.0
 10
24241.67412242602
 20
-5683.033897820383
 30
0.0
 10
24241.18469414185
 20
-5683.035833172354
 30
0.0
 10
24240.72274419379
 20
-5683.037696529619
 30
0.0
 10
24240.28739118897
 20
-5683.039486601495
 30
0.0
 10
24239.87725281534
 20
-5683.041258974754
 30
0.0
 10
24239.61209967147
 20
-5683.042557279299
 30
0.0
 10
24239.48342585437
 20
-5683.043204017218
 30
0.0
 11
24250.51603055062
 21
-5683.008791901638
 31
0.0
 11
24250.39810198789
 21
-5683.009605806539
 31
0.0
 11
24250.08870303849
 21
-5683.011258053679
 31
0.0
 11
24249.64217377661
 21
-5683.012962380978
 31
0.0
 11
24249.09955402366
 21
-5683.014425329538
 31
0.0
 11
24248.49246752637
 21
-5683.015725298998
 31
0.0
 11
24247.84489646947
 21
-5683.016951217298
 31
0.0
 11
24247.17461852631
 21
-5683.018168359899
 31
0.0
 11
24246.49686810889
 21
-5683.019460823659
 31
0.0
 11
24245.82489223161
 21
-5683.020898204579
 31
0.0
 11
24245.16518063511
 21
-5683.022499887939
 31
0.0
 11
24244.52192924953
 21
-5683.024242607338
 31
0.0
 11
24243.89946511727
 21
-5683.026095702438
 31
0.0
 11
24243.30069567219
 21
-5683.028025889079
 31
0.0
 11
24242.72770803991
 21
-5683.029996664918
 31
0.0
 11
24242.1821252525
 21
-5683.031977692198
 31
0.0
 11
24241.66473614758
 21
-5683.033946443658
 31
0.0
 11
24241.17550629291
 21
-5683.035876162938
 31
0.0
 11
24240.71384023124
 21
-5683.037738633178
 31
0.0
 11
24240.27888631323
 21
-5683.039537227499
 31
0.0
 11
24239.86944764773
 21
-5683.041333098938
 31
0.0
 11
24239.48342585437
 21
-5683.043204017218
 31
0.0
  0
ENDSEC
  0
SECTION
  2
OBJECTS
  0
DICTIONARY
  5
9
330
0
100
AcDbDictionary
281
     1
  3
ACAD_COLOR
350
35
  3
ACAD_GROUP
350
30
  3
ACAD_LAYOUT
350
F
  3
ACAD_MATERIAL
350
B
  3
ACAD_MLEADERSTYLE
350
319
  3
ACAD_MLINESTYLE
350
31
  3
ACAD_PLOTSETTINGS
350
32
  3
ACAD_PLOTSTYLENAME
350
8
  3
ACAD_SCALELIST
350
2F7
  3
ACAD_TABLESTYLE
350
36
  3
ACAD_VISUALSTYLE
350
28
  3
ACDB_RECOMPOSE_DATA
350
326
  3
ACDBHEADERROUNDTRIPXREC
350
320
  3
AcDbVariableDictionary
350
19F
  0
DICTIONARY
  5
29
330
25
100
AcDbDictionary
280
     1
281
     1
  0
DICTIONARY
  5
18
330
17
100
AcDbDictionary
280
     1
281
     1
  3
ACAD_LAYERFILTERS
360
19
  3
ACAD_LAYERSTATES
360
1A
  3
ACLYDICTIONARY
360
1B
  0
DICTIONARY
  5
3
330
2
100
AcDbDictionary
280
     1
281
     1
  3
ACAD_SORTENTS
360
19D
  0
DICTIONARY
  5
35
102
{ACAD_REACTORS
330
9
102
}
330
9
100
AcDbDictionary
281
     1
  0
DICTIONARY
  5
30
102
{ACAD_REACTORS
330
9
102
}
330
9
100
AcDbDictionary
281
     1
  0
DICTIONARY
  5
F
102
{ACAD_REACTORS
330
9
102
}
330
9
100
AcDbDictionary
281
     1
  3
Model
350
E
  3
布局2
350
14
  0
DICTIONARY
  5
B
102
{ACAD_REACTORS
330
9
102
}
330
9
100
AcDbDictionary
281
     1
  3
ByBlock
350
34
  3
ByLayer
350
33
  3
Global
350
A
  0
DICTIONARY
  5
319
102
{ACAD_REACTORS
330
9
102
}
330
9
100
AcDbDictionary
281
     1
  3
Standard
350
31A
  0
DICTIONARY
  5
31
102
{ACAD_REACTORS
330
9
102
}
330
9
100
AcDbDictionary
281
     1
  3
Standard
350
39
  0
DICTIONARY
  5
32
102
{ACAD_REACTORS
330
9
102
}
330
9
100
AcDbDictionary
281
     1
  0
ACDBDICTIONARYWDFLT
  5
8
102
{ACAD_REACTORS
330
9
102
}
330
9
100
AcDbDictionary
281
     1
  3
Normal
350
7
100
AcDbDictionaryWithDefault
340
7
  0
DICTIONARY
  5
2F7
102
{ACAD_REACTORS
330
9
102
}
330
9
100
AcDbDictionary
281
     1
  3
A0
350
2F8
  3
A1
350
2F9
  3
A2
350
2FA
  3
A3
350
2FB
  3
A4
350
2FC
  3
A5
350
2FD
  3
A6
350
2FE
  3
A7
350
2FF
  3
A8
350
300
  3
A9
350
301
  3
B0
350
302
  3
B1
350
303
  3
B2
350
304
  3
B3
350
305
  3
B4
350
306
  3
B5
350
307
  3
B6
350
308
  3
B7
350
309
  3
B8
350
30A
  3
B9
350
30B
  3
C0
350
30C
  3
C1
350
30D
  3
C2
350
30E
  3
C3
350
30F
  3
C4
350
310
  3
C5
350
311
  3
C6
350
312
  3
C7
350
313
  3
C8
350
314
  3
C9
350
315
  3
D0
350
316
  3
D1
350
317
  3
D2
350
318
  0
DICTIONARY
  5
36
102
{ACAD_REACTORS
330
9
102
}
330
9
100
AcDbDictionary
281
     1
  3
Standard
350
3A
  0
DICTIONARY
  5
28
102
{ACAD_REACTORS
330
9
102
}
330
9
100
AcDbDictionary
281
     1
  3
2dWireframe
350
27
  3
3D Hidden
350
1A7
  3
3dWireframe
350
3C
  3
Basic
350
1A6
  3
Brighten
350
1AA
  3
ColorChange
350
1AE
  3
Conceptual
350
1A8
  3
Dim
350
1A9
  3
Facepattern
350
1AD
  3
Flat
350
1A2
  3
FlatWithEdges
350
1A3
  3
Gouraud
350
1A4
  3
GouraudWithEdges
350
1A5
  3
Linepattern
350
1AC
  3
Realistic
350
3B
  3
Thicken
350
1AB
  0
XRECORD
  5
326
102
{ACAD_REACTORS
330
9
102
}
330
9
100
AcDbXrecord
280
     1
 90
        1
330
3A
  0
DICTIONARY
  5
320
102
{ACAD_REACTORS
330
9
102
}
330
9
100
AcDbDictionary
281
     1
  0
DICTIONARY
  5
19F
102
{ACAD_REACTORS
330
9
102
}
330
9
100
AcDbDictionary
281
     1
  3
CMLEADERSTYLE
350
31E
  3
CTABLESTYLE
350
1A0
  0
DICTIONARY
  5
19
102
{ACAD_REACTORS
330
18
102
}
330
18
100
AcDbDictionary
281
     1
  0
DICTIONARY
  5
1A
102
{ACAD_REACTORS
330
18
102
}
330
18
100
AcDbDictionary
281
     1
  0
DICTIONARY
  5
1B
102
{ACAD_REACTORS
330
18
102
}
330
18
100
AcDbDictionary
281
     1
1001
ACAD
1000
<All
  0
SORTENTSTABLE
  5
19D
102
{ACAD_REACTORS
330
3
102
}
330
3
100
AcDbSortentsTable
330
2
  0
LAYOUT
  5
E
102
{ACAD_REACTORS
330
F
102
}
330
F
100
AcDbPlotSettings
  1

  2
none_device
  4
ISO_A4_(210.00_x_297.00_MM)
  6

 40
7.5
 41
20.0
 42
7.5
 43
20.0
 44
210.0
 45
297.0
 46
11.54999923706054
 47
-13.65000009536743
 48
0.0
 49
0.0
140
0.0
141
0.0
142
1.0
143
8.704084754739808
 70
 11952
 72
     1
 73
     0
 74
     0
  7
acad.ctb
 75
     0
147
0.1148885871608098
 76
     0
 77
     2
 78
   300
148
0.0
149
0.0
100
AcDbLayout
  1
Model
 70
     1
 71
     0
 10
0.0
 20
0.0
 11
12.0
 21
9.0
 12
0.0
 22
0.0
 32
0.0
 14
0.0
 24
0.0
 34
0.0
 15
0.0
 25
0.0
 35
0.0
146
0.0
 13
0.0
 23
0.0
 33
0.0
 16
1.0
 26
0.0
 36
0.0
 17
0.0
 27
1.0
 37
0.0
 76
     0
330
2
331
26
1001
ACAD_PSEXT
1000
None
1000
None
1000
Not applicable
1000
The layout will not be plotted unless a new plotter configuration name is selected.
1070
     0
  0
LAYOUT
  5
14
102
{ACAD_XDICTIONARY
360
15
102
}
102
{ACAD_REACTORS
330
F
102
}
330
F
100
AcDbPlotSettings
  1

  2
none_device
  4
ISO_A4_(210.00_x_297.00_MM)
  6

 40
7.5
 41
20.0
 42
7.5
 43
20.0
 44
210.0
 45
297.0
 46
0.0
 47
0.0
 48
0.0
 49
0.0
140
0.0
141
0.0
142
1.0
143
1.0
 70
   688
 72
     1
 73
     1
 74
     5
  7
acad.ctb
 75
    16
147
1.0
 76
     0
 77
     2
 78
   300
148
0.0
149
0.0
100
AcDbLayout
  1
布局2
 70
     1
 71
     1
 10
-20.0
 20
-7.5
 11
277.0
 21
202.5
 12
0.0
 22
0.0
 32
0.0
 14
25.69999999999999
 24
19.5
 34
0.0
 15
231.3
 25
175.5
 35
0.0
146
0.0
 13
0.0
 23
0.0
 33
0.0
 16
1.0
 26
0.0
 36
0.0
 17
0.0
 27
1.0
 37
0.0
 76
     0
330
11
1001
ACAD_PSEXT
1000
无
1000
无
1000
不可用
1000
在选择新的绘图仪配置名称之前，不能打印该布局。
1070
     0
  0
MATERIAL
  5
34
102
{ACAD_REACTORS
330
B
102
}
330
B
100
AcDbMaterial
  1
ByBlock
  2

  0
MATERIAL
  5
33
102
{ACAD_REACTORS
330
B
102
}
330
B
100
AcDbMaterial
  1
ByLayer
  2

  0
MATERIAL
  5
A
102
{ACAD_REACTORS
330
B
102
}
330
B
100
AcDbMaterial
  1
Global
  2

  0
MLEADERSTYLE
  5
31A
102
{ACAD_REACTORS
330
319
102
}
330
319
100
AcDbMLeaderStyle
170
     2
171
     1
172
     0
 90
        2
 40
0.0
 41
0.0
173
     1
 91
-1056964608
340
21
 92
       -2
290
     1
 42
0.09
291
     1
 43
8.0
  3
Standard
341
0
 44
0.18
300

342
1E
174
     1
178
     1
175
     1
176
     0
 93
-1056964608
 45
0.18
292
     0
297
     0
 46
0.18
343
0
 94
-1056964608
 47
1.0
 49
1.0
140
1.0
293
     1
141
0.0
294
     1
177
     0
142
1.0
295
     0
296
     0
143
3.75
1001
ACAD_MLEADERVER
1070
     2
  0
MLINESTYLE
  5
39
102
{ACAD_REACTORS
330
31
102
}
330
31
100
AcDbMlineStyle
  2
STANDARD
 70
     0
  3

 62
   256
 51
90.0
 52
90.0
 71
     2
 49
0.5
 62
   256
  6
BYLAYER
 49
-0.5
 62
   256
  6
BYLAYER
  0
ACDBPLACEHOLDER
  5
7
102
{ACAD_REACTORS
330
8
102
}
330
8
  0
SCALE
  5
2F8
102
{ACAD_REACTORS
330
2F7
102
}
330
2F7
100
AcDbScale
 70
     0
300
1:1
140
1.0
141
1.0
290
     1
  0
SCALE
  5
2F9
102
{ACAD_REACTORS
330
2F7
102
}
330
2F7
100
AcDbScale
 70
     0
300
1:2
140
1.0
141
2.0
290
     0
  0
SCALE
  5
2FA
102
{ACAD_REACTORS
330
2F7
102
}
330
2F7
100
AcDbScale
 70
     0
300
1:4
140
1.0
141
4.0
290
     0
  0
SCALE
  5
2FB
102
{ACAD_REACTORS
330
2F7
102
}
330
2F7
100
AcDbScale
 70
     0
300
1:5
140
1.0
141
5.0
290
     0
  0
SCALE
  5
2FC
102
{ACAD_REACTORS
330
2F7
102
}
330
2F7
100
AcDbScale
 70
     0
300
1:8
140
1.0
141
8.0
290
     0
  0
SCALE
  5
2FD
102
{ACAD_REACTORS
330
2F7
102
}
330
2F7
100
AcDbScale
 70
     0
300
1:10
140
1.0
141
10.0
290
     0
  0
SCALE
  5
2FE
102
{ACAD_REACTORS
330
2F7
102
}
330
2F7
100
AcDbScale
 70
     0
300
1:16
140
1.0
141
16.0
290
     0
  0
SCALE
  5
2FF
102
{ACAD_REACTORS
330
2F7
102
}
330
2F7
100
AcDbScale
 70
     0
300
1:20
140
1.0
141
20.0
290
     0
  0
SCALE
  5
300
102
{ACAD_REACTORS
330
2F7
102
}
330
2F7
100
AcDbScale
 70
     0
300
1:30
140
1.0
141
30.0
290
     0
  0
SCALE
  5
301
102
{ACAD_REACTORS
330
2F7
102
}
330
2F7
100
AcDbScale
 70
     0
300
1:40
140
1.0
141
40.0
290
     0
  0
SCALE
  5
302
102
{ACAD_REACTORS
330
2F7
102
}
330
2F7
100
AcDbScale
 70
     0
300
1:50
140
1.0
141
50.0
290
     0
  0
SCALE
  5
303
102
{ACAD_REACTORS
330
2F7
102
}
330
2F7
100
AcDbScale
 70
     0
300
1:100
140
1.0
141
100.0
290
     0
  0
SCALE
  5
304
102
{ACAD_REACTORS
330
2F7
102
}
330
2F7
100
AcDbScale
 70
     0
300
2:1
140
2.0
141
1.0
290
     0
  0
SCALE
  5
305
102
{ACAD_REACTORS
330
2F7
102
}
330
2F7
100
AcDbScale
 70
     0
300
4:1
140
4.0
141
1.0
290
     0
  0
SCALE
  5
306
102
{ACAD_REACTORS
330
2F7
102
}
330
2F7
100
AcDbScale
 70
     0
300
8:1
140
8.0
141
1.0
290
     0
  0
SCALE
  5
307
102
{ACAD_REACTORS
330
2F7
102
}
330
2F7
100
AcDbScale
 70
     0
300
10:1
140
10.0
141
1.0
290
     0
  0
SCALE
  5
308
102
{ACAD_REACTORS
330
2F7
102
}
330
2F7
100
AcDbScale
 70
     0
300
100:1
140
100.0
141
1.0
290
     0
  0
SCALE
  5
309
102
{ACAD_REACTORS
330
2F7
102
}
330
2F7
100
AcDbScale
 70
     0
300
1/128" = 1'-0"
140
0.0078125
141
12.0
290
     0
  0
SCALE
  5
30A
102
{ACAD_REACTORS
330
2F7
102
}
330
2F7
100
AcDbScale
 70
     0
300
1/64" = 1'-0"
140
0.015625
141
12.0
290
     0
  0
SCALE
  5
30B
102
{ACAD_REACTORS
330
2F7
102
}
330
2F7
100
AcDbScale
 70
     0
300
1/32" = 1'-0"
140
0.03125
141
12.0
290
     0
  0
SCALE
  5
30C
102
{ACAD_REACTORS
330
2F7
102
}
330
2F7
100
AcDbScale
 70
     0
300
1/16" = 1'-0"
140
0.0625
141
12.0
290
     0
  0
SCALE
  5
30D
102
{ACAD_REACTORS
330
2F7
102
}
330
2F7
100
AcDbScale
 70
     0
300
3/32" = 1'-0"
140
0.09375
141
12.0
290
     0
  0
SCALE
  5
30E
102
{ACAD_REACTORS
330
2F7
102
}
330
2F7
100
AcDbScale
 70
     0
300
1/8" = 1'-0"
140
0.125
141
12.0
290
     0
  0
SCALE
  5
30F
102
{ACAD_REACTORS
330
2F7
102
}
330
2F7
100
AcDbScale
 70
     0
300
3/16" = 1'-0"
140
0.1875
141
12.0
290
     0
  0
SCALE
  5
310
102
{ACAD_REACTORS
330
2F7
102
}
330
2F7
100
AcDbScale
 70
     0
300
1/4" = 1'-0"
140
0.25
141
12.0
290
     0
  0
SCALE
  5
311
102
{ACAD_REACTORS
330
2F7
102
}
330
2F7
100
AcDbScale
 70
     0
300
3/8" = 1'-0"
140
0.375
141
12.0
290
     0
  0
SCALE
  5
312
102
{ACAD_REACTORS
330
2F7
102
}
330
2F7
100
AcDbScale
 70
     0
300
1/2" = 1'-0"
140
0.5
141
12.0
290
     0
  0
SCALE
  5
313
102
{ACAD_REACTORS
330
2F7
102
}
330
2F7
100
AcDbScale
 70
     0
300
3/4" = 1'-0"
140
0.75
141
12.0
290
     0
  0
SCALE
  5
314
102
{ACAD_REACTORS
330
2F7
102
}
330
2F7
100
AcDbScale
 70
     0
300
1" = 1'-0"
140
1.0
141
12.0
290
     0
  0
SCALE
  5
315
102
{ACAD_REACTORS
330
2F7
102
}
330
2F7
100
AcDbScale
 70
     0
300
1-1/2" = 1'-0"
140
1.5
141
12.0
290
     0
  0
SCALE
  5
316
102
{ACAD_REACTORS
330
2F7
102
}
330
2F7
100
AcDbScale
 70
     0
300
3" = 1'-0"
140
3.0
141
12.0
290
     0
  0
SCALE
  5
317
102
{ACAD_REACTORS
330
2F7
102
}
330
2F7
100
AcDbScale
 70
     0
300
6" = 1'-0"
140
6.0
141
12.0
290
     0
  0
SCALE
  5
318
102
{ACAD_REACTORS
330
2F7
102
}
330
2F7
100
AcDbScale
 70
     0
300
1'-0" = 1'-0"
140
12.0
141
12.0
290
     0
  0
TABLESTYLE
  5
3A
102
{ACAD_XDICTIONARY
360
323
102
}
102
{ACAD_REACTORS
330
36
102
}
330
36
100
AcDbTableStyle
  3
Standard
 70
     0
 71
     0
 40
1.5
 41
1.5
280
     0
281
     0
  7
Standard
140
4.5
170
     2
 62
     0
 63
   257
283
     0
274
    -2
284
     1
 64
     0
275
    -2
285
     1
 65
     0
276
    -2
286
     1
 66
     0
277
    -2
287
     1
 67
     0
278
    -2
288
     1
 68
     0
279
    -2
289
     1
 69
     0
  7
Standard
140
6.0
170
     5
 62
     0
 63
   257
283
     0
274
    -2
284
     1
 64
     0
275
    -2
285
     1
 65
     0
276
    -2
286
     1
 66
     0
277
    -2
287
     1
 67
     0
278
    -2
288
     1
 68
     0
279
    -2
289
     1
 69
     0
  7
Standard
140
4.5
170
     5
 62
     0
 63
   257
283
     0
274
    -2
284
     1
 64
     0
275
    -2
285
     1
 65
     0
276
    -2
286
     1
 66
     0
277
    -2
287
     1
 67
     0
278
    -2
288
     1
 68
     0
279
    -2
289
     1
 69
     0
  0
VISUALSTYLE
  5
27
102
{ACAD_XDICTIONARY
360
321
102
}
102
{ACAD_REACTORS
330
28
102
}
330
28
100
AcDbVisualStyle
  2
2dWireframe
 70
     4
 71
     0
 72
     2
 73
     1
 90
        0
 40
-0.6
 41
-30.0
 62
     5
 63
     7
421
 16777215
 74
     1
 91
        4
 64
     7
 65
   257
 75
     1
175
     1
 42
1.0
 92
        0
 66
   257
 43
1.0
 76
     1
 77
     6
 78
     2
 67
     7
 79
     5
170
     0
171
     0
290
     0
174
     0
 93
        1
 44
0.0
173
     0
291
     0
 45
0.0
1001
ACAD
1000
AcDbSavedByObjectVersion
1070
     0
  0
VISUALSTYLE
  5
1A7
102
{ACAD_XDICTIONARY
360
335
102
}
102
{ACAD_REACTORS
330
28
102
}
330
28
100
AcDbVisualStyle
  2
3D Hidden
 70
     6
 71
     1
 72
     2
 73
     2
 90
        0
 40
-0.6
 41
-30.0
 62
     5
 63
     7
421
 16777215
 74
     2
 91
        2
 64
     7
 65
   257
 75
     2
175
     1
 42
40.0
 92
        0
 66
   257
 43
1.0
 76
     1
 77
     6
 78
     2
 67
     7
 79
     3
170
     0
171
     0
290
     0
174
     0
 93
        1
 44
0.0
173
     0
291
     0
 45
0.0
1001
ACAD
1000
AcDbSavedByObjectVersion
1070
     0
  0
VISUALSTYLE
  5
3C
102
{ACAD_XDICTIONARY
360
329
102
}
102
{ACAD_REACTORS
330
28
102
}
330
28
100
AcDbVisualStyle
  2
3dWireframe
 70
     5
 71
     0
 72
     2
 73
     1
 90
        0
 40
-0.6
 41
-30.0
 62
     5
 63
     7
421
 16777215
 74
     1
 91
        4
 64
     7
 65
   257
 75
     1
175
     1
 42
1.0
 92
        0
 66
   257
 43
1.0
 76
     1
 77
     6
 78
     2
 67
     7
 79
     5
170
     0
171
     0
290
     0
174
     0
 93
        1
 44
0.0
173
     0
291
     0
 45
0.0
1001
ACAD
1000
AcDbSavedByObjectVersion
1070
     0
  0
VISUALSTYLE
  5
1A6
102
{ACAD_XDICTIONARY
360
333
102
}
102
{ACAD_REACTORS
330
28
102
}
330
28
100
AcDbVisualStyle
  2
Basic
 70
     7
 71
     1
 72
     0
 73
     1
 90
        0
 40
-0.6
 41
-30.0
 62
     5
 63
     7
421
 16777215
 74
     0
 91
        4
 64
     7
 65
   257
 75
     1
175
     1
 42
1.0
 92
        8
 66
     7
 43
1.0
 76
     1
 77
     6
 78
     2
 67
     7
 79
     5
170
     0
171
     0
290
     0
174
     0
 93
        1
 44
0.0
173
     0
291
     1
 45
0.0
1001
ACAD
1000
AcDbSavedByObjectVersion
1070
     0
  0
VISUALSTYLE
  5
1AA
102
{ACAD_XDICTIONARY
360
33B
102
}
102
{ACAD_REACTORS
330
28
102
}
330
28
100
AcDbVisualStyle
  2
Brighten
 70
    12
 71
     2
 72
     2
 73
     0
 90
        0
 40
-0.6
 41
-30.0
 62
     5
 63
     7
421
 16777215
 74
     1
 91
        4
 64
     7
 65
   257
 75
     1
175
     1
 42
1.0
 92
        8
 66
     7
 43
1.0
 76
     1
 77
     6
 78
     2
 67
     7
 79
     5
170
     0
171
     0
290
     0
174
     0
 93
        1
 44
50.0
173
     0
291
     1
 45
0.0
1001
ACAD
1000
AcDbSavedByObjectVersion
1070
     0
  0
VISUALSTYLE
  5
1AE
102
{ACAD_XDICTIONARY
360
343
102
}
102
{ACAD_REACTORS
330
28
102
}
330
28
100
AcDbVisualStyle
  2
ColorChange
 70
    16
 71
     2
 72
     2
 73
     3
 90
        0
 40
-0.6
 41
-30.0
 62
     5
 63
     8
421
  8421504
 74
     1
 91
        4
 64
     7
 65
   257
 75
     1
175
     1
 42
1.0
 92
        8
 66
     8
424
  8421504
 43
1.0
 76
     1
 77
     6
 78
     2
 67
     7
 79
     5
170
     0
171
     0
290
     0
174
     0
 93
        1
 44
0.0
173
     0
291
     1
 45
0.0
1001
ACAD
1000
AcDbSavedByObjectVersion
1070
     0
  0
VISUALSTYLE
  5
1A8
102
{ACAD_XDICTIONARY
360
337
102
}
102
{ACAD_REACTORS
330
28
102
}
330
28
100
AcDbVisualStyle
  2
Conceptual
 70
     9
 71
     3
 72
     2
 73
     0
 90
        0
 40
-0.6
 41
-30.0
 62
     5
 63
     7
421
 16777215
 74
     2
 91
        2
 64
     7
 65
   257
 75
     1
175
     1
 42
40.0
 92
        8
 66
     7
 43
1.0
 76
     1
 77
     6
 78
     2
 67
     7
 79
     3
170
     0
171
     0
290
     0
174
     0
 93
        1
 44
0.0
173
     0
291
     0
 45
0.0
1001
ACAD
1000
AcDbSavedByObjectVersion
1070
     0
  0
VISUALSTYLE
  5
1A9
102
{ACAD_XDICTIONARY
360
339
102
}
102
{ACAD_REACTORS
330
28
102
}
330
28
100
AcDbVisualStyle
  2
Dim
 70
    11
 71
     2
 72
     2
 73
     0
 90
        0
 40
-0.6
 41
-30.0
 62
     5
 63
     7
421
 16777215
 74
     1
 91
        4
 64
     7
 65
   257
 75
     1
175
     1
 42
1.0
 92
        8
 66
     7
 43
1.0
 76
     1
 77
     6
 78
     2
 67
     7
 79
     5
170
     0
171
     0
290
     0
174
     0
 93
        1
 44
-50.0
173
     0
291
     1
 45
0.0
1001
ACAD
1000
AcDbSavedByObjectVersion
1070
     0
  0
VISUALSTYLE
  5
1AD
102
{ACAD_XDICTIONARY
360
341
102
}
102
{ACAD_REACTORS
330
28
102
}
330
28
100
AcDbVisualStyle
  2
Facepattern
 70
    15
 71
     2
 72
     2
 73
     0
 90
        0
 40
-0.6
 41
-30.0
 62
     5
 63
     7
421
 16777215
 74
     1
 91
        4
 64
     7
 65
   257
 75
     1
175
     1
 42
1.0
 92
        8
 66
     7
 43
1.0
 76
     1
 77
     6
 78
     2
 67
     7
 79
     5
170
     0
171
     0
290
     0
174
     0
 93
        1
 44
0.0
173
     0
291
     1
 45
0.0
1001
ACAD
1000
AcDbSavedByObjectVersion
1070
     0
  0
VISUALSTYLE
  5
1A2
102
{ACAD_XDICTIONARY
360
32B
102
}
102
{ACAD_REACTORS
330
28
102
}
330
28
100
AcDbVisualStyle
  2
Flat
 70
     0
 71
     2
 72
     1
 73
     1
 90
        2
 40
-0.6
 41
30.0
 62
     5
 63
     7
421
 16777215
 74
     0
 91
        4
 64
     7
 65
   257
 75
     1
175
     1
 42
1.0
 92
        8
 66
     7
 43
1.0
 76
     1
 77
     6
 78
     2
 67
     7
 79
     5
170
     0
171
     0
290
     0
174
     0
 93
       13
 44
0.0
173
     0
291
     1
 45
0.0
1001
ACAD
1000
AcDbSavedByObjectVersion
1070
     0
  0
VISUALSTYLE
  5
1A3
102
{ACAD_XDICTIONARY
360
32D
102
}
102
{ACAD_REACTORS
330
28
102
}
330
28
100
AcDbVisualStyle
  2
FlatWithEdges
 70
     1
 71
     2
 72
     1
 73
     1
 90
        2
 40
-0.6
 41
30.0
 62
     5
 63
     7
421
 16777215
 74
     1
 91
        4
 64
     7
 65
   257
 75
     1
175
     1
 42
1.0
 92
        0
 66
   257
 43
1.0
 76
     1
 77
     6
 78
     2
 67
     7
 79
     5
170
     0
171
     0
290
     0
174
     0
 93
       13
 44
0.0
173
     0
291
     1
 45
0.0
1001
ACAD
1000
AcDbSavedByObjectVersion
1070
     0
  0
VISUALSTYLE
  5
1A4
102
{ACAD_XDICTIONARY
360
32F
102
}
102
{ACAD_REACTORS
330
28
102
}
330
28
100
AcDbVisualStyle
  2
Gouraud
 70
     2
 71
     2
 72
     2
 73
     1
 90
        2
 40
-0.6
 41
30.0
 62
     5
 63
     7
421
 16777215
 74
     0
 91
        4
 64
     7
 65
   257
 75
     1
175
     1
 42
1.0
 92
        0
 66
     7
 43
1.0
 76
     1
 77
     6
 78
     2
 67
     7
 79
     5
170
     0
171
     0
290
     0
174
     0
 93
       13
 44
0.0
173
     0
291
     1
 45
0.0
1001
ACAD
1000
AcDbSavedByObjectVersion
1070
     0
  0
VISUALSTYLE
  5
1A5
102
{ACAD_XDICTIONARY
360
331
102
}
102
{ACAD_REACTORS
330
28
102
}
330
28
100
AcDbVisualStyle
  2
GouraudWithEdges
 70
     3
 71
     2
 72
     2
 73
     1
 90
        2
 40
-0.6
 41
30.0
 62
     5
 63
     7
421
 16777215
 74
     1
 91
        4
 64
     7
 65
   257
 75
     1
175
     1
 42
1.0
 92
        0
 66
   257
 43
1.0
 76
     1
 77
     6
 78
     2
 67
     7
 79
     5
170
     0
171
     0
290
     0
174
     0
 93
       13
 44
0.0
173
     0
291
     1
 45
0.0
1001
ACAD
1000
AcDbSavedByObjectVersion
1070
     0
  0
VISUALSTYLE
  5
1AC
102
{ACAD_XDICTIONARY
360
33F
102
}
102
{ACAD_REACTORS
330
28
102
}
330
28
100
AcDbVisualStyle
  2
Linepattern
 70
    14
 71
     2
 72
     2
 73
     0
 90
        0
 40
-0.6
 41
-30.0
 62
     5
 63
     7
421
 16777215
 74
     1
 91
        4
 64
     7
 65
   257
 75
     7
175
     7
 42
1.0
 92
        8
 66
     7
 43
1.0
 76
     1
 77
     6
 78
     2
 67
     7
 79
     5
170
     0
171
     0
290
     0
174
     0
 93
        1
 44
0.0
173
     0
291
     1
 45
0.0
1001
ACAD
1000
AcDbSavedByObjectVersion
1070
     0
  0
VISUALSTYLE
  5
3B
102
{ACAD_XDICTIONARY
360
327
102
}
102
{ACAD_REACTORS
330
28
102
}
330
28
100
AcDbVisualStyle
  2
Realistic
 70
     8
 71
     2
 72
     2
 73
     1
 90
        0
 40
-0.6
 41
-30.0
 62
     5
 63
     7
421
 16777215
 74
     1
 91
        0
 64
     7
 65
   257
 75
     1
175
     1
 42
1.0
 92
        8
 66
     8
424
  7895160
 43
1.0
 76
     1
 77
     6
 78
     2
 67
     7
 79
     5
170
     0
171
     0
290
     0
174
     0
 93
       13
 44
0.0
173
     0
291
     0
 45
0.0
1001
ACAD
1000
AcDbSavedByObjectVersion
1070
     0
  0
VISUALSTYLE
  5
1AB
102
{ACAD_XDICTIONARY
360
33D
102
}
102
{ACAD_REACTORS
330
28
102
}
330
28
100
AcDbVisualStyle
  2
Thicken
 70
    13
 71
     2
 72
     2
 73
     0
 90
        0
 40
-0.6
 41
-30.0
 62
     5
 63
     7
421
 16777215
 74
     1
 91
        4
 64
     7
 65
   257
 75
     1
175
     1
 42
1.0
 92
       12
 66
     7
 43
1.0
 76
     1
 77
     6
 78
     2
 67
     7
 79
     5
170
     0
171
     0
290
     0
174
     0
 93
        1
 44
0.0
173
     0
291
     1
 45
0.0
1001
ACAD
1000
AcDbSavedByObjectVersion
1070
     0
  0
DICTIONARYVAR
  5
31E
102
{ACAD_REACTORS
330
19F
102
}
330
19F
100
DictionaryVariables
280
     0
  1
STANDARD
  0
DICTIONARYVAR
  5
1A0
102
{ACAD_REACTORS
330
19F
102
}
330
19F
100
DictionaryVariables
280
     0
  1
STANDARD
  0
DICTIONARY
  5
15
330
14
100
AcDbDictionary
280
     1
281
     1
  3
ADSK_XREC_LAYOUTTHUMBNAIL
360
16
  0
DICTIONARY
  5
323
330
3A
100
AcDbDictionary
280
     1
281
     1
  3
ACAD_ROUNDTRIP_2008_TABLESTYLE_CELLSTYLEMAP
360
325
  3
ACAD_XREC_ROUNDTRIP
360
324
  0
DICTIONARY
  5
321
330
27
100
AcDbDictionary
280
     1
281
     1
  3
ACAD_XREC_ROUNDTRIP
360
322
  0
DICTIONARY
  5
335
330
1A7
100
AcDbDictionary
280
     1
281
     1
  3
ACAD_XREC_ROUNDTRIP
360
336
  0
DICTIONARY
  5
329
330
3C
100
AcDbDictionary
280
     1
281
     1
  3
ACAD_XREC_ROUNDTRIP
360
32A
  0
DICTIONARY
  5
333
330
1A6
100
AcDbDictionary
280
     1
281
     1
  3
ACAD_XREC_ROUNDTRIP
360
334
  0
DICTIONARY
  5
33B
330
1AA
100
AcDbDictionary
280
     1
281
     1
  3
ACAD_XREC_ROUNDTRIP
360
33C
  0
DICTIONARY
  5
343
330
1AE
100
AcDbDictionary
280
     1
281
     1
  3
ACAD_XREC_ROUNDTRIP
360
344
  0
DICTIONARY
  5
337
330
1A8
100
AcDbDictionary
280
     1
281
     1
  3
ACAD_XREC_ROUNDTRIP
360
338
  0
DICTIONARY
  5
339
330
1A9
100
AcDbDictionary
280
     1
281
     1
  3
ACAD_XREC_ROUNDTRIP
360
33A
  0
DICTIONARY
  5
341
330
1AD
100
AcDbDictionary
280
     1
281
     1
  3
ACAD_XREC_ROUNDTRIP
360
342
  0
DICTIONARY
  5
32B
330
1A2
100
AcDbDictionary
280
     1
281
     1
  3
ACAD_XREC_ROUNDTRIP
360
32C
  0
DICTIONARY
  5
32D
330
1A3
100
AcDbDictionary
280
     1
281
     1
  3
ACAD_XREC_ROUNDTRIP
360
32E
  0
DICTIONARY
  5
32F
330
1A4
100
AcDbDictionary
280
     1
281
     1
  3
ACAD_XREC_ROUNDTRIP
360
330
  0
DICTIONARY
  5
331
330
1A5
100
AcDbDictionary
280
     1
281
     1
  3
ACAD_XREC_ROUNDTRIP
360
332
  0
DICTIONARY
  5
33F
330
1AC
100
AcDbDictionary
280
     1
281
     1
  3
ACAD_XREC_ROUNDTRIP
360
340
  0
DICTIONARY
  5
327
330
3B
100
AcDbDictionary
280
     1
281
     1
  3
ACAD_XREC_ROUNDTRIP
360
328
  0
DICTIONARY
  5
33D
330
1AB
100
AcDbDictionary
280
     1
281
     1
  3
ACAD_XREC_ROUNDTRIP
360
33E
  0
XRECORD
  5
16
102
{ACAD_REACTORS
330
15
102
}
330
15
100
AcDbXrecord
280
     1
310
28000000B40000007F00000001000800000000004C59000000000000000000000001000000000000FFFFFF0000000000FFFFFF000000000000000000000000000000000000000000000000000000000000000000330000006600000099000000CC000000FF00000000330000333300006633000099330000CC330000FF3300
310
0000660000336600006666000099660000CC660000FF66000000990000339900006699000099990000CC990000FF99000000CC000033CC000066CC000099CC0000CCCC0000FFCC000000FF000033FF000066FF000099FF0000CCFF0000FFFF000000003300330033006600330099003300CC003300FF003300003333003333
310
33006633330099333300CC333300FF33330000663300336633006666330099663300CC663300FF66330000993300339933006699330099993300CC993300FF99330000CC330033CC330066CC330099CC3300CCCC3300FFCC330000FF330033FF330066FF330099FF3300CCFF3300FFFF330000006600330066006600660099
310
006600CC006600FF00660000336600333366006633660099336600CC336600FF33660000666600336666006666660099666600CC666600FF66660000996600339966006699660099996600CC996600FF99660000CC660033CC660066CC660099CC6600CCCC6600FFCC660000FF660033FF660066FF660099FF6600CCFF6600
310
FFFF660000009900330099006600990099009900CC009900FF00990000339900333399006633990099339900CC339900FF33990000669900336699006666990099669900CC669900FF66990000999900339999006699990099999900CC999900FF99990000CC990033CC990066CC990099CC9900CCCC9900FFCC990000FF99
310
0033FF990066FF990099FF9900CCFF9900FFFF99000000CC003300CC006600CC009900CC00CC00CC00FF00CC000033CC003333CC006633CC009933CC00CC33CC00FF33CC000066CC003366CC006666CC009966CC00CC66CC00FF66CC000099CC003399CC006699CC009999CC00CC99CC00FF99CC0000CCCC0033CCCC0066CC
310
CC0099CCCC00CCCCCC00FFCCCC0000FFCC0033FFCC0066FFCC0099FFCC00CCFFCC00FFFFCC000000FF003300FF006600FF009900FF00CC00FF00FF00FF000033FF003333FF006633FF009933FF00CC33FF00FF33FF000066FF003366FF006666FF009966FF00CC66FF00FF66FF000099FF003399FF006699FF009999FF00CC
310
99FF00FF99FF0000CCFF0033CCFF0066CCFF0099CCFF00CCCCFF00FFCCFF0000FFFF0033FFFF0066FFFF0099FFFF00CCFFFF00FFFFFF00000000000D0D0D001A1A1A00282828003535350043434300505050005D5D5D006B6B6B00787878008686860093939300A1A1A100AEAEAE00BBBBBB00C9C9C900D6D6D600E4E4E400
310
F1F1F100FFFFFF0000000000000000000000000000000000000000000000000000000000000000000000000000000000E2E2E2E2E2E2E2E2E2E2E2E2E2E2E2E2E2E2E2E2E2E2E2E2E2E2E2E2E2E2E2E2E2E2E2E2E2E2E2E2E2E2E2E2E2E2E2E2E2E2E2E2E2E2E2E2E2E2E2E2E2E2E2E2E2E2E2E2E2E2E2E2E2E2E2E2E2E2E2
310
E2E2E2E2E2E2E2E2E2E2E2E2E2E2E2E2E2E2E2E2E2E2E2E2E2E2E2E2E2E2E2E2E2E2E2E2E2E2E2E2E2E2E2E2E2E2E2E2E2E2E2E2E2E2E2E2E2E2E2E2E2E2E2E2E2E2E2E2E2E2E2E2E2E2E2E2E2E2E2E2E2E2E2E2E2E2E2E2E2E2E2E2E2E2E2E2E2E2E2E2E2E2F5F5F5F5F5F5F5F5F5F5F5F5F5F5F5F5F5F5F5F5F5F5F5F5F5
310
F5F5F5F5F5F5F5F5F5F5F5F5F5F5F5F5F5F5F5F5F5F5F5F5F5F5F5F5F5F5F5F5F5F5F5F5F5F5F5F5F5F5F5F5F5F5F5F5F5F5F5F5F5F5F5F5F5F5F5F5F5F5F5F5F5F5F5F5F5F5F5F5F5F5F5F5F5F5F5F5F5F5F5F5F5F5F5F5F5F5F5F5F5F5F5F5F5F5F5F5F5F5F5F5F5F5F5F5F5F5F5F5F5F5F5F5F5F5F5F5F5F5F5F5F5F5F5
310
F5F5F5F5F5F5F5F5F5F5F5F5F5F5F5F5F5F5F5F5F5F5F5F5F5F5E2E2F5F5F5F5F5F5F5F5F5F5F5F5F5F5F5F5F5F5F5F5F5F5F5F5F5F5F5F5F5F5F5F5F5F5F5F5F5F5F5F5F5F5F5F5F5F5F5F5F5F5F5F5F5F5F5F5F5F5F5F5F5F5F5F5F5F5F5F5F5F5F5F5F5F5F5F5F5F5F5F5F5F5F5F5F5F5F5F5F5F5F5F5F5F5F5F5F5F5F5
310
F5F5F5F5F5F5F5F5F5F5F5F5F5F5F5F5F5F5F5F5F5F5F5F5F5F5F5F5F5F5F5F5F5F5F5F5F5F5F5F5F5F5F5F5F5F5F5F5F5F5F5F5F5F5F5F5F5F5F5F5F5F5F5F5F5F5F5F5F5F5F5F5F5F5F5F5F5F5F5E2E2F5F5F5F5F5F5F5F5F5F5F5F5F5F5F5F5F5F5F5F5F5F5F5F5F5F5F5F5F5F5F5F5F5F5F5F5F5F5F5F5F5F5F5F5F5F5
310
F5F5F5F5F5F5F5F5F5F5F5F5F5F5F5F5F5F5F5F5F5F5F5F5F5F5F5F5F5F5F5F5F5F5F5F5F5F5F5F5F5F5F5F5F5F5F5F5F5F5F5F5F5F5F5F5F5F5F5F5F5F5F5F5F5F5F5F5F5F5F5F5F5F5F5F5F5F5F5F5F5F5F5F5F5F5F5F5F5F5F5F5F5F5F5F5F5F5F5F5F5F5F5F5F5F5F5F5F5F5F5F5F5F5F5F5F5F5F5F5F5F5F5F5F5F5F5
310
F5F5F5F5F5E2E2F5F5F5F5F5F5F5F5F5F5F5F5F5F5F5F5F5F5F5F5F5F5F5F5F5F5F5F5F5F5F5F5F5F5F5F5F5F5F5F5F5F5F5F5F5F5F5F5F5F5F5F5F5F5F5F5F5F5F5F5F5F5F5F5F5F5F5F5F5F5F5F5F5F5F5F5F5F5F5F5F5F5F5F5F5F5F5F5F5F5F5F5F5F5F5F5F5F5F5F5F5F5F5F5F5F5F5F5F5F5F5F5F5F5F5F5F5F5F5F5
310
F5F5F5F5F5F5F5F5F5F5F5F5F5F5F5F5F5F5F5F5F5F5F5F5F5F5F5F5F5F5F5F5F5F5F5F5F5F5F5F5F5F5F5F5F5F5F5F5F5F5F5F5F5F5F5F5F5F5E2E2F5F5F5F5F5F5F5F5F5F5F5E2E2E2E2E2E2E2E2E2F5F5F5F5F5F5F5F5F5E2E2E2E2E2E2E2E2E2E2E2E2E2E2E2E2E2F5F5F5F5F5F5F5F5F5E2E2E2E2E2E2E2E2E2E2E2E2
310
E2E2E2E2F5F5F5F5F5F5F5F5F5F5E2E2E2E2E2E2E2E2E2E2E2E2E2E2E2E2F5F5F5F5F5F5F5F5F5F5E2E2E2E2E2E2E2E2E2E2E2E2E2E2E2E2F5F5F5F5F5F5F5F5F5E2E2E2E2E2E2E2E2E2E2E2E2E2E2E2E2E2F5F5F5F5F5F5F5F5F5E2E2E2E2E2E2E2E2E2F5F5F5F5F5F5F5F5F5F5F5E2E2F5F5F5F5F5F5F5F5F5F5F5E2F5F5
310
F5F5F5F5F5F5F5F5F5F5F5F5F5F5F5F5F5F5F5F5F5F5F5F5F5F5F5F5F5F5F5F5F5F5F5F5F5F5F5F5F5F5F5F5F5F5F5F5F5F5F5F5F5F5F5F5F5F5F5F5F5F5F5F5F5F5F5F5F5F5F5F5F5F5F5F5F5F5F5F5F5F5F5F5F5F5F5F5F5F5F5F5F5F5F5F5F5F5F5F5F5F5F5F5F5F5F5F5F5F5F5F5F5F5F5F5F5F5F5F5F5F5F5F5F5F5F5
310
F5F5F5F5F5F5F5F5F5F5F5F5F5F5F5F5F5F5F5F5F5F5F5F5F5E2F5F5F5F5F5F5F5F5F5F5F5E2E2F5F5F5F5F5F5F5F5F5F5F5E2F5F5F5F5F5F5F5F5F5F5F5F5F5F5F5F5F5F5F5F5F5F5F5F5F5F5F5F5F5F5F5F5F5F5F5F5F5F5F5F5F5F5F5F5F5F5F5F5F5F5F5F5F5F5F5F5F5F5F5F5F5F5F5F5F5F5F5F5F5F5F5F5F5F5F5F5
310
F5F5F5F5F5F5F5F5F5F5F5F5F5F5F5F5F5F5F5F5F5F5F5F5F5F5F5F5F5F5F5F5F5F5F5F5F5F5F5F5F5F5F5F5F5F5F5F5F5F5F5F5F5F5F5F5F5F5F5F5F5F5F5F5F5F5F5F5F5F5F5F5F5F5F5F5F5F5E2F5F5F5F5F5F5F5F5F5F5F5E2E2F5F5F5F5F5F5F5F5F5F5F5E2F5F5F5F5F5F5F5F5F5F5F5F5F5F5F5F5F5F5F5F5F5F5F5
310
F5F5F5F5F5F5F5F5F5F5F5F5F5F5F5F5F5F5F5F5F5F5F5F5F5F5F5F5F5F5F5F5F5F5F5F5F5F5F5F5F5F5F5F5F5F5F5F5F5F5F5F5F5F5F5F5F5F5F5F5F5F5F5F5F5F5F5F5F5F5F5F5F5F5F5F5F5F5F5F5F5F5F5F5F5F5F5F5F5F5F5F5F5F5F5F5F5F5F5F5F5F5F5F5F5F5F5F5F5F5F5F5F5F5F5F5F5F5F5F5F5F5F5F5F5F5F5
310
F5F5F5F5E2F5F5F5F5F5F5F5F5F5F5F5E2E2F5F5F5F5F5F5F5F5F5F5F5E2F5F5F5F5F5F5F5F5F5F5F5F5F5F5F5F5F5F5F5F5F5F5F5F5F5F5F5F5F5F5F5F5F5F5F5F5F5F5F5F5F5F5F5F5F5F5F5F5F5F5F5F5F5F5F5F5F5F5F5F5F5F5F5F5F5F5F5F5F5F5F5F5F5F5F5F5F5F5F5F5F5F5F5F5F5F5F5F5F5F5F5F5F5F5F5F5F5
310
F5F5F5F5F5F5F5F5F5F5F5F5F5F5F5F5F5F5F5F5F5F5F5F5F5F5F5F5F5F5F5F5F5F5F5F5F5F5F5F5F5F5F5F5F5F5F5F5F5F5F5F5F5F5F5F5F5E2F5F5F5F5F5F5F5F5F5F5F5E2E2F5F5F5F5F5F5F5F5F5F5F5E2F5F5F5F5F5F5F5F5F5F5F5F5F5F5F5F5F5F5F5F5F5F5F5F5F5F5F5F5F5F5F5F5F5F5F5F5F5F5F5F5F5F5F5F5
310
F5F5F5F5F5F5F5F5F5F5F5F5F5F5F5F5F5F5F5F5F5F5F5F5F5F5F5F5F5F5F5F5F5F5F5F5F5F5F5F5F5F5F5F5F5F5F5F5F5F5F5F5F5F5F5F5F5F5F5F5F5F5F5F5F5F5F5F5F5F5F5F5F5F5F5F5F5F5F5F5F5F5F5F5F5F5F5F5F5F5F5F5F5F5F5F5F5F5F5F5F5F5F5F5F5F5F5F5F5F5E2F5F5F5F5F5F5F5F5F5F5F5E2E2F5F5F5
310
F5F5F5F5F5F5F5F5E2F5F5F5F5F5F5F5F5F5F5F5F5F5F5F5F5F5F5F5F5F5F5F5F5F5F5F5F5F5F5F5F5F5F5F5F5F5F5F5F5F5F5F5F5F5F5F5F5F5F5F5F5F5F5F5F5F5F5F5F5F5F5F5F5F5F5F5F5F5F5F5F5F5F5F5F5F5F5F5F5F5F5F5F5F5F5F5F5F5F5F5F5F5F5F5F5F5F5F5F5F5F5F5F5F5F5F5F5F5F5F5F5F5F5F5F5F5F5
310
F5F5F5F5F5F5F5F5F5F5F5F5F5F5F5F5F5F5F5F5F5F5F5F5F5F5F5F5F5F5F5F5F5F5F5F5E2F5F5F5F5F5F5F5F5F5F5F5E2E2F5F5F5F5F5F5F5F5F5F5F5E2F5F5F5F5F5F5F5F5F5F5F5F5F5F5F5F5F5F5F5F5F5F5F5F5F5F5F5F5F5F5F5F5F5F5F5F5F5F5F5F5F5F5F5F5F5F5F5F5F5F5F5F5F5F5F5F5F5F5F5F5F5F5F5F5F5
310
F5F5F5F5F5F5F5F5F5F5F5F5F5F5F5F5F5F5F5F5F5F5F5F5F5F5F5F5F5F5F5F5F5F5F5F5F5F5F5F5F5F5F5F5F5F5F5F5F5F5F5F5F5F5F5F5F5F5F5F5F5F5F5F5F5F5F5F5F5F5F5F5F5F5F5F5F5F5F5F5F5F5F5F5F5F5F5F5F5E2F5F5F5F5F5F5F5F5F5F5F5E2E2F5F5F5F5F5F5F5F5F5F5F5F5F5F5F5F5F5F5F5F5F5F5F5F5
310
F5F5F5F5F5F5F5F5F5F5F5F5F5F5F5F5F5F5F5F5F5F5F5F5F5F5F5F5F5F5F5F5F5F5F5F5F5F5F5F5F5F5F5F5F5F5F5F5F5F5F5F5F5F5F5F5F5F5F5F5F5F5F5F5F5F5F5F5F5F5F5F5F5F5F5F5F5F5F5F5F5F5F5F5F5F5F5F5F5F5F5F5F5F5F5F5F5F5F5F5F5F5F5F5F5F5F5F5F5F5F5F5F5F5F5F5F5F5F5F5F5F5F5F5F5F5F5
310
F5F5F5F5F5F5F5F5F5F5F5F5F5F5F5F5F5F5F5F5F5F5F5F5F5F5F5E2E2F5F5F5F5F5F5F5F5F5F5F5F5F5F5F5F5F5F5F5F5F5F5F5F5F5F5F5F5F5F5F5F5F5F5F5F5F5F5F5F5F5F5F5F5F5F5F5F5F5F5F5F5F5F5F5F5F5F5F5F5F5F5F5F5F5F5F5F5F5F5F5F5F5F5F5F5F5F5F5F5F5F5F5F5F5F5F5F5F5F5F5F5F5F5F5F5F5F5
310
F5F5F5F5F5F5F5F5F5F5F5F5F5F5F5F5F5F5F5F5F5F5F5F5F5F5F5F5F5F5F5F5F5F5F5F5F5F5F5F5F5F5F5F5F5F5F5F5F5F5F5F5F5F5F5F5F5F5F5F5F5F5F5F5F5F5F5F5F5F5F5F5F5F5F5F5F5F5F5F5E2E2F5F5F5F5F5F5F5F5F5F5F5F5F5F5F5F5F5F5F5F5F5F5F5F5F5F5F5F5F5F5F5F5F5F5F5F5F5F5F5F5F5F5F5F5F5
310
F5F5F5F5F5F5F5F5F5F5F5F5F5F5F5F5F5F5F5F5F5F5F5F5F5F5F5F5F5F5F5F5F5F5F5F5F5F5F5F5F5F5F5F5F5F5F5F5F5F5F5F5F5F5F5F5F5F5F5F5F5F5F5F5F5F5F5F5F5F5F5F5F5F5F5F5F5F5F5F5F5F5F5F5F5F5F5F5F5F5F5F5F5F5F5F5F5F5F5F5F5F5F5F5F5F5F5F5F5F5F5F5F5F5F5F5F5F5F5F5F5F5F5F5F5F5F5
310
F5F5F5F5F5F5E2E2F5F5F5F5F5F5F5F5F5F5F5F5F5F5F5F5F5F5F5F5F5F5F5F5F5F5F5C3C3C3C3C3C3C3C3C3C3C3C3C3C3C3C3C3C3C3C3C3C3C3C3C3C3C3C3C3C3C3C3C3C3C3C3C3C3C3C3C3C3C3C3C3C3C3C3C3C3C3C3C3C3C3C3C3C3C3C3C3C3C3C3C3C3C3C3C3C3C3C3C3C3C3C3C3C3C3C3C3C3C3C3C3C3C3C3C3C3C3C3
310
C3C3C3C3C3C3C3C3C3C3C3C3C3C3C3C3C3C3C3C3C3C3C3C3C3C3C3C3C3C3C3C3F5F5F5F5F5F5F5F5F5F5F5F5F5F5F5F5F5F5F5F5F5F5F5F5F5F5F5E2E2F5F5F5F5F5F5F5F5F5F5F5F5F5F5F5F5F5F5F5F5F5F5F5F5F5F5F5C3F5F5F5F5F5F5F5F5F5F5F5F5F5F5F5F5F5F5F5F5F5F5F5F5F5F5F5F5F5F5F5F5F5F5F5F5F5F5
310
F5F5F5F5F5F5F5F5F5F5F5F5F5F5F5F5F5F5F5F5F5F5F5F5F5F5F5F5F5F5F5F5F5F5F5F5F5F5F5F5F5F5F5F5F5F5F5F5F5F5F5F5F5F5F5F5F5F5F5F5F5F5F5F5F5F5F5F5F5F5F5F5F5F5F5F5F5F5F5F5F5F5F5F5C3F5F5F5F5F5F5F5F5F5F5F5F5F5F5F5F5F5F5F5F5F5F5F5F5F5F5F5E2E2F5F5F5F5F5F5F5F5F5F5F5F5F5
310
F5F5F5F5F5F5F5F5F5F5F5F5F5F5C3F5F5F5F5F5F5F5F5F5F5F5F5F5F5F5F5F5F5F5F5F5F5F5F5F5F5F5F5F5F5F5F5F5F5F5F5F5F5F5F5F5F5F5F5F5F5F5F5F5F5F5F5F5F5F5F5F5F5F5F5F5F5F5F5F5F5F5F5F5F5F5F5F5F5F5F5F5F5F5F5F5F5F5F5F5F5F5F5F5F5F5F5F5F5F5F5F5F5F5F5F5F5F5F5F5F5F5F5F5F5F5F5
310
F5F5F5F5F5F5F5F5F5F5C3F5F5F5F5F5F5F5F5F5F5F5F5F5F5F5F5F5F5F5F5F5F5F5F5F5F5F5E2E2F5F5F5F5F5F5F5F5F5F5F5F5F5F5F5F5F5F5F5F5F5F5F5F5F5F5F5C3F5F5F5F5F5F5F5F5F5F5F5F5F5F5F5F5F5F5F5F5F5F5F5F5F5F5F5F5F5F5F5F5F5F5F5F5F5F5F5F5F5F5F5F5F5F5F5F5F5F5F5F5F5F5F5F5F5F5F5
310
F5F5F5F5F5F5F5F5F5F5F5F5F5F5F5F5F5F5F5F5F5F5F5F5F5F5F5F5F5F5F5F5F5F5F5F5F5F5F5F5F5F5F5F5F5F5F5F5F5F5F5F5F5F5F5F5F5F5F5F5F5F5F5C3F5F5F5F5F5F5F5F5F5F5F5F5F5F5F5F5F5F5F5F5F5F5F5F5F5F5F5E2E2F5F5F5F5F5F5F5F5F5F5F5F5F5F5F5F5F5F5F5F5F5F5F5F5F5F5F5C3F5F5F5F5F5F5
310
F5F5F5F5F5F5F5F5F5F5F5F5F5F5F5F5F5F5F5F5F5F5F5F5F5F5F5F5F5F5F5F5F5F5F5F5F5F5F5F5F5F5F5F5F5F5F5F5F5F5F5F5F5F5F5F5F5F5F5F5F5F5F5F5F5F5F5F5F5F5F5F5F5F5F5F5F5F5F5F5F5F5F5F5F5F5F5F5F5F5F5F5F5F5F5F5F5F5F5F5F5F5F5F5F5F5F5F5F5F5F5F5F5F5F5F5C3F5F5F5F5F5F5F5F5F5F5
310
F5F5F5F5F5F5F5F5F5F5F5F5F5F5F5F5F5E2E2F5F5F5F5F5F5F5F5F5F5F5E2F5F5F5F5F5F5F5F5F5F5F5F5F5F5F5C3F5F5F5F5F5F5F5F5F5F5F5F5F5F5F5F5F5F5F5F5F5F5F5F5F5F5F5F5F5F5F5F5F5F5F5F5F5F5F5F5F5F5F5F5F5F5F5F5F5F5F5F5F5F5F5F5F5F5F5F5F5F5F5F5F5F5F5F5F5F5F5F5F5F5F5F5F5F5F5F5
310
F5F5F5F5F5F5F5F5F5F5F5F5F5F5F5F5F5F5F5F5F5F5F5F5F5F5F5F5F5F5F5F5F5F5F5F5F5F5F5F5F5F5C3F5F5F5F5F5F5F5F5F5F5F5F5F5F5F5E2F5F5F5F5F5F5F5F5F5F5F5E2E2F5F5F5F5F5F5F5F5F5F5F5E2F5F5F5F5F5F5F5F5F5F5F5F5F5F5F5C3F5F5F5F5F5F5F5F5F5F5F5F5F5F5F5F5F5F5F5F5F5F5F5F5F5F5F5
310
F5F5F5F5F5F5F5F5F5F5F5F5F5F5F5F5F5F5F5F5F5F5F5F5F5F5F5F5F5F5F5F5F5F5F5F5F5F5F5F5F5F5F5F5F5F5F5F5F5F5F5F5F5F5F5F5F5F5F5F5F5F5F5F5F5F5F5F5F5F5F5F5F5F5F5F5F5F5F5F5F5F5F5F5F5F5F5F5F5F5F5F5F5F5F5C3F5F5F5F5F5F5F5F5F5F5F5F5F5F5F5E2F5F5F5F5F5F5F5F5F5F5F5E2E2F5F5
310
F5F5F5F5F5F5F5F5F5E2F5F5F5F5F5F5F5F5F5F5F5F5F5F5F5C3F5F5F5F5F5F5F5F5F5F5F5F5F5F5F5F5F5F5F5F5F5F5F5F5F5F5F5F5F5F5F5F5F5F5F5F5F5F5F5F5F5F5F5F5F5DCE2DCDCC3C34CDCC3DCC3C34CC34CDCDCC3C3DCC34CC3C3C3C3DCDCF5F5F5F5F5F5F5F5F5F5F5F5F5F5F5F5F5F5F5F5F5F5F5F5F5F5F5F5
310
F5F5F5F5F5F5F5F5F5F5F5F5F5F5F5F5F5F5F5F5F5C3F5F5F5F5F5F5F5F5F5F5F5F5F5F5F5E2F5F5F5F5F5F5F5F5F5F5F5E2E2F5F5F5F5F5F5F5F5F5F5F5E2F5F5F5F5F5F5F5F5F5F5F5F5F5F5F5C3F5F5F5F5F5F5F5F5F5F5F5F5F5F5F5F5F5F5F5F5F5F5F5F5F5F5F5F5F5F5F5F5F5F5F5F5F5F5F5F5F5F5F5F5F5DCE2F5
310
F54CC3C34C4C4C4C4C4C4C4C4C4CBEC3C34C4CF5E2E2E2F5DCF5F5F5F5F5F5F5F5F5F5F5F5F5F5F5F5F5F5F5F5F5F5F5F5F5F5F5F5F5F5F5F5F5F5F5F5F5F5F5F5F5F5F5F5F5F5F5F5F5C3F5F5F5F5F5F5F5F5F5F5F5F5F5F5F5E2F5F5F5F5F5F5F5F5F5F5F5E2E2F5F5F5F5F5F5F5F5F5F5F5E2F5F5F5F5F5F5F5F5F5F5F5
310
F5F5F5F5C3F5F5F5F5F5F5F5F5F5F5F5F5F5F5F5F5F5F5F5F5F5F5F5F5F5F5F5F5F5F5F5F5F5F5F5F5F5F5F5F5F5F5F5F5F5DCE2F5F54CC3C34C4C4C4C4C4CC34C4C4CC3C3C3C3C34CC3C3C34CDCF5F5F5F5F5F5F5F5F5F5F5F5F5F5F5F5F5F5F5F5F5F5F5F5F5F5F5F5F5F5F5F5F5F5F5F5F5F5F5F5F5F5F5F5F5F5F5F5F5
310
C3F5F5F5F5F5F5F5F5F5F5F5F5F5F5F5E2F5F5F5F5F5F5F5F5F5F5F5E2E2F5F5F5F5F5F5F5F5F5F5F5E2F5F5F5F5F5F5F5F5F5F5F5F5F5F5F5C3F5F5F5F5F5F5F5F5F5F5F5F5F5F5F5F5F5F5F5F5F5F5F5F5F5F5F5F5F5F5F5F5F5F5F5F5F5F5F5F5F5F5F5F5F5DCE2F5F5F5F5F5F5F5F5F5F54C4C4C4C4CE24C4C4C4C4C4C
310
4C4C4CDCF5F5F5F5F5F5F5F5F5F5F5F5F5F5F5F5F5F5F5F5F5F5F5F5F5F5F5F5F5F5F5F5F5F5F5F5F5F5F5F5F5F5F5F5F5F5F5F5F5C3F5F5F5F5F5F5F5F5F5F5F5F5F5F5F5E2F5F5F5F5F5F5F5F5F5F5F5E2E2F5F5F5F5F5F5F5F5F5F5F5E2F5F5F5F5F5F5F5F5F5F5F5F5F5F5F5C3F5F5F5F5F5F5F5F5F5F5F5F5F5F5F5F5
310
F5F5F5F5F5F5F5F5F5F5F5F5F5F5F5F5F5F5F5F5F5F5F5F5F5F5F5F5F5DCE2F5F5F5F5F5F5F5F5F5F5F5F5F5F5F5E2F5F5F5F5F5F5F5F5F5DCF5F5F5F5F5F5F5F5F5F5F5F5F5F5F5F5F5F5F5F5F5F5F5F5F5F5F5F5F5F5F5F5F5F5F5F5F5F5F5F5F5F5F5F5F5F5F5F5F5C3F5F5F5F5F5F5F5F5F5F5F5F5F5F5F5E2F5F5F5F5
310
F5F5F5F5F5F5F5E2E2F5F5F5F5F5F5F5F5F5F5F5E2F5F5F5F5F5F5F5F5F5F5F5F5F5F5F5C3F5F5F5F5F5F5F5F5F5F5F5F5F5F5F5F5F5F5F5F5F5F5F5F5F5F5F5F5F5F5F5F5F5F5F5F5F5F5F5F5F5F5F5F5F5DCE2F5F5F5F5F5F5F5F5F5F5F5F5F5F5F5E2F5F5F5F5F5F5F5F5F5DCF5F5F5F5F5F5F5F5F5F5F5F5F5F5F5F5F5
310
F5F5F5F5F5F5F5F5F5F5F5F5F5F5F5F5F5F5F5F5F5F5F5F5F5F5F5F5F5F5F5F5C3F5F5F5F5F5F5F5F5F5F5F5F5F5F5F5E2F5F5F5F5F5F5F5F5F5F5F5E2E2F5F5F5F5F5F5F5F5F5F5F5E2F5F5F5F5F5F5F5F5F5F5F5F5F5F5F5C3F5F5F5F5F5F5F5F5F5F5F5F5F5F5F5F5F5F5F5F5F5F5F5F5F5F5F5F5F5F5F5F5F5F5F5F5F5
310
F5F5F5F5F5F5F5F5DCE2F5F5F5E2E2E2E2E2E2F5E2E2F5F5F5E2F5F5F5F5F5F5F5F5F5DCF5F5F5F5F5F5F5F5F5F5F5F5F5F5F5F5F5F5F5F5F5F5F5F5F5F5F5F5F5F5F5F5F5F5F5F5F5F5F5F5F5F5F5F5F5F5F5F5F5C3F5F5F5F5F5F5F5F5F5F5F5F5F5F5F5E2F5F5F5F5F5F5F5F5F5F5F5E2E2F5F5F5F5F5F5F5F5F5F5F5E2
310
F5F5F5F5F5F5F5F5F5F5F5F5F5F5F5C3F5F5F5F5F5F5F5F5F5F5F5F5F5F5F5F5F5F5F5F5F5F5F5F5F5F5F5F5F5F5F5F5F5F5F5F5F5F5F5F5F5F5F5F5F5DCE2F5E2E2E2E2E2E2E2E2E2E2E2E2E2E2E2F5F5F5F5F5F5F5F5F5DCF5F5F5F5F5F5F5F5F5F5F5F5F5F5F5F5F5F5F5F5F5F5F5F5F5F5F5F5F5F5F5F5F5F5F5F5F5F5
310
F5F5F5F5F5F5F5F5F5F5F5C3F5F5F5F5F5F5F5F5F5F5F5F5F5F5F5E2F5F5F5F5F5F5F5F5F5F5F5E2E2F5F5F5F5F5F5F5F5F5F5F5E2F5F5F5F5F5F5F5F5F5F5F5F5F5F5F5C3F5F5F5F5F5F5F5F5F5F5F5F5F5F5F5F5F5F5F5F5F5F5F5F5F5F5F5F5F5F5F5F5F5F5F5F5F5F5F5F5F5F5F5F5F5DCE2E2E2E2E2E2E2E2E2E2E2E2
310
E2E2E2E2E2F5F5F5F5F5F5F5F5F5DCF5F5F5F5F5F5F5F5F5F5F5F5F5F5F5F5F5F5F5F5F5F5F5F5F5F5F5F5F5F5F5F5F5F5F5F5F5F5F5F5F5F5F5F5F5F5F5F5F5C3F5F5F5F5F5F5F5F5F5F5F5F5F5F5F5E2F5F5F5F5F5F5F5F5F5F5F5E2E2F5F5F5F5F5F5F5F5F5F5F5E2F5F5F5F5F5F5F5F5F5F5F5F5F5F5F5C3F5F5F5F5F5
310
F5F5F5F5F5F5F5F5F5F5F5F5F5F5F5F5F5F5F5F5F5F5F5F5F5F5F5F5F5F5F5F5F5F5F5F5F5F5F5F5DCE2F5F5F5E2E2E2E2E2E2E2E2E2E2F5F5E2F5F5F5F5F5F5F5F5F5DCF5F5F5F5F5F5F5F5F5F5F5F5F5F5F5F5F5F5F5F5F5F5F5F5F5F5F5F5F5F5F5F5F5F5F5F5F5F5F5F5F5F5F5F5F5F5F5F5F5C3F5F5F5F5F5F5F5F5F5
310
F5F5F5F5F5F5E2F5F5F5F5F5F5F5F5F5F5F5E2E2F5F5F5F5F5F5F5F5F5F5F5E2F5F5F5F5F5F5F5F5F5F5F5F5F5F5F5C3F5F5F5F5F5F5F5F5F5F5F5F5F5F5F5F5F5F5F5F5F5F5F5F5F5F5F5F5F5F5F5F5F5F5F5F5F5F5F5F5F5F5F5F5F5DCE2F5F5F5E2E2F5E2E2E2E2E2F5F5F5F5E2EFE2E2E2E2F5F5F5F5DCF5F5F5F5F5F5
310
F5F5F5F5F5F5F5F5F5F5F5F5F5F5F5F5F5F5F5F5F5F5F5F5F5F5F5F5F5F5F5F5F5F5F5F5F5F5F5F5F5F5F5C3F5F5F5F5F5F5F5F5F5F5F5F5F5F5F5E2F5F5F5F5F5F5F5F5F5F5F5E2E2F5F5F5F5F5F5F5F5F5F5F5E2F5F5F5F5F5F5F5F5F5F5F5F5F5F5F5C3F5F5F5F5F5F5F5F5F5F5F5F5F5F5F5F5F5F5F5F5F5F5F5F5F5F5
310
F5F5F5F5F5F5F5F5F5F5F5F5F5F5F5F5F5F5F5DCE2F5F5F5E2E2F5E2F5F5F5E2F5F5F5F5E2EFE2E2E2F5F5F5F5F5DCF5F5F5F5F5F5F5F5F5F5F5F5F5F5F5F5CACACACACACACACACACACACACACACACACACACACACACACACACACAF5F5F5F5F5F5F5C3F5F5F5F5F5F5F5F5F5F5F5F5F5F5F5E2F5F5F5F5F5F5F5F5F5F5F5E2E2F5
310
F5F5F5F5F5F5F5F5F5F5E2F5F5F5F5F5F5F5F5F5F5F5F5F5F5F5C3F5F5F5F5F5F5F5F5F5F5F5F5F5F5F5F5F5F5F5F5F5F5F5F5F5F5F5F5F5F5F5F5F5F5F5F5F5F5F5F5F5F5F5F5F5DCE2F5F5F5E2E2F5F5F5F5F5E2F5F5F5F5E2E2E2E2E2E2E2E2E2F5DCF5F5F5F5F5F5F5F5F5F5F5F5F5F5F5F5CAF5F5F5F5F5F5F5E2F5F5
310
F5F5F5E2F5F5F5F5E2E2F5F5F5F5CAF5F5F5F5F5F5F5C3F5F5F5F5F5F5F5F5F5F5F5F5F5F5F5E2F5F5F5F5F5F5F5F5F5F5F5E2E2F5F5F5F5F5F5F5F5F5F5F5F5F5F5F5F5F5F5F5F5F5F5F5F5F5F5F5C3F5F5F5F5F5F5F5F5F5F5F5F5F5F5F5F5F5F5F5F5F5F5F5F5F5F5F5F5F5F5F5F5F5F5F5F5F5F5F5F5F5F5F5F5F5DCE2
310
F5F5F5E2E2E2E2E2E2E2E2F5F5F5F5E2E2E2E2F5F5F5F5F5F5DCF5F5F5F5F5F5F5F5F5F5F5F5F5F5F5F5CAE2E2E2E2E2E2E2E2E2E2E2E2E2E2E2E2E2E2E2E2E2E2E2E2E2F5F5F5F5F5F5F5C3F5F5F5F5F5F5F5F5F5F5F5F5F5F5F5F5F5F5F5F5F5F5F5F5F5F5F5E2E2F5F5F5F5F5F5F5F5F5F5F5F5F5F5F5F5F5F5F5F5F5F5
310
F5F5F5F5F5C3F5F5F5F5F5F5F5F5F5F5F5F5F5F5F5F5F5F5F5F5F5F5F5F5F5F5F5F5F5F5F5F5F5F5F5F5F5F5F5F5F5F5F5F5F5DCE2F5F5F5F5F5F5E2E2E2E2E2F5F5F5F5E2E2E2E2E2F5F5F5F5F5DCF5F5F5F5F5F5F5F5F5F5F5F5F5F5F5F5CAE2F5E2F5F5F5F5F5F5F5F5F5E2F5F5F5F5F5F5F5F5F5F5F5E2F5F5F5F5F5F5
310
F5C3F5F5F5F5F5F5F5F5F5F5F5F5F5F5F5F5F5F5F5F5F5F5F5F5F5F5F5E2E2F5F5F5F5F5F5F5F5F5F5F5F5F5F5F5F5F5F5F5F5F5F5F5F5F5F5F5C3F5F5F5F5F5F5F5F5F5F5F5F5F5F5F5F5F5F5F5F5F5F5F5F5F5F5F5F5F5F5F5F5F5F5F5F5F5F5F5F5F5F5F5F5F5DCE2F5F5F5F5F5F5F5F5F5F5F5F5F5F5F5E2E2E2E2E2E2
310
E2E2E2F5DCF5F5F5F5F5F5F5F5F5F5F5F5F5F5F5F5CAE2F5E2F5F5F5F5F5F5F5F5F5E2E2E2E2E2E2E2E2E2E2E2E2E2F5F5F5F5F5F5F5C3F5F5F5F5F5F5F5F5F5F5F5F5F5F5F5F5F5F5F5F5F5F5F5F5F5F5F5E2E2F5F5F5F5F5F5F5F5F5F5F5F5F5F5F5F5F5F5F5F5F5F5F5F5F5F5F5C3F5F5F5F5F5F5F5F5F5F5F5F5F5F5F5
310
F5F5F5F5F5F5F5F5F5F5F5F5F5F5F5F5F5F5F5F5F5F5F5F5F5F5F5F5F5F5DCE2F5F5F5F5F5F5F5F5F5F5F5F5F5F5F5E2F5F5F5F5F5F5F5F5F5DCF5F5F5F5F5F5F5F5F5F5F5F5F5F5F5F5CAE2F5E2F5F5F5F5F5F5F5F5F5E2E2E2E2E2E2E2E2E2E2E2E2E2F5F5F5F5F5F5F5C3F5F5F5F5F5F5F5F5F5F5F5F5F5F5F5F5F5F5F5
310
F5F5F5F5F5F5F5F5E2E2F5F5F5F5F5F5F5F5F5F5F5F5F5F5F5F5F5F5F5F5F5F5F5F5F5F5F5C3F5F5F5F5F5F5F5F5F5F5F5F5F5C3C3C3C3C3C3C3F5F5F5F5F5F5F5F5F5F5F5F5F5F5F5F5F5F5F5F5F5F5F5F5F5DCE2E2E2E2E2E2E2E2E2E2E2E2E2E2E2E2E2E2E2E2E2EFC3C3C3E2E2F5F5F5F5F5F5F5F5F5F5F5F5F5F5F5F5
310
CAE2F5E2F5F5F5F5F5F5F5F5F5E2E2E2E2E2E2E2E2E2E2E2E2E2F5F5F5F5F5F5F5C3F5F5F5F5F5F5F5F5F5F5F5F5F5F5F5F5F5F5F5F5F5F5F5F5F5F5F5E2E2F5F5F5F5F5F5F5F5F5F5F5F5F5F5F5F5F5F5F5F5F5F5F5F5F5F5F5C3F5F5F5F5F5F5F5F5F5F5F5F5F5C3C3C3C3C3C3C3F5F5F5F5F5F5F5F5F5F5F5F5F5F5F5F5
310
F5F5F5F5F5F5F5F5F5DCE2F5F5F5F5F5F5F5F5F5F5F5F5F5F5F5E2F5F5F5F5F5F5F5F5F5DCF5F5F5F5F5F5F5F5F5F5F5F5F5F5F5F5CAE2F5E2F5F5F5F5F5F5F5F5F5E2F5F5F5F5F5F5F5F5F5F5F5E2F5F5F5F5F5F5F5C3F5F5F5F5F5F5F5F5F5F5F5F5F5F5F5F5F5F5F5F5F5F5F5F5F5F5F5E2E2F5F5F5F5F5F5F5F5F5F5F5
310
F5F5F5F5F5F5F5F5F5F5F5F5F5F5F5F5C3F5F5F5F5F5F5F5F5F5F5F5F5F5C3C3C3C3C3C3C3F5F5F5F5F5F5F5F5F5F5F5F5F5F5F5F5F5F5F5F5F5F5F5F5F5DCE2DCDCDCDCDCDCDCDCDCDCDCDCDCDCDCE2DCDCDCDCDCDCDCDCDCDCF5F5F5F5F5F5F5F5F5F5F5F5F5F5F5F5CAE2F5E2F5F5F5F5F5F5F5F5F5E2E2E2E2E2E2E2E2
310
E2E2E2E2E2F5F5F5F5F5F5F5C3F5F5F5F5F5F5F5F5F5F5F5F5F5F5F5F5F5F5F5F5F5F5F5F5F5F5F5E2E2F5F5F5F5F5F5F5F5F5F5F5F5F5F5F5F5F5F5F5F5F5F5F5F5F5F5F5C3F5F5F5F5F5F5F5F5F5F5F5F5F5F5F5F5F5F5F5F5F5F5F5F5F5F5F5F5F5F5F5F5F5F5F5F5F5F5F5F5F5F5F5F5F5F5F5F5F5F5F5F5F5F5F5F5F5
310
F5F5F5F5F5F5F5F5F5F5F5F5F5F5F5F5F5F5F5F5F5F5F5F5F5F5F5F5F5F5F5F5CAE2F5E2F5F5F5F5F5F5F5F5F5E2E2E2E2E2E2E2E2E2E2E2E2E2F5F5F5F5F5F5F5C3F5F5F5F5F5F5F5F5F5F5F5F5F5F5F5F5F5F5F5F5F5F5F5F5F5F5F5E2E2F5F5F5F5F5F5F5F5F5F5F5E2F5F5F5F5F5F5F5F5F5F5F5F5F5F5F5C3CACACACA
310
CACACACACACACACACACACACACACACACACACACACACACACACACACAC3C3C3CACAF5F5F5F5F5F5F5F5F5F5F5F5F5F5F5F5F5F5F5F5F5F5F5F5F5F5F5F5F5F5F5F5F5F5F5F5F5F5F5F5F5F5F5F5F5F5F5F5F5F5F5F5F5F5CAE2F5E2F5F5F5F5F5F5F5F5F5E2E2E2E2E2E2E2E2E2E2E2E2E2F5F5F5F5F5F5F5C3F5F5F5F5F5F5F5F5
310
F5F5F5F5F5F5F5E2F5F5F5F5F5F5F5F5F5F5F5E2E2F5F5F5F5F5F5F5F5F5F5F5E2F5F5F5F5F5F5F5F5F5F5F5F5F5F5F5C3F5EFEFEFEF4CC34CEFEFEFEFEFEFEF4CEF4CEF4C4CEF4CEF4CEFEFEF4CEFC3C3EFEFEFF5F5F5F5F5F5F5F5F5F5CACACACACACACACACACACACACACACACACACACACACACACACACACACACACACACACACA
310
CACACAF5F5F5F5F5F5F5F5CAE2F5E2F5F5F5F5F5F5F5F5F5E2F5F5F5F5F5F5F5F5F5F5F5E2F5F5F5F5F5F5F5C3F5F5F5F5F5F5F5F5F5F5F5F5F5F5F5E2F5F5F5F5F5F5F5F5F5F5F5E2E2F5F5F5F5F5F5F5F5F5F5F5E2F5F5F5F5F5F5F5F5F5F5F5F5F5F5F5C3F5EFF5F5F54CC34C4C4C4C4C4C4C4C4C4C4C4CC34C4C4C4CBE
310
BEC3C34C4CEFC3EF4CEFF5F5F5F5F5F5F5F5F5F5CAE2E2E2E2E2E2E2E2E2E2E2E2E2E2E2E2E2E2E2E2E2E2E2E2E2E2E2E2E2E2E2E2E2E2CAF5F5F5F5F5F5F5F5CAE2F5E2F5F5F5F5F5F5F5F5F5E2E2E2E2E2E2E2E2E2E2E2E2E2F5F5F5F5F5F5F5C3F5F5F5F5F5F5F5F5F5F5F5F5F5F5F5E2F5F5F5F5F5F5F5F5F5F5F5E2E2
310
F5F5F5F5F5F5F5F5F5F5F5E2F5F5F5F5F5F5F5F5F5F5F5F5F5F5F5C3F5EFF5F5F54CC34C4C4C4C4C4C4C4C4C4C4C4C4C4C4C4C4C4C4C4C4C4C4C4C4C4C4CEFF5F5F5F5F5F5F5F5F5F5CAE2F5F5F5F5F5F5F5F5F5F5F5F5F5F5F5F5E2F5F5F5F5F5F5F5F5F5F5F5F5F5F5F5E2CAF5F5F5F5F5F5F5F5CAE2F5E2F5F5F5F5F5F5
310
F5F5F5E2E2E2E2E2E2E2E2E2E2E2E2E2F5F5F5F5F5F5F5C3F5F5F5F5F5F5F5F5F5F5F5F5F5F5F5E2F5F5F5F5F5F5F5F5F5F5F5E2E2F5F5F5F5F5F5F5F5F5F5F5E2F5F5F5F5F5F5F5F5F5F5F5F5F5F5F5C3F5EFF5F5F5F5F5F5F5F5282828282828282828F5F5F5F5F5F5F5F5F5F5F5F5F5F5F5EFF5F5F5F5F5F5F5F5F5F5CA
310
E2F5F5F5F5F5F5F5F5F5F5F5F5F5F5F5F5E2E2E2E2E2E2E2E2E2E2E2F5F5F5F5F5E2CAF5F5F5F5F5F5F5F5CAE2F5E2F5F5F5F5F5F54C4CF5E2F5F5F5F5F5F5F5F5F5F5F5E2F5F5F5F5F5F5F5C3F5F5F5F5F5F5F5F5F5F5F5F5F5F5F5E2F5F5F5F5F5F5F5F5F5F5F5E2E2F5F5F5F5F5F5F5F5F5F5F5E2F5F5F5F5F5F5F5F5F5
310
F5F5F5F5F5F5C3C3C3F5F5F5F5F5F5F5F528E2E2E2E2E2E2E22828F5F54C4C4C4C4C4C4C4C4CF5F5F5EFF5F5F5F5F5F5F5F5F5F5CAE2F5F5F5F5F5F5F5F5F5F5F5F5F5F5F5F5E2E2E2E2E2E2E2E2E2E2E2E2E2E2E2F5E2CAF5F5F5F5F5F5F5F5CAE2E2E2F5E2E2E2BEE24CE2F5E2E2E2E2E2E2E2E2E2E2E2E2E2F5F5F5F5F5
310
F5F5C3F5F5F5F5F5F5F5F5F5F5F5F5F5F5F5E2F5F5F5F5F5F5F5F5F5F5F5E2E2F5F5F5F5F5F5F5F5F5F5F5E2F5F5F5F5F5F5F5F5F5F5F5F5F5F5F5C3C3C3F52828E2E2F5F5F5E2E2F5F5BEF5F5E2E228F5F5F5F5F5F5F5F5F5F5F5F5F5F5EFF5F5F5F5F5F5F5F5F5F5CAE2F5F5F5F5F5F5F5F5F5F5F5F5F5F5F5F5E2F5F5F5
310
F5F5F5F5F5F5F5F5F5F5F5F5E2CAF5F5F5F5F5F5F5F5CAE2E2E2E2E2BEBEBEBE4CE2E2E2E2E2E2E2E2E2E2E2E2E2E2E2F5F5F5F5F5F5F5C3F5F5F5F5F5F5F5F5F5F5F5F5F5F5F5E2F5F5F5F5F5F5F5F5F5F5F5E2E2F5F5F5F5F5F5F5F5F5F5F5E2F5F5F5F5F5F5F5F5F5F5F5F5F5F5F5C3F5EFE2E2E2E2E2E2E2E2C3E22828
310
2828F5E2C328F5F54C4CF5F5F5F5F5F5F5F5F5F5EFF5F5F5F5F5F5F5F5F5F5CAE2F5F5F5F5E2E2E2BEE2E2E2E2F5F5F5F5E2F5F5F5E2E2E2E2BEE2E2E2F5F5F5F5E2CAF5F5F5F5F5F5F5F5CAE2F5E2E2E2BEE2BEE2282828E2E2E2E2E2E2E2E2E2E2E2E2E2F5F5F5F5F5F5F5C3F5F5F5F5F5F5F5F5F5F5F5F5F5F5F5E2F5F5
310
F5F5F5F5F5F5F5F5F5E2E2F5F5F5F5F5F5F5F5F5F5F5E2F5F5F5F5F5F5F5F5F5F5F5F5F5F5F5C3F5EFE2E2E2E2E2E2E2E2C3C3C3C328BE28E2C328F5F5F5F5F5F5F5F5F5F5F5F5F5F5EFF5F5F5F5F5F5F5F5F5F5CAE2F5F5F5F5E2E2E2BEE2E2E2E2F5F5F5F5E2F5F5F5E2E2E2E2BEE2E2E2F5F5F5F5E2CAF5F5F5F5F5F5F5
310
F5CAE2F5E2F5F52828F54C4C4CF5E2E2E2E2E2E2E2E2E2E2F5F5E2F5F5F5F5F5F5F5C3F5F5F5F5F5F5F5F5F5F5F5F5F5F5F5E2F5F5F5F5F5F5F5F5F5F5F5E2E2F5F5F5F5F5F5F5F5F5F5F5E2F5F5F5F5F5F5F5F5F5F5F5F5F5F5F5C3F5EFF5F5F5F5F5F5F5F5E2E2E2E2E2E2E2E2E228F5F5F5F5F5F5F5F5F5F5F5F5F5F5EF
310
F5F5F5F5F5F5F5F5F5F5CAE2F5F5F5F5E2E2F5BEF5F5E2E2F5F5F5F5E2F5F5F5E2E2F5F5BEF5E2E2F5F5F5F5E2CAF5F5F5F5F5F5F5F5CAE2F5E2F5F5F528E24CF5F5F5E2E2E2E2E2E2E2E2E2E2E2E2E2F5F5F5F5F5F5F5C3F5F5F5F5F5F5F5F5F5F5F5F5F5F5F5E2F5F5F5F5F5F5F5F5F5F5F5E2E2F5F5F5F5F5F5F5F5F5F5
310
F5E2F5F5F5F5F5F5F5F5F5F5F5F5F5F5F5C3F5EFF5F5F5F5F5F5F5F5E2E2E2E2E2E2E2E2E228F5F5F5F5F5F5F5F5F5F5F5F5F5F5EFF5F5F5F5F5F5F5F5F5F5CAE2F5F5F5F5E2E2F5BEBEF5E2E2F5F5F5F5E2F5F5F5E2E2F5BEBEF5E2E2F5F5F5F5E2CAF5F5F5F5F5F5F5F5CAE2F5E2E2E2E2E24CE2E2E2E2E2E2E2E2E2E2E2
310
E2E2E2E2E2E2F5F5F5F5F5F5F5C3F5F5F5F5F5F5F5F5F5F5F5F5F5F5F5E2F5F5F5F5F5F5F5F5F5F5F5E2E2F5F5F5F5F5F5F5F5F5F5F5E2F5F5F5F5F5F5F5F5F5F5F5F5F5F5F5C3F5EFF5F5F5F5F5F5F5F5F5F5F5F5F52828F52828F5F5F5F5F5F5F5F5F5F5F5F5F5F5EFF5F5F5F5F5F5F5F5F5F5CAE2F5F5F5F5E2E2E2BEE2
310
E2E2E2F5F5F5F5E2F5F5F5E2E2E2E2BEE2E2E2F5F5F5F5E2CAF5F5F5F5F5F5F5F5CAE2F5E2E2E2E2E22828E2E2E2E2F5F5F5F5F5F5F5F5F5F5F5E2F5F5F5F5F5F5F5C3F5F5F5F5F5F5F5F5F5F5F5F5F5F5F5E2F5F5F5F5F5F5F5F5F5F5F5E2E2F5F5F5F5F5F5F5F5F5F5F5E2F5F5F5F5F5F5F5F5F5F5F5F5F5F5F5C3F5EFF5
310
F5F5282828282828282828E2282828282828E2E22828F5F5F5E2BEF5F5F5F5EFF5F5F5F5F5F5F5F5F5F5CAE2F5F5F5F5E2E2E2BEBEE2E2E2F5F5F5F5E2F5F5F5E2E2E2BEBEE2E2E2F5F5F5F5E2CAF5F5F5F5F5F5F5F5CAE2F5E2E2E2E2E2E2E2E2E2E2E2E2E2E2E2E2E2E2E2E2E2E2E2F5F5F5F5F5F5F5C3F5F5F5F5F5F5F5
310
F5F5F5F5F5F5F5F5E2F5F5F5F5F5F5F5F5F5F5F5E2E2F5F5F5F5F5F5F5F5F5F5F5E2F5F5F5F5F5F5F5F5F5F5F5F5F5F5F5C3F5EFE2E2E2BEE2E2282828E2E2E2E2E2E2E228E2E2E2E2E2E2F5E2E2E2BEE2282828EFF5F5F5F5F5F5F5F5F5F5CAE2F5F5F5F5E2E2E2BEE2E2E2E2F5F5F5F5E2F5F5F5E2E2E2E2BEE2E2E2F5F5
310
F5F5E2CAF5F5F5F5F5F5F5F5CAE2F5E2E2E2E2E2E2E2E2E2E2E2E2E2E2E2E2E2E2E2E2E2E2E2F5F5F5F5F5F5F5C3F5F5F5F5F5F5F5F5F5F5F5F5F5F5F5E2F5F5F5F5F5F5F5F5F5F5F5E2E2F5F5F5F5F5F5F5F5F5F5F5E2F5F5F5F5F5F5F5F5F5F5F5F5F5F5F5C3F5EFE2E2E2E2E2E2282828E2E2E2E2E2E2E228E2E2E2E2E2
310
E2E2E228E2BEBEBE2828EFF5F5F5F5F5F5F5F5F5F5CAE2F5F5F5F5F5F5E2BEE2F5F5F5F5F5F5F5E2F5F5F5F5E2E2E2BEE2282828F5F5F5E2CAF5F5F5F5F5F5F5F5CAE2F5E2E2E22828BEF5F5E2E2E2E2E2E2E2E2E2E2E2E2E2E2E2F5F5F5F5F5F5F5C3F5F5F5F5F5F5F5F5F5F5F5F5F5F5F5E2F5F5F5F5F5F5F5F5F5F5F5E2
310
E2F5F5F5F5F5F5F5F5F5F5F5F5F5F5F5F5F5F5F5F5F5F5F5F5F5F5F5C3F5EFF5F52828F5F5F5F5F5F5F5F5BEF5F5F5F528282828282828282828BE28F52828EFF5F5F5F5F5F5F5F5F5F5CAE2F5F5F5F5E2E2E2BEE2E2E2E2F5F5F5F5E2F5F5F5E2E2BEE2BEBE282828F5F5F5E2CAF5F5F5F5F5F5F5F5CAE2F5E2E2E2F5BE28
310
28F5E2E2E2F5F5F5F5F5F5F5F5F5F5F5E2F5F5F5F5F5F5F5C3F5F5F5F5F5F5F5F5F5F5F5F5F5F5F5F5F5F5F5F5F5F5F5F5F5F5F5E2E2F5F5F5F5F5F5F5F5F5F5F5F5F5F5F5F5F5F5F5F5F5F5F5F5F5F5F5C3F5EFF5F5F5F5F5F5F5F5F5F5F5F5F5F5F5F5F5F5F5F5F5F5E2E2E2E2F5F5F5F5F5F5EFF5F5F5F5F5F5F5F5F5F5
310
CAE2F5F5F5F5E2E2E2BEE2E2E2E2F5F5F5F5E2F5F5F5E2E2BE28BEBEE22828F5F5F5E2CAF5F5F5F5F5F5F5F5CAE2F5E2E2E2282828E2E2E2E2E2E2E2E2E2E2E2E2E2E2E2E2E2F5F5F5F5F5F5F5C3F5F5F5F5F5F5F5F5F5F5F5F5F5F5F5F5F5F5F5F5F5F5F5F5F5F5F5E2E2F5F5F5F5F5F5F5F5F5F5F5F5F5F5F5F5F5F5F5F5
310
F5F5F5F5F5F5F5C3F5EFF5F5F5F5F5F5F5F5E2E2E2E2E2E2E2E2E2F5F5F5F5E2E2E2E2E2E2E2E2E2F5F5EFF5F5F5F5F5F5F5F5F5F5CAE2E2F5F5F5F5F5F5F5F5F5F5F5F5F5F5F5E2E2F5F5F5F5F5F5F5F5F5F5F5F5F5F5E2CAF5F5F5F5F5F5F5F5CAE2F5E2E2E2E2E2E2E2E2E2E2E2E2E2E2E2E2E2E2E2E2E2E2E2F5F5F5F5
310
F5F5F5C3F5F5F5F5F5F5F5F5F5F5F5F5F5F5F5F5F5F5F5F5F5F5F5F5F5F5F5E2E2F5F5F5F5F5F5F5F5F5F5F5F5F5F5F5F5F5F5F5F5F5F5F5F5F5F5F5C3F5EFF5F5F5F5F5F5F5F5E2E2E2E2E2E2E2E2E2F5F5F5F5E2E2F5E2E2E2E2E2E2F5F5EFF5F5F5F5F5F5F5F5F5F5CAE2E2E2E2E2E2E2E2E2E2E2E2E2E2E2E2E2E2E2E2
310
E2E2E2E2E2E2E2E2E2E2E2E2E2E2CAF5F5F5F5F5F5F5F5CAE2F5E2E2E2E2E2E2E2E2E2E228F5F5F5F5F5F5F5F5F5F5F5E2F5F5F5F5F5F5F5C3F5F5F5F5F5F5F5F5F5F5F5F5F5F5F5F5F5F5F5F5F5F5F5F5F5F5F5E2E2F5F5F5F5F5F5F5F5F5F5F5F5F5F5F5F5F5F5F5F5F5F5F5F5F5F5F5C3F5EFF5F5F5F5F5F5F5F5E2E2E2
310
F5E2BEE2E2E2F5F5F5E2E2E2E2E2E2E2F5E2F5F5F5EFF5F5F5F5F5F5F5F5F5F5CAE2E2E2E2E2E2E2E2E2E2E2E2E2E2E2E2E2E2E2E2E2E2E2E2E2E2E2E2E2E2E2E2E2E2CAF5F5F5F5F5F5F5F5CAE2F5E2F5F5F5F5F5F5F5F5F5E2E2E2E2E2E2E2E2E2E2E2E2E2F5F5F5F5F5F5F5C3F5F5F5F5F5F5F5F5F5F5F5F5F5F5F5F5F5
310
F5F5F5F5F5F5F5F5F5F5E2E2F5F5F5F5F5F5F5F5F5F5F5F5F5F5F5F5F5F5F5F5F5F5F5F5F5F5F5C3F5EFF5F5F5F5F5F5F5F5E2E2E2F5E2F5E2E2E2F5F5F5E2E2E2E2E2E2E2E2F5F5F5F5EFF5F5F5F5F5F5F5F5F5F5CAE2E2E2E2E2E2E2E2E2E2E2E2E2E2E2E2E2E2E2E2E2E2E2E2E2E2E2E2E2E2E2E2E2E2CAF5F5F5F5F5F5
310
F5F5CAE2E2E2E2E2E2E2E2E2E2E2E2E2E2E2E2E2E2E2E2E2E2E2E2E2F5F5F5F5F5F5F5C3F5F5F5F5F5F5F5F5F5F5F5F5F5F5F5F5F5F5F5F5F5F5F5F5F5F5F5E2E2F5F5F5F5F5F5F5F5F5F5F5F5F5F5F5F5F5F5F5F5F5F5F5F5F5F5F5C3F5EFF5F5F5F5F5F5F5F5E2E2E2F5BEF5E2E2E2F5F5F5F5F5F5F5F5F5F5F5F5F5F5F5
310
EFF5F5F5F5F5F5F5F5F5F5CAE2E2E2E2E2E2E2E2E2E2E2E2E2E2E2E2E2E2E2E2C3E2E2E2E2E2E2E2E2E2E2E2E2E2CAF5F5F5F5F5F5F5F5CAE2E2E2E2E2E2E2E2E2E2E2E2E2E2E2E2E2E2E2E2E2E2E2E2E2F5F5F5F5F5F5F5C3F5F5F5F5F5F5F5F5F5F5F5F5F5F5F5F5F5F5F5F5F5F5F5F5F5F5F5E2E2F5F5F5F5F5F5F5F5F5
310
F5F5F5F5F5F5F5F5F5F5F5F5F5F5F5F5F5F5C3F5EFF5F5F5F5F5F5F5F5E2E2E2E2E2E2E2E2E2F5F5F5F5F5F5F5F5F5F54C4C4C4C4C4CF5F5F5F5F5F5F5F5F5F5CAE2E2E2E2E2E2E2E2E2E2E2E2E2E2E2E2E2E2E2E2E2E2E2E2E2E2E2E2E2E2E2E2E2E2CAF5F5F5F5F5F5F5F5CAF5F5F5F5F5F5F5F5F5F5F5F5F5F5F5F5F5F5
310
F5F5F5F5F5F5CAF5F5F5F5F5F5F5C3F5F5F5F5F5F5F5F5F5F5F5F5F5F5F5F5F5F5F5F5F5F5F5F5F5F5F5E2E2F5F5F5F5F5F5F5F5F5F5F5F5F5F5F5F5F5F5F5F5F5F5F5F5F5F5F5C3F5EFF5F5F5F5F5F5F5F5F5F5F5F5BEF5F5F5F5F5F5F5F5F5F5F5F5F5F5C34C4CC34C4CF5F5F5F5F5F5F5F5F5F5CAF5F5F5E2F5F5E2F5E2
310
F5F5F5F5F5F5F5F5F5F5F5F5F5F5F5F5F5F5F5F5F5F5F5F5F5CAF5F5F5F5F5F5F5F5CAF5F5F5F5F5F5F5F5C3C3C3E2E2E2E2E2F5F5F5F5F5F5F5F5CAF5F5F5F5F5F5F5C3F5F5F5F5F5F5F5F5F5F5F5F5F5F5F5F5F5F5F5F5F5F5F5F5F5F5F5E2E2F5F5F5F5F5F5F5F5F5F5F5E2F5F5F5F5F5F5F5F5F5F5F5F5F5F5F5C3F5EF
310
EFEFEFEFEFEFEFEFEFEFEFEFEFEFEFEFEFEFEFEFEFEFEFEFEFEFEFEFEFEFEFEFEFF5F5F5F5F5F5F5F5F5F5CAF5F5C3C3C3C3F5F5F5F5F5F5F5F5F5F5F5F5F5F5F5F5F5F5F5F5F5F5F5F5F5F5F5F5CAF5F5F5F5F5F5F5F5CAF5EFEFEFEFEFF5F5F5F5F5F5F5F5F5F5F5F5F5F5F5F5F5F5CAF5F5F5F5F5F5F5C3F5F5F5F5F5F5
310
F5F5F5F5F5F5F5F5F5E2F5F5F5F5F5F5F5F5F5F5F5E2E2F5F5F5F5F5F5F5F5F5F5F5E2F5F5F5F5F5F5F5F5F5F5F5F5F5F5F5C3CACACACACACACACACACACACACACACACACACACACACACACACACACACACACACACACACACACAF5F5F5F5F5F5F5F5F5F5CAF5F5EFEFEFEFEFF5F5F5F5F5F5F5F5F5F5F5F5F5F5F5F5F5F5F5F5F5F5F5
310
F5F5F5F5CAF5F5F5F5F5F5F5F5CACACACACACACACACACACACACACACACACACACACACACACACACACAF5F5F5F5F5F5F5C3F5F5F5F5F5F5F5F5F5F5F5F5F5F5F5E2F5F5F5F5F5F5F5F5F5F5F5E2E2F5F5F5F5F5F5F5F5F5F5F5E2F5F5F5F5F5F5F5F5F5F5F5F5F5F5F5C3F5F5F5F5F5F5F5F5F5F5F5F5F5F5F5F5F5F5F5F5F5F5F5
310
F5F5F5F5F5F5F5F5F5F5F5F5F5F5F5F5F5F5F5F5F5F5CACACACACACACACACACACACACACACACACACACACACACACACACACACACACACACACACACACACAF5F5F5F5F5F5F5F5F5F5F5F5F5F5F5F5F5F5F5F5F5F5F5F5F5F5F5F5F5F5F5F5F5F5F5F5F5F5F5F5F5C3F5F5F5F5F5F5F5F5F5F5F5F5F5F5F5E2F5F5F5F5F5F5F5F5F5F5F5
310
E2E2F5F5F5F5F5F5F5F5F5F5F5E2F5F5F5F5F5F5F5F5F5F5F5F5F5F5F5C3F5F5F5F5F5F5F5F5F5F5F5F5F5F5F5F5F5F5F5F5F5F5F5F5F5F5F5F5F5F5F5F5F5F5F5F5F5F5F5F5F5F5F5F5F5F5F5F5F5F5F5F5F5F5F5F5F5F5F5F5F5F5F5F5F5F5F5F5F5F5F5F5F5F5F5F5F5F5F5F5F5F5F5F5F5F5F5F5F5F5F5F5F5F5F5F5F5
310
F5F5F5F5F5F5F5F5F5F5F5F5F5F5F5F5F5F5F5F5F5F5F5F5F5C3F5F5F5F5F5F5F5F5F5F5F5F5F5F5F5E2F5F5F5F5F5F5F5F5F5F5F5E2E2F5F5F5F5F5F5F5F5F5F5F5E2F5F5F5F5F5F5F5F5F5F5F5F5F5F5F5C3F5F5F5F5F5F5F5F5F5F5F5F5F5C3C3C3C3C3C3C3F5F5F5F5F5F5F5F5F5F5F5F5F5F5F5F5F5F5F5F5F5F5F5F5
310
F5F5F5F5F5F5F5F5F5F5F5F5F5F5F5F5F5F5F5F5F5F5F5F5F5F5F5F5F5F5F5F5F5F5F5F5F5F5F5F5F5F5F5F5F5F5F5F5F5F5F5F5F5F5F5F5F5F5F5F5F5F5F5F5F5F5F5F5F5F5F5F5F5F5F5F5F5F5C3F5F5F5F5F5F5F5F5F5F5F5F5F5F5F5E2F5F5F5F5F5F5F5F5F5F5F5E2E2F5F5F5F5F5F5F5F5F5F5F5E2F5F5F5F5F5F5F5
310
F5F5F5F5F5F5F5F5C3F5F5F5F5F5F5F5F5F5F5F5F5F5C3C3C3C3C3C3C3F5F5F5F5F5F5F5F5F5F5F5F5F5F5F5F5F5F5F5F5F5F5F5F5F5F5F5F5F5F5F5F5F5F5F5F5F5F5F5F5F5F5F5F5F5F5F5F5F5F5F5F5F5F5F5F5F5F5F5F5F5F5F5F5F5F5F5F5F5F5F5F5F5F5F5F5F5F5F5F5F5F5F5F5F5F5F5F5F5F5F5F5F5F5F5F5F5F5
310
F5F5F5F5C3F5F5F5F5F5F5F5F5F5F5F5F5F5F5F5E2F5F5F5F5F5F5F5F5F5F5F5E2E2F5F5F5F5F5F5F5F5F5F5F5E2F5F5F5F5F5F5F5F5F5F5F5F5F5F5F5C3F5F5F5F5F5F5F5F5F5F5F5F5F5C3C3C3C3C3C3C3F5F5F5F5F5F5F5F5F5F5F5F5F5F5F5F5F5F5F5F5F5F5F5F5F5F5F5F5F5F5F5F5F5F5F5F5F5F5F5F5F5F5F5F5F5
310
F5F5F5F5F5F5F5F5F5F5F5F5F5F5F5F5F5F5F5F5F5F5F5F5F5F5F5F5F5F5F5F5F5F5F5F5F5F5F5F5F5F5F5F5F5F5F5F5F5F5F5F5F5F5F5F5F5C3F5F5F5F5F5F5F5F5F5F5F5F5F5F5F5E2F5F5F5F5F5F5F5F5F5F5F5E2E2F5F5F5F5F5F5F5F5F5F5F5E2F5F5F5F5F5F5F5F5F5F5F5F5F5F5F5C3F5F5F5F5F5F5F5F5F5F5F5F5
310
F5C3C3C3C3C3C3C3F5F5F5F5F5F5F5F5F5F5F5F5F5F5F5F5F5F5F5F5F5F5F5F5F5F5F5F5F5F5F5F5F5F5F5F5F5F5F5F5F5F5F5F5F5F5F5F5F5F5F5F5F5F5F5F5F5F5F5F5F5F5F5F5F5F5F5F5F5F5F5F5F5F5F5F5F5F5F5F5F5F5F5F5F5F5F5F5F5F5F5F5F5F5F5F5F5F5F5F5F5F5C3F5F5F5F5F5F5F5F5F5F5F5F5F5F5F5E2
310
F5F5F5F5F5F5F5F5F5F5F5E2E2F5F5F5F5F5F5F5F5F5F5F5E2F5F5F5F5F5F5F5F5F5F5F5F5F5F5F5C3F5F5F5F5F5F5F5F5F5F5F5F5F5F5F5F5F5F5F5F5F5F5F5F5F5F5F5F5F5F5F5F5F5F5F5F5F5F5F5F5F5F5F5F5F5F5F5F5F5F5F5F5F5F5F5F5F5F5F5F5F5F5F5F5F5F5F5F5F5F5F5F5F5F5F5F5F5F5F5F5F5F5F5CACACA
310
CACACACACACACACACACACACACACACACACACACACACACACACACACACACACACACACACACACACAC3F5F5F5F5F5F5F5F5F5F5F5F5F5F5F5E2F5F5F5F5F5F5F5F5F5F5F5E2E2F5F5F5F5F5F5F5F5F5F5F5E2F5F5F5F5F5F5F5F5F5F5F5F5F5F5F5C3CAEFEFEFEF4CC34CEFEFEFC3EFEFEFC3C3C3EFC34CEF4CEFC3C3EFC34CC3C3C3C3
310
EFEFF5F5F5F5F5F5F5F5F5F5F5F5F5F5F5F5F5F5F5F5F5F5F5F5F5F5F5F5F5F5F5F5F5F5F5F5F5F5F5F5F5F5F5F5F5F5F5F5CAE2E2E2E2E2E2E2E2E2E2E2E2E2E2E2E2E2E2E2E2E2E2E2E2E2E2E2E2E2E2E2E2E2E2E2E2E2E2C3F5F5F5F5F5F5F5F5F5F5F5F5F5F5F5E2F5F5F5F5F5F5F5F5F5F5F5E2E2F5F5F5F5F5F5F5F5
310
F5F5F5E2F5F5F5F5F5F5F5F5F5F5F5F5F5F5F5C3F5EFF5F5F54CC34C4C4C4C4C4C4C4C4C4C4C4CC34C4C4C4CBEBEC34CC3C3EFEFEF4CEFF5F5F5F5F5F5F5F5F5F5F5F5F5F5F5F5F5F5F5F5F5F5F5F5F5F5F5F5F5F5F5F5F5F5F5F5F5F5F5F5F5F5F5F5F5F5F5F5CAE2E2E2E2E2E2E2E2E2E2E2E2E2E2E2E2E2E2E2E2E2E2E2
310
E2E2E2E2E2E2E2E2E2E2E2E2E2E2E2C3F5F5F5F5F5F5F5F5F5F5F5F5F5F5F5E2F5F5F5F5F5F5F5F5F5F5F5E2E2F5F5F5F5F5F5F5F5F5F5F5E2F5F5F5F5F5F5F5F5F5F5F5F5F5F5F5C3F5EFF5F5F54CC34C4C4C4C4C4C4C4C4C4C4C4CC34C4C4C4CC34CC34C4C4CC3C3C34CEFF5F5F5F5F5F5F5F5F5F5F5F5F5F5F5F5F5F5F5
310
F5F5F5F5F5F5F5F5F5F5F5F5F5F5F5F5F5F5F5F5F5F5F5F5F5F5F5F5F5CAE2E2E2E2E2E2E2E2E2E2E2E2E2E2E2E2E2E2E2E2F5F5F5F5F5BEE2F5F5F5F5F5F5F5F5F5F5E2C3F5F5F5F5F5F5F5F5F5F5F5F5F5F5F5E2F5F5F5F5F5F5F5F5F5F5F5E2E2F5F5F5F5F5F5F5F5F5F5F5E2F5F5F5F5F5F5F5F5F5F5F5F5F5F5F5C3F5
310
EFF5F5F54CC34C4C4C4C4C28284C4C4C4C4C28284C4C4C4C4C4C4C4C4C4C4C4C4CEFF5F5F5F5F5F5F5F5F5F5F5F5F5F5F5F5F5F5F5F5F5F5F5F5F5F5F5F5F5F5F5F5F5F5F5F5F5F5F5F5F5F5F5F5F5F5F5F5CAE2E2E2E2E2E2E2E2E2E2E2E2E2E2E2E2E2E2E2E2F5F5E2E2E2BEE228E2E2F5F5F5F5F5F5F5E2C3F5F5F5F5F5
310
F5F5F5F5F5F5F5F5F5F5E2F5F5F5F5F5F5F5F5F5F5F5E2E2F5F5F5F5F5F5F5F5F5F5F5E2F5F5F5F5F5F5F5F5F5F5F5F5F5F5F5C3C3C3F5F5F5F5F5EFEFEFF5F528282828282828282828F54C4C4C4C4C4C4C4C4CF5F5EFF5F5F5F5F5F5F5F5F5F5F5F5F5F5F5F5F5F5F5F5F5F5F5F5F5F5F5F5F5F5F5F5F5F5F5F5F5F5F5F5
310
F5F5F5F5F5F5F5F5CAE2E2E2E2E2E2E2E2E2E2E2E2E2E2E2E2E2E2E2E2F5F5E2E2BE28E2282828F5F5F5F5F5F5F5E2C3F5F5F5F5F5F5F5F5F5F5F5F5F5F5F5E2F5F5F5F5F5F5F5F5F5F5F5E2E2F5F5F5F5F5F5F5F5F5F5F5E2F5F5F5F5F5F5F5F5F5F5F5F5F5F5F5C3C3C3F5F5F5F5F5F5282828F5E2E2F5F5BEF5F5E2E228
310
F54C4C4C4C4C4C4CF5F5F5F5EFF5F5F5F5F5F5F5F5F5F5F5F5F5F5F5F5F5F5F5F5F5F5F5F5F5F5F5F5F5F5F5F5F5F5F5F5F5F5F5F5F5F5F5F5F5F5F5F5CAE2E2E2E2E2E2E2E2E2E2E2E2E2E2E2E2E2E2E2E2F5F52828282828282828F5F5F5F5F5F5F5E2C3F5F5F5F5F5F5F5F5F5F5F5F5F5F5F5E2F5F5F5F5F5F5F5F5F5F5
310
F5E2E2F5F5F5F5F5F5F5F5F5F5F5F5F5F5F5F5F5F5F5F5F5F5F5F5F5F5F5C3C3C3F5F5F5E2E2E2BE2828E2E2E2282828F5F5E2E228F54C4CF5F5F5F5F5F5F5F5F5EFF5F5F5F5F5F5F5F5F5F5F5F5F5F5F5F5F5F5F5F5F5F5F5F5F5F5F5F5F5F5F5F5F5F5F5F5F5F5F5F5F5F5F5F5F5F5F5F5CAE2E2E2E2E2E2E2E2E2E2E2E2
310
E2E2E2E2E2E2E2E2F5F528E2E2E2E2E2E22828F5F5F5F5F5F5E2C3F5F5F5F5F5F5F5F5F5F5F5F5F5F5F5F5F5F5F5F5F5F5F5F5F5F5F5E2E2F5F5F5F5F5F5F5F5F5F5F5F5F5F5F5F5F5F5F5F5F5F5F5F5F5F5F5C3F5EFF5F5F5E2282828E2E2E2E2EFEFEF282828E2EF28F5F5F5F5F5F5F5F5F5F5F5F5EFF5F5F5F5F5F5F5F5
310
F5F5F5F5F5F5F5F5F5F5F5F5F5F5F5F5F5F5F5F5F5F5F5F5F5F5F5F5F5F5F5F5F5F5F5F5F5F5F5F5CAE2E2C3C3C3E2E2E2E2E2E2E2E2E2E2E2E2E2E2E2F5F5E2F52828F5F5F5E228F5F5F5F5F5F5E2C3F5F5F5F5F5F5F5F5F5F5F5F5F5F5F5F5F5F5F5F5F5F5F5F5F5F5F5E2E2F5F5F5F5F5F5F5F5F5F5F5F5F5F5F5F5F5F5
310
F5F5F5F5F5F5F5F5F5C3F5EFF5F5F5F5F52828F5F5F5E2E2282828E2E2E2E228F5F5F5F5F5F5F5F5F5F5F5F5EFF5F5F5F5F5F5F5F5F5F5F5F5F5F5F5F5F5F5F5F5F5F5F5F5F5F5F5F5F5F5F5F5F5F5F5F5F5F5F5F5F5F5F5F5F5F5F5F5CAE2E2C3C3E2E2E2E2E2E2E2E2E2E2E2E2E2E2E2E2F5F5E2F5282828F5F5E228F5F5
310
F5F5F5F5E2C3F5F5F5F5F5F5F5F5F5F5F5F5F5F5F5F5F5F5F5F5F5F5F5F5F5F5F5E2E2F5F5F5F5F5F5F5F5F5F5F5F5F5F5F5F5F5F5F5F5F5F5F5F5F5F5F5C3F5EFF5F5F5F5F5F5F5F5F5F5E2E2E2E2E2E2E2E2E228F5F5F5F5F5F5F5F5F5F5F5F5EFF5F5F5F5F5F5F5F5F5F5F5F5F5F5F5F5F5F5F5F5F5F5F5F5F5F5F5F5F5
310
F5F5F5F5F5F5F5F5F5F5F5F5F5F5F5F5F5F5F5CAE2E2C3C3E2E2E2E2E2E2E2E2E2E2E2E2E2E2E2E2F5F5E2F52828282828E228F5F5F5F5F5F5E2C3F5F5F5F5F5F5F5F5F5F5F5F5F5F5F5F5F5F5F5F5F5F5F5F5F5F5F5E2E2F5F5F5F5F5F5F5F5F5F5F5F5F5F5F5F5F5F5F5F5F5F5F5F5F5F5F5C3F5EFF5F5F5F5F5F5F5F5F5
310
F52828282828282828282828282828282828F5F5F5F5F5EFF5F5F5F5F5F5F5F5F5F5F5F5F5F5F5F5F5F5F5F5F5F5F5F5F5F5F5F5F5F5F5F5F5F5F5F5F5F5F5F5F5F5F5F5F5F5F5F5CAE2E2E2E2E2E2E2E2E2E2E2E2E2E2E2E2E2E2E2E2F5F5E2E2E2E2E2E2E2E228F5F5F5F5F5F5E2C3F5F5F5F5F5F5F5F5F5F5F5F5F5F5F5
310
F5F5F5F5F5F5F5F5F5F5F5F5E2E2F5F5F5F5F5F5F5F5F5F5F5F5F5F5F5F5F5F5F5F5F5F5F5F5F5F5F5C3F5EFF5F5F5F5E2282828282828F5E2E2E2E2E2F528F528E2E2E2E2E228F5F5F5F5F5EFF5F5F5F5F5F5F5F5F5F5F5F5F5F5F5F5F5F5F5F5F5F5F5F5F5F5F5F5F5F5F5F5F5F5F5F5F5F5F5F5F5F5F5F5F5F5F5F5CAE2
310
E2C3C3E2E2E2E2E2E2E2E2E2E2E2E2E2E2E2E2F5F5E2E2E228E2E2E2E228F5F5F5F5F5F5E2C3F5F5F5F5F5F5F5F5F5F5F5F5F5F5F5F5F5F5F5F5F5F5F5F5F5F5F5E2E2F5F5F5F5F5F5F5F5F5F5F5F5F5F5F5F5F5F5F5F5F5F5F5F5F5F5F5C3F5EFF5F5E2E228F5F5E2E22828E2E2E2E2E2E2E228F528E2E2E2E2E228F5F5F5
310
F5F5EFF5F5F5F5F5F5F5F5F5F5F5F5F5F5F5F5F5F5F5F5F5F5F5F5F5F5F5F5F5F5F5F5F5F5F5F5F5F5F5F5F5F5F5F5F5F5F5F5CAE2E2C3C3E2E2E2E2E2E2E2E2E2E2E2E2E2E2E2E2F5F5282828282828282828282828282828E2C3F5F5F5F5F5F5F5F5F5F5F5F5F5F5F5F5F5F5F5F5F5F5F5F5F5F5F5E2E2F5F5F5F5F5F5F5
310
F5F5F5F5F5F5F5F5F5F5F5F5F5F5F5F5F5F5F5F5C3F5EFF5F5E2E22828E2E22828E2E2E2E2E2E2E2E2E2F528282828282828F5F5F5F5F5EFF5F5F5F5F5F5F5F5F5F5F5F5F5F5F5F5F5F5F5F5F5F5F5F5F5F5F5F5F5F5F5F5F5F5F5F5F5F5F5F5F5F5F5F5F5F5F5F5CAE2E2E2E2E2E2E2E2E2E2E2E2E2E2E2E2E2E2E2E2F5F5
310
28E2E2E2E2E2E22828E2E2BEE2E228E2C3F5F5F5F5F5F5F5F5F5F5F5F5F5F5F5F5F5F5F5F5F5F5F5F5F5F5F5E2E2F5F5F5F5F5F5F5F5F5F5F5E2F5F5F5F5F5F5F5F5F5F5F5F5F5F5F5C3F5EFF5F5F5F5F5F5F5F5F5F5E22828282828282828F5F5F5F5F5F5F5F5F5F5F5F5F5EFF5F5F5F5F5F5F5F5F5F5F5F5F5F5F5F5F5F5
310
F5F5F5F5F5F5F5F5F5F5F5F5F5F5F5F5F5F5F5F5F5F5F5F5F5F5F5F5F5F5CAE2E2C3C3E2E2E2E2E2E2E2E2E2E2E2E2E2E2E2E2F5F528E2E22828E2E228E2E2E2F5F5E228E2C3F5F5F5F5F5F5F5F5F5F5F5F5F5F5F5E2F5F5F5F5F5F5F5F5F5F5F5E2E2F5F5F5F5F5F5F5F5F5F5F5E2F5F5F5F5F5F5F5F5F5F5F5F5F5F5F5C3
310
F5EFF5F5F5F5F5F5F5F5F5F5E2E2E2E2E2E2E2E228F5F5F5E2E2E2E2F5F5F5F5F5F5EFF5F5F5F5F5F5F5F5F5F5F5F5F5F5F5F5F5F5F5F5F5F5F5F5F5F5F5F5F5F5F5F5F5F5F5F5F5F5F5F5F5F5F5F5F5F5F5F5CAE2E2C3C3E2E2E2E2E2E2E2E2E2E2E2E2E2E2E2E2F5F52828282828282828E2E2E2E2E2E2E2E2C3F5F5F5F5
310
F5F5F5F5F5F5F5F5F5F5F5E2F5F5F5F5F5F5F5F5F5F5F5E2E2F5F5F5F5F5F5F5F5F5F5F5E2F5F5F5F5F5F5F5F5F5F5F5F5F5F5F5C3F5EFF5F5F5F5F5F5F5F5F5F5E2E2E2E2E2E2E2E228F5F5E2E2E2E2E2E2E2E2E2F5F5EFF5F5F5F5F5F5F5F5F5F5F5F5F5F5F5F5F5F5F5F5F5F5F5F5F5F5F5F5F5F5F5F5F5F5F5F5F5F5F5
310
F5F5F5F5F5F5F5F5F5CAE2E2C3E2E2E2E2E2E2E2E2E2E2E2E2E2E2E2E2E2F5F5E2E2E2E2E2E2E2E2F5F5F5F5F5F5F5E2C3F5F5F5F5F5F5F5F5F5F5F5F5F5F5F5E2F5F5F5F5F5F5F5F5F5F5F5E2E2F5F5F5F5F5F5F5F5F5F5F5E2F5F5F5F5F5F5F5F5F5F5F5F5F5F5F5C3F5EFF5F5F5F5F5F5F5F5F5F5E2E2F5BEBEBEF5E228
310
F5F5E2E2F5E2E2E2E2E2E2F5F5EFF5F5F5F5F5F5F5F5F5F5F5F5F5F5F5F5F5F5F5F5F5F5F5F5F5F5F5F5F5F5F5F5F5F5F5F5F5F5F5F5F5F5F5F5F5F5F5F5CAE2E2C3C3E2E2E2E2E2E2E2E2E2E2E2E2E2E2E2E2F5F5E2E2E2E2E2E2E2E2F5F5F5F5F5F5F5E2C3F5F5F5F5F5F5F5F5F5F5F5F5F5F5F5E2F5F5F5F5F5F5F5F5F5
310
F5F5E2E2F5F5F5F5F5F5F5F5F5F5F5E2F5F5F5F5F5F5F5F5F5F5F5F5F5F5F5C3F5EFF5F5F5F5F5F5F5F5F5F5E2E2F5F5BEF5F5E228F5E2E2E2E2E2F5F5F5E2F5F5F5EFF5F5F5F5F5F5F5F5F5F5F5F5F5F5F5F5F5F5F5F5F5F5F5F5F5F5F5F5F5F5F5F5F5F5F5F5F5F5F5F5F5F5F5F5F5F5F5F5CAE2E2C3C3C3E2E2E2E2E2E2
310
E2E2E2E2E2E2E2E2E2F5F5E2E2F5E2E2F5E2E2F5F5F5F5F5F5F5E2C3F5F5F5F5F5F5F5F5F5F5F5F5F5F5F5E2F5F5F5F5F5F5F5F5F5F5F5E2E2F5F5F5F5F5F5F5F5F5F5F5E2F5F5F5F5F5F5F5F5F5F5F5F5F5F5F5C3F5EFF5F5F5F5F5F5F5F5F5F5E2E2E2E2E2E2E2E228F5E2E2E2E2E2E2E2E2E2F5F5F5EFF5F5F5F5F5F5F5
310
F5F5F5F5F5F5F5F5F5F5F5F5F5F5F5F5F5F5F5F5F5F5F5F5F5F5F5F5F5F5F5F5F5F5F5F5F5F5F5F5F5CAE2E2E2E2E2E2E2E2E2E2E2E2E2E2E2E2E2E2E2E2F5F5E2E2F5E2E2F5E2E2F5F5F5F5F5F5F5E2C3F5F5F5F5F5F5F5F5F5F5F5F5F5F5F5E2F5F5F5F5F5F5F5F5F5F5F5E2E2F5F5F5F5F5F5F5F5F5F5F5E2F5F5F5F5F5
310
F5F5F5F5F5F5F5F5F5F5C3F5EFF5F5F5F5F5F5F5F5F5F5E2E2E2E2E2E2E22828F5F5F5F5F5E2E2E2E2F5F5F5F5EFF5F5F5F5F5F5F5F5F5F5F5F5F5F5F5F5F5F5F5F5F5F5F5F5F5F5F5F5F5F5F5F5F5F5F5F5F5F5F5F5F5F5F5F5F5F5F5F5CAE2E2C3C3E2E2E2E2E2E2E2E2E2E2E2E2E2E2E2E2F5F5E2E2F5BEF5F5E2E2F5F5
310
F5F5F5F5F5E2C3F5F5F5F5F5F5F5F5F5F5F5F5F5F5F5E2F5F5F5F5F5F5F5F5F5F5F5E2E2F5F5F5F5F5F5F5F5F5F5F5E2F5F5F5F5F5F5F5F5F5F5F5F5F5F5F5C3F5EFF5F5F5F5F5F5F5F5F5F5E2E2E2E2BEE2E2E2E2F5F5F5F5F5F5F5F54C4C4C4C4C4CF5F5F5F5F5F5F5F5F5F5F5F5F5F5F5F5F5F5F5F5F5F5F5F5F5F5F5F5
310
F5F5F5F5F5F5F5F5F5F5F5F5F5F5F5F5F5F5F5F5CAE2E2E2E2E2E2E2E2E2E2E2E2E2E2E2E2E2E2E2E2F5F5E2E2E2E2E2E2E2E2F5F5F5F5F5F5F5E2C3F5F5F5F5F5F5F5F5F5F5F5F5F5F5F5E2F5F5F5F5F5F5F5F5F5F5F5E2E2F5F5F5F5F5F5F5F5F5F5F5E2F5F5F5F5F5F5F5F5F5F5F5F5F5F5F5C3F5EFF5F5F5F5F5F5F5F5
310
F5F5E2E2E2E2BEE2E2E2E2F5F5F5F5F5F5F5F5C3C3C3C34C4CF5F5F5F5F5F5F5F5F5F5F5F5F5F5F5F5F5F5F5F5F5F5F5F5F5F5F5F5F5F5F5F5F5F5F5F5F5F5F5F5F5F5F5F5F5F5F5F5CAE2E2E2E2E2E2E2E2E2E2E2E2E2E2E2E2E2E2E2E2F5F5F5F5F5BEF5F5F5F5F5F5F5F5F5F5F5E2C3F5F5F5F5F5F5F5F5F5F5F5F5F5F5
310
F5E2F5F5F5F5F5F5F5F5F5F5F5E2E2F5F5F5F5F5F5F5F5F5F5F5E2F5F5F5F5F5F5F5F5F5F5F5F5F5F5F5C3F5EFEFEFEFEFEFEFEFEFEFEFEFEFEFEFBEEFEFEFEFEFEFEFEFEFEFEFEF4C4C4C4C4C4CF5F5F5F5F5F5F5F5F5F5F5F5F5F5F5F5F5F5F5F5F5F5F5F5F5F5F5F5F5F5F5F5F5F5F5F5F5F5F5F5F5F5F5F5F5F5F5F5CA
310
E2E2E2E2E2E2E2E2E2E2E2E2E2E2E2E2E2E2E2E2E2E2E2E2E2E2E2E2E2E2E2E2E2E2E2E2E2E2C3F5F5F5F5F5F5F5F5F5F5F5F5F5F5F5E2F5F5F5F5F5F5F5F5F5F5F5E2E2F5F5F5F5F5F5F5F5F5F5F5E2F5F5F5F5F5F5F5F5F5F5F5F5F5F5F5C3CACACACACACACACACACACACACACACACACACACACACACACACACACACACACACACA
310
CACACACAF5F5F5F5F5F5F5F5F5F5F5F5F5F5F5F5F5F5F5F5F5F5F5F5F5F5F5F5F5F5F5F5F5F5F5F5F5F5F5F5F5F5F5F5F5F5F5F5CAC3C3C3C3C3C3C3F5F5F5F5F5F5C3C3C3E2E2E2E2E2E2E2E2F5F5F5F5F5F5F5F5F5F5F5F5F5F5C3F5F5F5F5F5F5F5F5F5F5F5F5F5F5F5E2F5F5F5F5F5F5F5F5F5F5F5E2E2F5F5F5F5F5F5
310
F5F5F5F5F5E2F5F5F5F5F5F5F5F5F5F5F5F5F5F5F5C3F5F5F5F5F5F5F5F5F5F5F5F5F5F5F5F5F5F5F5F5F5F5F5F5F5F5F5F5F5F5F5F5F5F5F5F5F5F5F5F5F5F5F5F5F5F5F5F5F5F5F5F5F5F5F5F5F5F5F5F5F5F5F5F5F5F5F5F5F5F5F5F5F5F5F5F5F5F5F5F5F5F5F5CAF5F5EFEFEFEFEFF5F5F5F5F5F5F5F5F5F5F5F5F5F5
310
F5F5F5F5F5F5F5F5F5F5F5F5F5F5F5F5F5C3F5F5F5F5F5F5F5F5F5F5F5F5F5F5F5E2F5F5F5F5F5F5F5F5F5F5F5E2E2F5F5F5F5F5F5F5F5F5F5F5E2F5F5F5F5F5F5F5F5F5F5F5F5F5F5F5C3F5F5F5F5F5F5F5F5F5F5F5F5F5F5F5F5F5F5F5F5F5F5F5F5F5F5F5F5F5F5F5F5F5F5F5F5F5F5F5F5F5F5F5F5F5F5F5F5F5F5F5F5
310
F5F5F5F5F5F5F5F5F5F5F5F5F5F5F5F5F5F5F5F5F5F5F5F5F5F5F5F5F5F5F5CACACACACACACACACACACACACACACACACACACACACACACACACACACACACACACACACACACACACACACAC3F5F5F5F5F5F5F5F5F5F5F5F5F5F5F5E2F5F5F5F5F5F5F5F5F5F5F5E2E2F5F5F5F5F5F5F5F5F5F5F5E2F5F5F5F5F5F5F5F5F5F5F5F5F5F5F5
310
C3F5F5F5F5F5F5F5F5F5F5F5F5F5F5F5F5F5F5F5F5F5F5F5F5F5F5F5F5F5F5F5F5F5F5F5F5F5F5F5F5F5F5F5F5F5F5F5F5F5F5F5F5F5F5F5F5F5F5F5F5F5F5F5F5F5F5F5F5F5F5F5F5F5F5F5F5F5F5F5F5F5F5F5F5F5F5F5F5F5F5F5F5F5F5F5F5F5F5F5F5F5F5F5F5F5F5F5F5F5F5F5F5F5F5F5F5F5F5F5F5F5F5C3F5F5F5
310
F5F5F5F5F5F5F5F5F5F5F5F5E2F5F5F5F5F5F5F5F5F5F5F5E2E2F5F5F5F5F5F5F5F5F5F5F5E2F5F5F5F5F5F5F5F5F5F5F5F5F5F5F5C3F5F5F5F5F5F5F5F5F5F5F5F5F5F5F5F5F5F5F5F5F5F5F5F5F5F5F5F5F5F5F5F5F5F5F5F5F5F5F5F5F5F5F5F5F5F5F5F5F5F5F5F5F5F5F5F5F5F5F5F5F5F5F5F5F5F5F5F5F5F5F5F5F5
310
F5F5F5F5F5F5F5F5F5F5F5F5F5F5F5F5F5F5F5F5F5F5F5F5F5F5F5F5F5F5F5F5F5F5F5F5F5F5F5F5F5F5F5F5F5F5F5F5F5C3F5F5F5F5F5F5F5F5F5F5F5F5F5F5F5E2F5F5F5F5F5F5F5F5F5F5F5E2E2F5F5F5F5F5F5F5F5F5F5F5F5F5F5F5F5F5F5F5F5F5F5F5F5F5F5F5C3F5F5F5F5F5F5F5F5F5F5F5F5F5F5F5F5F5F5F5F5
310
F5F5F5F5F5F5F5F5F5F5F5F5F5F5F5F5F5F5F5F5F5F5F5F5F5F5F5F5F5F5F5F5F5F5F5F5F5F5F5F5F5F5F5F5F5F5F5F5F5F5F5F5F5F5F5F5F5F5F5F5F5F5F5F5F5F5F5F5F5F5F5F5F5F5F5F5F5F5F5F5F5F5F5F5F5F5F5F5F5F5F5F5F5F5F5F5F5F5F5F5F5F5C3F5F5F5F5F5F5F5F5F5F5F5F5F5F5F5F5F5F5F5F5F5F5F5F5
310
F5F5F5E2E2F5F5F5F5F5F5F5F5F5F5F5F5F5F5F5F5F5F5F5F5F5F5F5F5F5F5F5C3F5F5F5F5F5F5F5F5F5F5F5F5F5F5F5F5F5F5F5F5F5F5F5F5F5F5F5F5F5F5F5F5F5F5F5F5F5F5F5F5F5F5F5F5F5F5F5F5F5F5F5F5F5F5F5F5F5F5F5F5F5F5F5F5F5F5F5F5F5F5F5F5F5F5F5F5F5F5F5F5F5F5F5F5F5F5F5F5F5F5F5F5F5F5
310
F5F5F5F5F5F5F5F5F5F5F5F5F5F5F5F5F5F5F5F5F5F5F5F5F5F5F5F5C3F5F5F5F5F5F5F5F5F5F5F5F5F5F5F5F5F5F5F5F5F5F5F5F5F5F5F5E2E2F5F5F5F5F5F5F5F5F5F5F5F5F5F5F5F5F5F5F5F5F5F5F5F5F5F5F5C3F5F5F5F5F5F5F5F5F5F5F5F5F5F5F5F5F5F5F5F5F5F5F5F5F5F5F5F5F5F5F5F5F5F5F5F5F5F5F5F5F5
310
F5F5F5F5F5F5F5F5F5F5F5F5F5F5F5F5F5F5F5F5F5F5F5F5F5F5F5F5F5F5F5F5F5F5F5F5F5F5F5F5F5F5F5F5F5F5F5F5F5F5F5F5F5F5F5F5F5F5F5F5F5F5F5F5F5F5F5F5F5F5F5F5F5F5F5F5F5F5F5F5F5C3F5F5F5F5F5F5F5F5F5F5F5F5F5F5F5F5F5F5F5F5F5F5F5F5F5F5F5E2E2F5F5F5F5F5F5F5F5F5F5F5F5F5F5F5F5
310
F5F5F5F5F5F5F5F5F5F5F5C3F5F5F5F5F5F5F5F5F5F5F5F5F5F5F5F5F5F5F5F5F5F5F5F5F5F5F5F5F5F5F5F5F5F5F5F5F5F5F5F5F5F5F5F5F5F5F5F5F5F5F5F5F5F5F5F5F5F5F5F5F5F5F5F5F5F5F5F5F5F5F5F5F5F5F5F5F5F5F5F5F5F5F5F5F5F5F5F5F5F5F5F5F5F5F5F5F5F5F5F5F5F5F5F5F5F5F5F5F5F5F5F5F5F5F5
310
F5F5F5F5F5F5F5C3F5F5F5F5F5F5F5F5F5F5F5F5F5F5F5F5F5F5F5F5F5F5F5F5F5F5F5E2E2F5F5F5F5F5F5F5F5F5F5F5F5F5F5F5F5F5F5F5F5F5F5F5F5F5F5F5C3C3C3C3C3C3C3C3C3C3C3C3C3C3C3C3C3C3C3C3C3C3C3C3C3C3C3C3C3C3C3C3C3C3C3C3C3C3C3C3C3C3C3C3C3C3C3C3C3C3C3C3C3C3C3C3C3C3C3C3C3C3C3
310
C3C3C3C3C3C3C3C3C3C3C3C3C3C3C3C3C3C3C3C3C3C3C3C3C3C3C3C3C3C3C3C3C3C3C3C3C3C3C3C3C3C3C3C3C3C3C3C3C3C3C3C3C3C3C3C3C3C3C3C3C3F5F5F5F5F5F5F5F5F5F5F5F5F5F5F5F5F5F5F5F5F5F5F5F5F5F5F5E2E2F5F5F5F5F5F5F5F5F5F5F5F5F5F5F5F5F5F5F5F5F5F5F5F5F5F5F5F5F5F5F5F5F5F5F5F5F5
310
F5F5F5F5F5F5F5F5F5F5F5F5F5F5F5F5F5F5F5F5F5F5F5F5F5F5F5F5F5F5F5F5F5F5F5F5F5F5F5F5F5F5F5F5F5F5F5F5F5F5F5F5F5F5F5F5F5F5F5F5F5F5F5F5F5F5F5F5F5F5F5F5F5F5F5F5F5F5F5F5F5F5F5F5F5F5F5F5F5F5F5F5F5F5F5F5F5F5F5F5F5F5F5F5F5F5F5F5F5F5F5F5F5F5F5F5F5F5F5F5F5F5F5F5F5F5F5
310
F5F5F5F5F5F5F5F5F5F5F5F5F5F5E2E2F5F5F5F5F5F5F5F5F5F5F5F5F5F5F5F5F5F5F5F5F5F5F5F5F5F5F5F5F5F5F5F5F5F5F5F5F5F5F5F5F5F5F5F5F5F5F5F5F5F5F5F5F5F5F5F5F5F5F5F5F5F5F5F5F5F5F5F5F5F5F5F5F5F5F5F5F5F5F5F5F5F5F5F5F5F5F5F5F5F5F5F5F5F5F5F5F5F5F5F5F5F5F5F5F5F5F5F5F5F5F5
310
F5F5F5F5F5F5F5F5F5F5F5F5F5F5F5F5F5F5F5F5F5F5F5F5F5F5F5F5F5F5F5F5F5F5F5F5F5F5F5F5F5F5F5F5F5F5F5F5F5F5F5F5F5F5F5F5F5F5F5F5F5F5F5F5F5F5F5E2E2F5F5F5F5F5F5F5F5F5F5F5F5F5F5F5F5F5F5F5F5F5F5F5F5F5F5F5F5F5F5F5F5F5F5F5F5F5F5F5F5F5F5F5F5F5F5F5F5F5F5F5F5F5F5F5F5F5F5
310
F5F5F5F5F5F5F5F5F5F5F5F5F5F5F5F5F5F5F5F5F5F5F5F5F5F5F5F5F5F5F5F5F5F5F5F5F5F5F5F5F5F5F5F5F5F5F5F5F5F5F5F5F5F5F5F5F5F5F5F5F5F5F5F5F5F5F5F5F5F5F5F5F5F5F5F5F5F5F5F5F5F5F5F5F5F5F5F5F5F5F5F5F5F5F5F5F5F5F5F5F5F5F5F5F5F5F5F5F5F5F5F5F5F5F5F5F5F5F5F5E2E2F5F5F5F5F5
310
F5F5F5F5F5F5E2F5F5F5F5F5F5F5F5F5F5F5F5F5F5F5F5F5F5F5F5F5F5F5F5F5F5F5F5F5F5F5F5F5F5F5F5F5F5F5F5F5F5F5F5F5F5F5F5F5F5F5F5F5F5F5F5F5F5F5F5F5F5F5F5F5F5F5F5F5F5F5F5F5F5F5F5F5F5F5F5F5F5F5F5F5F5F5F5F5F5F5F5F5F5F5F5F5F5F5F5F5F5F5F5F5F5F5F5F5F5F5F5F5F5F5F5F5F5F5F5
310
F5F5F5F5F5F5F5F5F5F5F5F5F5F5F5F5F5F5F5F5F5F5F5F5F5F5F5F5F5F5F5F5F5F5E2F5F5F5F5F5F5F5F5F5F5F5E2E2F5F5F5F5F5F5F5F5F5F5F5E2F5F5F5F5F5F5F5F5F5F5F5F5F5F5F5F5F5F5F5F5F5F5F5F5F5F5F5F5F5F5F5F5F5F5F5F5F5F5F5F5F5F5F5F5F5F5F5F5F5F5F5F5F5F5F5F5F5F5F5F5F5F5F5F5F5F5F5
310
F5F5F5F5F5F5F5F5F5F5F5F5F5F5F5F5F5F5F5F5F5F5F5F5F5F5F5F5F5F5F5F5F5F5F5F5F5F5F5F5F5F5F5F5F5F5F5F5F5F5F5F5F5F5F5F5F5F5F5F5F5F5F5F5F5F5F5F5F5F5F5F5F5F5F5F5F5F5F5F5F5F5F5F5F5F5F5E2F5F5F5F5F5F5F5F5F5F5F5E2E2F5F5F5F5F5F5F5F5F5F5F5E2F5F5F5F5F5F5F5F5F5F5F5F5F5F5
310
F5F5F5F5F5F5F5F5F5F5F5F5F5F5F5F5F5F5F5F5F5F5F5F5F5F5F5F5F5F5F5F5F5F5F5F5F5F5F5F5F5F5F5F5F5F5F5F5F5F5F5F5F5F5F5F5F5F5F5F5F5F5F5F5F5F5F5F5F5F5F5F5F5F5F5F5F5F5F5F5F5F5F5F5F5F5F5F5F5F5F5F5F5F5F5F5F5F5F5F5F5F5F5F5F5F5F5F5F5F5F5F5F5F5F5F5F5F5F5F5F5F5F5F5F5F5F5
310
F5F5F5F5F5F5F5F5F5F5F5F5F5E2F5F5F5F5F5F5F5F5F5F5F5E2E2F5F5F5F5F5F5F5F5F5F5F5E2F5F5F5F5F5F5F5F5F5F5F5F5F5F5F5F5F5F5F5F5F5F5F5F5F5F5F5F5F5F5F5F5F5F5F5F5F5F5F5F5F5F5F5F5F5F5F5F5F5F5F5F5F5F5F5F5F5F5F5F5F5F5F5F5F5F5F5F5F5F5F5F5F5F5F5F5F5F5F5F5F5F5F5F5F5F5F5F5
310
F5F5F5F5F5F5F5F5F5F5F5F5F5F5F5F5F5F5F5F5F5F5F5F5F5F5F5F5F5F5F5F5F5F5F5F5F5F5F5F5F5F5F5F5F5F5F5F5F5F5F5F5F5F5F5F5F5F5F5F5F5F5F5F5F5F5E2F5F5F5F5F5F5F5F5F5F5F5E2E2F5F5F5F5F5F5F5F5F5F5F5E2F5F5F5F5F5F5F5F5F5F5F5F5F5F5F5F5F5F5F5F5F5F5F5F5F5F5F5F5F5F5F5F5F5F5F5
310
F5F5F5F5F5F5F5F5F5F5F5F5F5F5F5F5F5F5F5F5F5F5F5F5F5F5F5F5F5F5F5F5F5F5F5F5F5F5F5F5F5F5F5F5F5F5F5F5F5F5F5F5F5F5F5F5F5F5F5F5F5F5F5F5F5F5F5F5F5F5F5F5F5F5F5F5F5F5F5F5F5F5F5F5F5F5F5F5F5F5F5F5F5F5F5F5F5F5F5F5F5F5F5F5F5F5F5F5F5F5F5F5F5F5F5F5F5F5F5E2F5F5F5F5F5F5F5
310
F5F5F5F5E2E2F5F5F5F5F5F5F5F5F5F5F5E2F5F5F5F5F5F5F5F5F5F5F5F5F5F5F5F5F5F5F5F5F5F5F5F5F5F5F5F5F5F5F5F5F5F5F5F5F5F5F5F5F5F5F5F5F5F5F5F5F5F5F5F5F5F5F5F5F5F5F5F5F5F5F5F5F5F5F5F5F5F5F5F5F5F5F5F5F5F5F5F5F5F5F5F5F5F5F5F5F5F5F5F5F5F5F5F5F5F5F5F5F5F5F5F5F5F5F5F5F5
310
F5F5F5F5F5F5F5F5F5F5F5F5F5F5F5F5F5F5F5F5F5F5F5F5F5F5F5F5F5F5F5F5F5F5F5F5F5F5F5F5F5F5F5F5F5E2F5F5F5F5F5F5F5F5F5F5F5E2E2F5F5F5F5F5F5F5F5F5F5F5E2F5F5F5F5F5F5F5F5F5F5F5F5F5F5F5F5F5F5F5F5F5F5F5F5F5F5F5F5F5F5F5F5F5F5F5F5F5F5F5F5F5F5F5F5F5F5F5F5F5F5F5F5F5F5F5F5
310
F5F5F5F5F5F5F5F5F5F5F5F5F5F5F5F5F5F5F5F5F5F5F5F5F5F5F5F5F5F5F5F5F5F5F5F5F5F5F5F5F5F5F5F5F5F5F5F5F5F5F5F5F5F5F5F5F5F5F5F5F5F5F5F5F5F5F5F5F5F5F5F5F5F5F5F5F5F5F5F5F5F5F5F5F5F5F5F5F5F5F5F5F5F5F5F5F5F5E2F5F5F5F5F5F5F5F5F5F5F5E2E2F5F5F5F5F5F5F5F5F5F5F5E2E2E2E2
310
E2E2E2E2E2F5F5F5F5F5F5F5F5F5E2E2E2E2E2E2E2E2E2E2E2E2E2E2E2E2E2F5F5F5F5F5F5F5F5F5E2E2E2E2E2E2E2E2E2E2E2E2E2E2E2E2F5F5F5F5F5F5F5F5F5F5E2E2E2E2E2E2E2E2E2E2E2E2E2E2E2E2F5F5F5F5F5F5F5F5F5F5E2E2E2E2E2E2E2E2E2E2E2E2E2E2E2E2F5F5F5F5F5F5F5F5F5E2E2E2E2E2E2E2E2E2E2
310
E2E2E2E2E2E2E2F5F5F5F5F5F5F5F5F5E2E2E2E2E2E2E2E2E2F5F5F5F5F5F5F5F5F5F5F5E2E2F5F5F5F5F5F5F5F5F5F5F5F5F5F5F5F5F5F5F5F5F5F5F5F5F5F5F5F5F5F5F5F5F5F5F5F5F5F5F5F5F5F5F5F5F5F5F5F5F5F5F5F5F5F5F5F5F5F5F5F5F5F5F5F5F5F5F5F5F5F5F5F5F5F5F5F5F5F5F5F5F5F5F5F5F5F5F5F5F5
310
F5F5F5F5F5F5F5F5F5F5F5F5F5F5F5F5F5F5F5F5F5F5F5F5F5F5F5F5F5F5F5F5F5F5F5F5F5F5F5F5F5F5F5F5F5F5F5F5F5F5F5F5F5F5F5F5F5F5F5F5F5F5F5F5F5F5F5F5F5F5F5F5F5F5F5F5F5F5F5F5F5F5F5F5F5F5F5F5F5E2E2F5F5F5F5F5F5F5F5F5F5F5F5F5F5F5F5F5F5F5F5F5F5F5F5F5F5F5F5F5F5F5F5F5F5F5F5
310
F5F5F5F5F5F5F5F5F5F5F5F5F5F5F5F5F5F5F5F5F5F5F5F5F5F5F5F5F5F5F5F5F5F5F5F5F5F5F5F5F5F5F5F5F5F5F5F5F5F5F5F5F5F5F5F5F5F5F5F5F5F5F5F5F5F5F5F5F5F5F5F5F5F5F5F5F5F5F5F5F5F5F5F5F5F5F5F5F5F5F5F5F5F5F5F5F5F5F5F5F5F5F5F5F5F5F5F5F5F5F5F5F5F5F5F5F5F5F5F5F5F5F5F5F5F5F5
310
F5F5F5F5F5F5F5F5F5F5F5F5F5F5F5E2E2F5F5F5F5F5F5F5F5F5F5F5F5F5F5F5F5F5F5F5F5F5F5F5F5F5F5F5F5F5F5F5F5F5F5F5F5F5F5F5F5F5F5F5F5F5F5F5F5F5F5F5F5F5F5F5F5F5F5F5F5F5F5F5F5F5F5F5F5F5F5F5F5F5F5F5F5F5F5F5F5F5F5F5F5F5F5F5F5F5F5F5F5F5F5F5F5F5F5F5F5F5F5F5F5F5F5F5F5F5F5
310
F5F5F5F5F5F5F5F5F5F5F5F5F5F5F5F5F5F5F5F5F5F5F5F5F5F5F5F5F5F5F5F5F5F5F5F5F5F5F5F5F5F5F5F5F5F5F5F5F5F5F5F5F5F5F5F5F5F5F5F5F5F5F5F5F5F5F5F5E2E2F5F5F5F5F5F5F5F5F5F5F5F5F5F5F5F5F5F5F5F5F5F5F5F5F5F5F5F5F5F5F5F5F5F5F5F5F5F5F5F5F5F5F5F5F5F5F5F5F5F5F5F5F5F5F5F5F5
310
F5F5F5F5F5F5F5F5F5F5F5F5F5F5F5F5F5F5F5F5F5F5F5F5F5F5F5F5F5F5F5F5F5F5F5F5F5F5F5F5F5F5F5F5F5F5F5F5F5F5F5F5F5F5F5F5F5F5F5F5F5F5F5F5F5F5F5F5F5F5F5F5F5F5F5F5F5F5F5F5F5F5F5F5F5F5F5F5F5F5F5F5F5F5F5F5F5F5F5F5F5F5F5F5F5F5F5F5F5F5F5F5F5F5F5F5F5F5F5F5F5E2E2E2E2E2E2
310
E2E2E2E2E2E2E2E2E2E2E2E2E2E2E2E2E2E2E2E2E2E2E2E2E2E2E2E2E2E2E2E2E2E2E2E2E2E2E2E2E2E2E2E2E2E2E2E2E2E2E2E2E2E2E2E2E2E2E2E2E2E2E2E2E2E2E2E2E2E2E2E2E2E2E2E2E2E2E2E2E2E2E2E2E2E2E2E2E2E2E2E2E2E2E2E2E2E2E2E2E2E2E2E2E2E2E2E2E2E2E2E2E2E2E2E2E2E2E2E2E2E2E2E2E2E2E2
310
E2E2E2E2E2E2E2E2E2E2E2E2E2E2E2E2E2E2E2E2E2E2E2E2E2E2E2E2E2E2E2E2E2E2E2E2E2E2E2E2E2E2E2E2E2E2E2E2
  0
CELLSTYLEMAP
  5
325
102
{ACAD_REACTORS
330
323
102
}
330
323
100
AcDbCellStyleMap
 90
        3
300
CELLSTYLE
  1
TABLEFORMAT_BEGIN
 90
        5
170
     1
 91
        0
 92
        0
 62
   257
 93
        1
300
CONTENTFORMAT
  1
CONTENTFORMAT_BEGIN
 90
        0
 91
        0
 92
      512
 93
        0
300

 40
0.0
140
1.0
 94
        5
 62
     0
340
1E
144
6.0
309
CONTENTFORMAT_END
171
     1
301
MARGIN
  1
CELLMARGIN_BEGIN
 40
1.5
 40
1.5
 40
1.5
 40
1.5
 40
4.5
 40
4.5
309
CELLMARGIN_END
 94
        6
 95
        1
302
GRIDFORMAT
  1
GRIDFORMAT_BEGIN
 90
        0
 91
        1
 62
     0
 92
       -2
340
0
 93
        0
 40
0.045
309
GRIDFORMAT_END
 95
        2
302
GRIDFORMAT
  1
GRIDFORMAT_BEGIN
 90
        0
 91
        1
 62
     0
 92
       -2
340
0
 93
        0
 40
0.045
309
GRIDFORMAT_END
 95
        4
302
GRIDFORMAT
  1
GRIDFORMAT_BEGIN
 90
        0
 91
        1
 62
     0
 92
       -2
340
0
 93
        0
 40
0.045
309
GRIDFORMAT_END
 95
        8
302
GRIDFORMAT
  1
GRIDFORMAT_BEGIN
 90
        0
 91
        1
 62
     0
 92
       -2
340
0
 93
        0
 40
0.045
309
GRIDFORMAT_END
 95
       16
302
GRIDFORMAT
  1
GRIDFORMAT_BEGIN
 90
        0
 91
        1
 62
     0
 92
       -2
340
0
 93
        0
 40
0.045
309
GRIDFORMAT_END
 95
       32
302
GRIDFORMAT
  1
GRIDFORMAT_BEGIN
 90
        0
 91
        1
 62
     0
 92
       -2
340
0
 93
        0
 40
0.045
309
GRIDFORMAT_END
309
TABLEFORMAT_END
  1
CELLSTYLE_BEGIN
 90
        1
 91
        1
300
_TITLE
309
CELLSTYLE_END
300
CELLSTYLE
  1
TABLEFORMAT_BEGIN
 90
        5
170
     1
 91
        0
 92
        0
 62
   257
 93
        1
300
CONTENTFORMAT
  1
CONTENTFORMAT_BEGIN
 90
        0
 91
        0
 92
      512
 93
        0
300

 40
0.0
140
1.0
 94
        5
 62
     0
340
1E
144
4.5
309
CONTENTFORMAT_END
171
     1
301
MARGIN
  1
CELLMARGIN_BEGIN
 40
1.5
 40
1.5
 40
1.5
 40
1.5
 40
4.5
 40
4.5
309
CELLMARGIN_END
 94
        6
 95
        1
302
GRIDFORMAT
  1
GRIDFORMAT_BEGIN
 90
        0
 91
        1
 62
     0
 92
       -2
340
0
 93
        0
 40
0.045
309
GRIDFORMAT_END
 95
        2
302
GRIDFORMAT
  1
GRIDFORMAT_BEGIN
 90
        0
 91
        1
 62
     0
 92
       -2
340
0
 93
        0
 40
0.045
309
GRIDFORMAT_END
 95
        4
302
GRIDFORMAT
  1
GRIDFORMAT_BEGIN
 90
        0
 91
        1
 62
     0
 92
       -2
340
0
 93
        0
 40
0.045
309
GRIDFORMAT_END
 95
        8
302
GRIDFORMAT
  1
GRIDFORMAT_BEGIN
 90
        0
 91
        1
 62
     0
 92
       -2
340
0
 93
        0
 40
0.045
309
GRIDFORMAT_END
 95
       16
302
GRIDFORMAT
  1
GRIDFORMAT_BEGIN
 90
        0
 91
        1
 62
     0
 92
       -2
340
0
 93
        0
 40
0.045
309
GRIDFORMAT_END
 95
       32
302
GRIDFORMAT
  1
GRIDFORMAT_BEGIN
 90
        0
 91
        1
 62
     0
 92
       -2
340
0
 93
        0
 40
0.045
309
GRIDFORMAT_END
309
TABLEFORMAT_END
  1
CELLSTYLE_BEGIN
 90
        2
 91
        1
300
_HEADER
309
CELLSTYLE_END
300
CELLSTYLE
  1
TABLEFORMAT_BEGIN
 90
        5
170
     1
 91
        0
 92
        0
 62
   257
 93
        1
300
CONTENTFORMAT
  1
CONTENTFORMAT_BEGIN
 90
        0
 91
        0
 92
      512
 93
        0
300

 40
0.0
140
1.0
 94
        2
 62
     0
340
1E
144
4.5
309
CONTENTFORMAT_END
171
     1
301
MARGIN
  1
CELLMARGIN_BEGIN
 40
1.5
 40
1.5
 40
1.5
 40
1.5
 40
4.5
 40
4.5
309
CELLMARGIN_END
 94
        6
 95
        1
302
GRIDFORMAT
  1
GRIDFORMAT_BEGIN
 90
        0
 91
        1
 62
     0
 92
       -2
340
0
 93
        0
 40
0.045
309
GRIDFORMAT_END
 95
        2
302
GRIDFORMAT
  1
GRIDFORMAT_BEGIN
 90
        0
 91
        1
 62
     0
 92
       -2
340
0
 93
        0
 40
0.045
309
GRIDFORMAT_END
 95
        4
302
GRIDFORMAT
  1
GRIDFORMAT_BEGIN
 90
        0
 91
        1
 62
     0
 92
       -2
340
0
 93
        0
 40
0.045
309
GRIDFORMAT_END
 95
        8
302
GRIDFORMAT
  1
GRIDFORMAT_BEGIN
 90
        0
 91
        1
 62
     0
 92
       -2
340
0
 93
        0
 40
0.045
309
GRIDFORMAT_END
 95
       16
302
GRIDFORMAT
  1
GRIDFORMAT_BEGIN
 90
        0
 91
        1
 62
     0
 92
       -2
340
0
 93
        0
 40
0.045
309
GRIDFORMAT_END
 95
       32
302
GRIDFORMAT
  1
GRIDFORMAT_BEGIN
 90
        0
 91
        1
 62
     0
 92
       -2
340
0
 93
        0
 40
0.045
309
GRIDFORMAT_END
309
TABLEFORMAT_END
  1
CELLSTYLE_BEGIN
 90
        3
 91
        2
300
_DATA
309
CELLSTYLE_END
  0
XRECORD
  5
324
102
{ACAD_REACTORS
330
323
102
}
330
323
100
AcDbXrecord
280
     1
102
ACAD_ROUNDTRIP_PRE2007_TABLESTYLE
 90
      512
 91
        0
  1

 92
      512
 93
        0
  2

 94
      512
 95
        0
  3

  0
XRECORD
  5
322
102
{ACAD_REACTORS
330
321
102
}
330
321
100
AcDbXrecord
280
     1
102
RTVSPropertyOp0
 70
     1
102
RTVSPropertyOp1
 70
     1
102
RTVSPropertyOp2
 70
     1
102
RTVSPropertyOp3
 70
     1
102
RTVSPropertyOp4
 70
     1
102
RTVSPropertyOp5
 70
     1
102
RTVSPropertyOp6
 70
     1
102
RTVSPropertyOp7
 70
     1
102
RTVSPropertyOp8
 70
     1
102
RTVSPropertyOp9
 70
     1
102
RTVSPropertyOp10
 70
     1
102
RTVSPropertyOp11
 70
     1
102
RTVSPropertyOp12
 70
     1
102
RTVSPropertyOp13
 70
     1
102
RTVSPropertyOp14
 70
     1
102
RTVSPropertyOp15
 70
     1
102
RTVSPropertyOp16
 70
     1
102
RTVSPropertyOp17
 70
     1
102
RTVSPropertyOp18
 70
     1
102
RTVSPropertyOp19
 70
     1
102
RTVSPropertyOp20
 70
     1
102
RTVSPropertyOp21
 70
     1
102
RTVSPropertyOp22
 70
     1
102
RTVSPropertyOp23
 70
     1
102
RTVSPropertyOp24
 70
     1
102
RTVSPropertyOp25
 70
     1
102
RTVSPropertyOp26
 70
     1
102
RTVSPropertyOp27
 70
     1
  0
XRECORD
  5
336
102
{ACAD_REACTORS
330
335
102
}
330
335
100
AcDbXrecord
280
     1
102
RTVSPropertyOp0
 70
     1
102
RTVSPropertyOp1
 70
     1
102
RTVSPropertyOp2
 70
     1
102
RTVSPropertyOp3
 70
     1
102
RTVSPropertyOp4
 70
     1
102
RTVSPropertyOp5
 70
     1
102
RTVSPropertyOp6
 70
     1
102
RTVSPropertyOp7
 70
     1
102
RTVSPropertyOp8
 70
     1
102
RTVSPropertyOp9
 70
     1
102
RTVSPropertyOp10
 70
     1
102
RTVSPropertyOp11
 70
     1
102
RTVSPropertyOp12
 70
     1
102
RTVSPropertyOp13
 70
     1
102
RTVSPropertyOp14
 70
     1
102
RTVSPropertyOp15
 70
     1
102
RTVSPropertyOp16
 70
     1
102
RTVSPropertyOp17
 70
     1
102
RTVSPropertyOp18
 70
     1
102
RTVSPropertyOp19
 70
     1
102
RTVSPropertyOp20
 70
     1
102
RTVSPropertyOp21
 70
     1
102
RTVSPropertyOp22
 70
     1
102
RTVSPropertyOp23
 70
     1
102
RTVSPropertyOp24
 70
     1
102
RTVSPropertyOp25
 70
     1
102
RTVSPropertyOp26
 70
     1
102
RTVSPropertyOp27
 70
     1
  0
XRECORD
  5
32A
102
{ACAD_REACTORS
330
329
102
}
330
329
100
AcDbXrecord
280
     1
102
RTVSPropertyOp0
 70
     1
102
RTVSPropertyOp1
 70
     1
102
RTVSPropertyOp2
 70
     1
102
RTVSPropertyOp3
 70
     1
102
RTVSPropertyOp4
 70
     1
102
RTVSPropertyOp5
 70
     1
102
RTVSPropertyOp6
 70
     1
102
RTVSPropertyOp7
 70
     1
102
RTVSPropertyOp8
 70
     1
102
RTVSPropertyOp9
 70
     1
102
RTVSPropertyOp10
 70
     1
102
RTVSPropertyOp11
 70
     1
102
RTVSPropertyOp12
 70
     1
102
RTVSPropertyOp13
 70
     1
102
RTVSPropertyOp14
 70
     1
102
RTVSPropertyOp15
 70
     1
102
RTVSPropertyOp16
 70
     1
102
RTVSPropertyOp17
 70
     1
102
RTVSPropertyOp18
 70
     1
102
RTVSPropertyOp19
 70
     1
102
RTVSPropertyOp20
 70
     1
102
RTVSPropertyOp21
 70
     1
102
RTVSPropertyOp22
 70
     1
102
RTVSPropertyOp23
 70
     1
102
RTVSPropertyOp24
 70
     1
102
RTVSPropertyOp25
 70
     1
102
RTVSPropertyOp26
 70
     1
102
RTVSPropertyOp27
 70
     1
  0
XRECORD
  5
334
102
{ACAD_REACTORS
330
333
102
}
330
333
100
AcDbXrecord
280
     1
102
RTVSPropertyOp0
 70
     1
102
RTVSPropertyOp1
 70
     1
102
RTVSPropertyOp2
 70
     1
102
RTVSPropertyOp3
 70
     1
102
RTVSPropertyOp4
 70
     1
102
RTVSPropertyOp5
 70
     1
102
RTVSPropertyOp6
 70
     1
102
RTVSPropertyOp7
 70
     1
102
RTVSPropertyOp8
 70
     1
102
RTVSPropertyOp9
 70
     1
102
RTVSPropertyOp10
 70
     1
102
RTVSPropertyOp11
 70
     1
102
RTVSPropertyOp12
 70
     1
102
RTVSPropertyOp13
 70
     1
102
RTVSPropertyOp14
 70
     1
102
RTVSPropertyOp15
 70
     1
102
RTVSPropertyOp16
 70
     1
102
RTVSPropertyOp17
 70
     1
102
RTVSPropertyOp18
 70
     1
102
RTVSPropertyOp19
 70
     1
102
RTVSPropertyOp20
 70
     1
102
RTVSPropertyOp21
 70
     1
102
RTVSPropertyOp22
 70
     1
102
RTVSPropertyOp23
 70
     1
102
RTVSPropertyOp24
 70
     1
102
RTVSPropertyOp25
 70
     1
102
RTVSPropertyOp26
 70
     1
102
RTVSPropertyOp27
 70
     1
  0
XRECORD
  5
33C
102
{ACAD_REACTORS
330
33B
102
}
330
33B
100
AcDbXrecord
280
     1
102
RTVSPropertyOp0
 70
     1
102
RTVSPropertyOp1
 70
     1
102
RTVSPropertyOp2
 70
     1
102
RTVSPropertyOp3
 70
     1
102
RTVSPropertyOp4
 70
     1
102
RTVSPropertyOp5
 70
     1
102
RTVSPropertyOp6
 70
     1
102
RTVSPropertyOp7
 70
     1
102
RTVSPropertyOp8
 70
     1
102
RTVSPropertyOp9
 70
     1
102
RTVSPropertyOp10
 70
     1
102
RTVSPropertyOp11
 70
     1
102
RTVSPropertyOp12
 70
     1
102
RTVSPropertyOp13
 70
     1
102
RTVSPropertyOp14
 70
     1
102
RTVSPropertyOp15
 70
     1
102
RTVSPropertyOp16
 70
     1
102
RTVSPropertyOp17
 70
     1
102
RTVSPropertyOp18
 70
     1
102
RTVSPropertyOp19
 70
     1
102
RTVSPropertyOp20
 70
     1
102
RTVSPropertyOp21
 70
     1
102
RTVSPropertyOp22
 70
     1
102
RTVSPropertyOp23
 70
     1
102
RTVSPropertyOp24
 70
     1
102
RTVSPropertyOp25
 70
     1
102
RTVSPropertyOp26
 70
     1
102
RTVSPropertyOp27
 70
     1
  0
XRECORD
  5
344
102
{ACAD_REACTORS
330
343
102
}
330
343
100
AcDbXrecord
280
     1
102
RTVSPropertyOp0
 70
     1
102
RTVSPropertyOp1
 70
     1
102
RTVSPropertyOp2
 70
     1
102
RTVSPropertyOp3
 70
     1
102
RTVSPropertyOp4
 70
     1
102
RTVSPropertyOp5
 70
     1
102
RTVSPropertyOp6
 70
     1
102
RTVSPropertyOp7
 70
     1
102
RTVSPropertyOp8
 70
     1
102
RTVSPropertyOp9
 70
     1
102
RTVSPropertyOp10
 70
     1
102
RTVSPropertyOp11
 70
     1
102
RTVSPropertyOp12
 70
     1
102
RTVSPropertyOp13
 70
     1
102
RTVSPropertyOp14
 70
     1
102
RTVSPropertyOp15
 70
     1
102
RTVSPropertyOp16
 70
     1
102
RTVSPropertyOp17
 70
     1
102
RTVSPropertyOp18
 70
     1
102
RTVSPropertyOp19
 70
     1
102
RTVSPropertyOp20
 70
     1
102
RTVSPropertyOp21
 70
     1
102
RTVSPropertyOp22
 70
     1
102
RTVSPropertyOp23
 70
     1
102
RTVSPropertyOp24
 70
     1
102
RTVSPropertyOp25
 70
     1
102
RTVSPropertyOp26
 70
     1
102
RTVSPropertyOp27
 70
     1
  0
XRECORD
  5
338
102
{ACAD_REACTORS
330
337
102
}
330
337
100
AcDbXrecord
280
     1
102
RTVSPropertyOp0
 70
     1
102
RTVSPropertyOp1
 70
     1
102
RTVSPropertyOp2
 70
     1
102
RTVSPropertyOp3
 70
     1
102
RTVSPropertyOp4
 70
     1
102
RTVSPropertyOp5
 70
     1
102
RTVSPropertyOp6
 70
     1
102
RTVSPropertyOp7
 70
     1
102
RTVSPropertyOp8
 70
     1
102
RTVSPropertyOp9
 70
     1
102
RTVSPropertyOp10
 70
     1
102
RTVSPropertyOp11
 70
     1
102
RTVSPropertyOp12
 70
     1
102
RTVSPropertyOp13
 70
     1
102
RTVSPropertyOp14
 70
     1
102
RTVSPropertyOp15
 70
     1
102
RTVSPropertyOp16
 70
     1
102
RTVSPropertyOp17
 70
     1
102
RTVSPropertyOp18
 70
     1
102
RTVSPropertyOp19
 70
     1
102
RTVSPropertyOp20
 70
     1
102
RTVSPropertyOp21
 70
     1
102
RTVSPropertyOp22
 70
     1
102
RTVSPropertyOp23
 70
     1
102
RTVSPropertyOp24
 70
     1
102
RTVSPropertyOp25
 70
     1
102
RTVSPropertyOp26
 70
     1
102
RTVSPropertyOp27
 70
     1
  0
XRECORD
  5
33A
102
{ACAD_REACTORS
330
339
102
}
330
339
100
AcDbXrecord
280
     1
102
RTVSPropertyOp0
 70
     1
102
RTVSPropertyOp1
 70
     1
102
RTVSPropertyOp2
 70
     1
102
RTVSPropertyOp3
 70
     1
102
RTVSPropertyOp4
 70
     1
102
RTVSPropertyOp5
 70
     1
102
RTVSPropertyOp6
 70
     1
102
RTVSPropertyOp7
 70
     1
102
RTVSPropertyOp8
 70
     1
102
RTVSPropertyOp9
 70
     1
102
RTVSPropertyOp10
 70
     1
102
RTVSPropertyOp11
 70
     1
102
RTVSPropertyOp12
 70
     1
102
RTVSPropertyOp13
 70
     1
102
RTVSPropertyOp14
 70
     1
102
RTVSPropertyOp15
 70
     1
102
RTVSPropertyOp16
 70
     1
102
RTVSPropertyOp17
 70
     1
102
RTVSPropertyOp18
 70
     1
102
RTVSPropertyOp19
 70
     1
102
RTVSPropertyOp20
 70
     1
102
RTVSPropertyOp21
 70
     1
102
RTVSPropertyOp22
 70
     1
102
RTVSPropertyOp23
 70
     1
102
RTVSPropertyOp24
 70
     1
102
RTVSPropertyOp25
 70
     1
102
RTVSPropertyOp26
 70
     1
102
RTVSPropertyOp27
 70
     1
  0
XRECORD
  5
342
102
{ACAD_REACTORS
330
341
102
}
330
341
100
AcDbXrecord
280
     1
102
RTVSPropertyOp0
 70
     1
102
RTVSPropertyOp1
 70
     1
102
RTVSPropertyOp2
 70
     1
102
RTVSPropertyOp3
 70
     1
102
RTVSPropertyOp4
 70
     1
102
RTVSPropertyOp5
 70
     1
102
RTVSPropertyOp6
 70
     1
102
RTVSPropertyOp7
 70
     1
102
RTVSPropertyOp8
 70
     1
102
RTVSPropertyOp9
 70
     1
102
RTVSPropertyOp10
 70
     1
102
RTVSPropertyOp11
 70
     1
102
RTVSPropertyOp12
 70
     1
102
RTVSPropertyOp13
 70
     1
102
RTVSPropertyOp14
 70
     1
102
RTVSPropertyOp15
 70
     1
102
RTVSPropertyOp16
 70
     1
102
RTVSPropertyOp17
 70
     1
102
RTVSPropertyOp18
 70
     1
102
RTVSPropertyOp19
 70
     1
102
RTVSPropertyOp20
 70
     1
102
RTVSPropertyOp21
 70
     1
102
RTVSPropertyOp22
 70
     1
102
RTVSPropertyOp23
 70
     1
102
RTVSPropertyOp24
 70
     1
102
RTVSPropertyOp25
 70
     1
102
RTVSPropertyOp26
 70
     1
102
RTVSPropertyOp27
 70
     1
  0
XRECORD
  5
32C
102
{ACAD_REACTORS
330
32B
102
}
330
32B
100
AcDbXrecord
280
     1
102
RTVSPropertyOp0
 70
     1
102
RTVSPropertyOp1
 70
     1
102
RTVSPropertyOp2
 70
     1
102
RTVSPropertyOp3
 70
     1
102
RTVSPropertyOp4
 70
     1
102
RTVSPropertyOp5
 70
     1
102
RTVSPropertyOp6
 70
     1
102
RTVSPropertyOp7
 70
     1
102
RTVSPropertyOp8
 70
     1
102
RTVSPropertyOp9
 70
     1
102
RTVSPropertyOp10
 70
     1
102
RTVSPropertyOp11
 70
     1
102
RTVSPropertyOp12
 70
     1
102
RTVSPropertyOp13
 70
     1
102
RTVSPropertyOp14
 70
     1
102
RTVSPropertyOp15
 70
     1
102
RTVSPropertyOp16
 70
     1
102
RTVSPropertyOp17
 70
     1
102
RTVSPropertyOp18
 70
     1
102
RTVSPropertyOp19
 70
     1
102
RTVSPropertyOp20
 70
     1
102
RTVSPropertyOp21
 70
     1
102
RTVSPropertyOp22
 70
     1
102
RTVSPropertyOp23
 70
     1
102
RTVSPropertyOp24
 70
     1
102
RTVSPropertyOp25
 70
     1
102
RTVSPropertyOp26
 70
     1
102
RTVSPropertyOp27
 70
     1
  0
XRECORD
  5
32E
102
{ACAD_REACTORS
330
32D
102
}
330
32D
100
AcDbXrecord
280
     1
102
RTVSPropertyOp0
 70
     1
102
RTVSPropertyOp1
 70
     1
102
RTVSPropertyOp2
 70
     1
102
RTVSPropertyOp3
 70
     1
102
RTVSPropertyOp4
 70
     1
102
RTVSPropertyOp5
 70
     1
102
RTVSPropertyOp6
 70
     1
102
RTVSPropertyOp7
 70
     1
102
RTVSPropertyOp8
 70
     1
102
RTVSPropertyOp9
 70
     1
102
RTVSPropertyOp10
 70
     1
102
RTVSPropertyOp11
 70
     1
102
RTVSPropertyOp12
 70
     1
102
RTVSPropertyOp13
 70
     1
102
RTVSPropertyOp14
 70
     1
102
RTVSPropertyOp15
 70
     1
102
RTVSPropertyOp16
 70
     1
102
RTVSPropertyOp17
 70
     1
102
RTVSPropertyOp18
 70
     1
102
RTVSPropertyOp19
 70
     1
102
RTVSPropertyOp20
 70
     1
102
RTVSPropertyOp21
 70
     1
102
RTVSPropertyOp22
 70
     1
102
RTVSPropertyOp23
 70
     1
102
RTVSPropertyOp24
 70
     1
102
RTVSPropertyOp25
 70
     1
102
RTVSPropertyOp26
 70
     1
102
RTVSPropertyOp27
 70
     1
  0
XRECORD
  5
330
102
{ACAD_REACTORS
330
32F
102
}
330
32F
100
AcDbXrecord
280
     1
102
RTVSPropertyOp0
 70
     1
102
RTVSPropertyOp1
 70
     1
102
RTVSPropertyOp2
 70
     1
102
RTVSPropertyOp3
 70
     1
102
RTVSPropertyOp4
 70
     1
102
RTVSPropertyOp5
 70
     1
102
RTVSPropertyOp6
 70
     1
102
RTVSPropertyOp7
 70
     1
102
RTVSPropertyOp8
 70
     1
102
RTVSPropertyOp9
 70
     1
102
RTVSPropertyOp10
 70
     1
102
RTVSPropertyOp11
 70
     1
102
RTVSPropertyOp12
 70
     1
102
RTVSPropertyOp13
 70
     1
102
RTVSPropertyOp14
 70
     1
102
RTVSPropertyOp15
 70
     1
102
RTVSPropertyOp16
 70
     1
102
RTVSPropertyOp17
 70
     1
102
RTVSPropertyOp18
 70
     1
102
RTVSPropertyOp19
 70
     1
102
RTVSPropertyOp20
 70
     1
102
RTVSPropertyOp21
 70
     1
102
RTVSPropertyOp22
 70
     1
102
RTVSPropertyOp23
 70
     1
102
RTVSPropertyOp24
 70
     1
102
RTVSPropertyOp25
 70
     1
102
RTVSPropertyOp26
 70
     1
102
RTVSPropertyOp27
 70
     1
  0
XRECORD
  5
332
102
{ACAD_REACTORS
330
331
102
}
330
331
100
AcDbXrecord
280
     1
102
RTVSPropertyOp0
 70
     1
102
RTVSPropertyOp1
 70
     1
102
RTVSPropertyOp2
 70
     1
102
RTVSPropertyOp3
 70
     1
102
RTVSPropertyOp4
 70
     1
102
RTVSPropertyOp5
 70
     1
102
RTVSPropertyOp6
 70
     1
102
RTVSPropertyOp7
 70
     1
102
RTVSPropertyOp8
 70
     1
102
RTVSPropertyOp9
 70
     1
102
RTVSPropertyOp10
 70
     1
102
RTVSPropertyOp11
 70
     1
102
RTVSPropertyOp12
 70
     1
102
RTVSPropertyOp13
 70
     1
102
RTVSPropertyOp14
 70
     1
102
RTVSPropertyOp15
 70
     1
102
RTVSPropertyOp16
 70
     1
102
RTVSPropertyOp17
 70
     1
102
RTVSPropertyOp18
 70
     1
102
RTVSPropertyOp19
 70
     1
102
RTVSPropertyOp20
 70
     1
102
RTVSPropertyOp21
 70
     1
102
RTVSPropertyOp22
 70
     1
102
RTVSPropertyOp23
 70
     1
102
RTVSPropertyOp24
 70
     1
102
RTVSPropertyOp25
 70
     1
102
RTVSPropertyOp26
 70
     1
102
RTVSPropertyOp27
 70
     1
  0
XRECORD
  5
340
102
{ACAD_REACTORS
330
33F
102
}
330
33F
100
AcDbXrecord
280
     1
102
RTVSPropertyOp0
 70
     1
102
RTVSPropertyOp1
 70
     1
102
RTVSPropertyOp2
 70
     1
102
RTVSPropertyOp3
 70
     1
102
RTVSPropertyOp4
 70
     1
102
RTVSPropertyOp5
 70
     1
102
RTVSPropertyOp6
 70
     1
102
RTVSPropertyOp7
 70
     1
102
RTVSPropertyOp8
 70
     1
102
RTVSPropertyOp9
 70
     1
102
RTVSPropertyOp10
 70
     1
102
RTVSPropertyOp11
 70
     1
102
RTVSPropertyOp12
 70
     1
102
RTVSPropertyOp13
 70
     1
102
RTVSPropertyOp14
 70
     1
102
RTVSPropertyOp15
 70
     1
102
RTVSPropertyOp16
 70
     1
102
RTVSPropertyOp17
 70
     1
102
RTVSPropertyOp18
 70
     1
102
RTVSPropertyOp19
 70
     1
102
RTVSPropertyOp20
 70
     1
102
RTVSPropertyOp21
 70
     1
102
RTVSPropertyOp22
 70
     1
102
RTVSPropertyOp23
 70
     1
102
RTVSPropertyOp24
 70
     1
102
RTVSPropertyOp25
 70
     1
102
RTVSPropertyOp26
 70
     1
102
RTVSPropertyOp27
 70
     1
  0
XRECORD
  5
328
102
{ACAD_REACTORS
330
327
102
}
330
327
100
AcDbXrecord
280
     1
102
RTVSPropertyOp0
 70
     1
102
RTVSPropertyOp1
 70
     1
102
RTVSPropertyOp2
 70
     1
102
RTVSPropertyOp3
 70
     1
102
RTVSPropertyOp4
 70
     1
102
RTVSPropertyOp5
 70
     1
102
RTVSPropertyOp6
 70
     1
102
RTVSPropertyOp7
 70
     1
102
RTVSPropertyOp8
 70
     1
102
RTVSPropertyOp9
 70
     1
102
RTVSPropertyOp10
 70
     1
102
RTVSPropertyOp11
 70
     1
102
RTVSPropertyOp12
 70
     1
102
RTVSPropertyOp13
 70
     1
102
RTVSPropertyOp14
 70
     1
102
RTVSPropertyOp15
 70
     1
102
RTVSPropertyOp16
 70
     1
102
RTVSPropertyOp17
 70
     1
102
RTVSPropertyOp18
 70
     1
102
RTVSPropertyOp19
 70
     1
102
RTVSPropertyOp20
 70
     1
102
RTVSPropertyOp21
 70
     1
102
RTVSPropertyOp22
 70
     1
102
RTVSPropertyOp23
 70
     1
102
RTVSPropertyOp24
 70
     1
102
RTVSPropertyOp25
 70
     1
102
RTVSPropertyOp26
 70
     1
102
RTVSPropertyOp27
 70
     1
  0
XRECORD
  5
33E
102
{ACAD_REACTORS
330
33D
102
}
330
33D
100
AcDbXrecord
280
     1
102
RTVSPropertyOp0
 70
     1
102
RTVSPropertyOp1
 70
     1
102
RTVSPropertyOp2
 70
     1
102
RTVSPropertyOp3
 70
     1
102
RTVSPropertyOp4
 70
     1
102
RTVSPropertyOp5
 70
     1
102
RTVSPropertyOp6
 70
     1
102
RTVSPropertyOp7
 70
     1
102
RTVSPropertyOp8
 70
     1
102
RTVSPropertyOp9
 70
     1
102
RTVSPropertyOp10
 70
     1
102
RTVSPropertyOp11
 70
     1
102
RTVSPropertyOp12
 70
     1
102
RTVSPropertyOp13
 70
     1
102
RTVSPropertyOp14
 70
     1
102
RTVSPropertyOp15
 70
     1
102
RTVSPropertyOp16
 70
     1
102
RTVSPropertyOp17
 70
     1
102
RTVSPropertyOp18
 70
     1
102
RTVSPropertyOp19
 70
     1
102
RTVSPropertyOp20
 70
     1
102
RTVSPropertyOp21
 70
     1
102
RTVSPropertyOp22
 70
     1
102
RTVSPropertyOp23
 70
     1
102
RTVSPropertyOp24
 70
     1
102
RTVSPropertyOp25
 70
     1
102
RTVSPropertyOp26
 70
     1
102
RTVSPropertyOp27
 70
     1
  0
ENDSEC
  0
EOF
