  0
SECTION
  2
HEADER
  9
$ACADVER
  1
AC1018
  9
$ACADMAINTVER
 70
   104
  9
$DWGCODEPAGE
  3
ANSI_936
  9
$LASTSAVEDBY
  1
chaxiu.zhu
  9
$INSBASE
 10
0.0
 20
0.0
 30
0.0
  9
$EXTMIN
 10
7798.994055416426
 20
-6543.034635581188
 30
-0.00000001
  9
$EXTMAX
 10
8788.843618075725
 20
-5396.877875713201
 30
0.00000001
  9
$LIMMIN
 10
0.0
 20
0.0
  9
$LIMMAX
 10
420.0
 20
297.0
  9
$ORTHOMODE
 70
     1
  9
$REGENMODE
 70
     1
  9
$FILLMODE
 70
     1
  9
$QTEXTMODE
 70
     0
  9
$MIRRTEXT
 70
     0
  9
$LTSCALE
 40
1.0
  9
$ATTMODE
 70
     1
  9
$TEXTSIZE
 40
2.5
  9
$TRACEWID
 40
1.0
  9
$TEXTSTYLE
  7
Standard
  9
$CLAYER
  8
轮廓线.
  9
$CELTYPE
  6
ByLayer
  9
$CECOLOR
 62
   256
  9
$CELTSCALE
 40
1.0
  9
$DISPSILH
 70
     0
  9
$DIMSCALE
 40
9.0
  9
$DIMASZ
 40
1.5
  9
$DIMEXO
 40
0.625
  9
$DIMDLI
 40
3.75
  9
$DIMRND
 40
0.0
  9
$DIMDLE
 40
0.0
  9
$DIMEXE
 40
0.5
  9
$DIMTP
 40
0.0
  9
$DIMTM
 40
0.0
  9
$DIMTXT
 40
2.5
  9
$DIMCEN
 40
2.5
  9
$DIMTSZ
 40
0.0
  9
$DIMTOL
 70
     0
  9
$DIMLIM
 70
     0
  9
$DIMTIH
 70
     0
  9
$DIMTOH
 70
     1
  9
$DIMSE1
 70
     0
  9
$DIMSE2
 70
     0
  9
$DIMTAD
 70
     1
  9
$DIMZIN
 70
     8
  9
$DIMBLK
  1

  9
$DIMASO
 70
     1
  9
$DIMSHO
 70
     1
  9
$DIMPOST
  1

  9
$DIMAPOST
  1

  9
$DIMALT
 70
     0
  9
$DIMALTD
 70
     3
  9
$DIMALTF
 40
0.03937007874016
  9
$DIMLFAC
 40
1.0
  9
$DIMTOFL
 70
     1
  9
$DIMTVP
 40
0.0
  9
$DIMTIX
 70
     0
  9
$DIMSOXD
 70
     0
  9
$DIMSAH
 70
     0
  9
$DIMBLK1
  1

  9
$DIMBLK2
  1

  9
$DIMSTYLE
  2
ISO-25
  9
$DIMCLRD
 70
     0
  9
$DIMCLRE
 70
     0
  9
$DIMCLRT
 70
     0
  9
$DIMTFAC
 40
1.0
  9
$DIMGAP
 40
0.3
  9
$DIMJUST
 70
     0
  9
$DIMSD1
 70
     0
  9
$DIMSD2
 70
     0
  9
$DIMTOLJ
 70
     0
  9
$DIMTZIN
 70
     8
  9
$DIMALTZ
 70
     0
  9
$DIMALTTZ
 70
     0
  9
$DIMUPT
 70
     0
  9
$DIMDEC
 70
     0
  9
$DIMTDEC
 70
     0
  9
$DIMALTU
 70
     2
  9
$DIMALTTD
 70
     3
  9
$DIMTXSTY
  7
Standard
  9
$DIMAUNIT
 70
     0
  9
$DIMADEC
 70
     0
  9
$DIMALTRND
 40
0.0
  9
$DIMAZIN
 70
     0
  9
$DIMDSEP
 70
    46
  9
$DIMATFIT
 70
     3
  9
$DIMFRAC
 70
     0
  9
$DIMLDRBLK
  1

  9
$DIMLUNIT
 70
     2
  9
$DIMLWD
 70
    -2
  9
$DIMLWE
 70
    -2
  9
$DIMTMOVE
 70
     0
  9
$LUNITS
 70
     2
  9
$LUPREC
 70
     4
  9
$SKETCHINC
 40
1.0
  9
$FILLETRAD
 40
5.0
  9
$AUNITS
 70
     0
  9
$AUPREC
 70
     0
  9
$MENU
  1
.
  9
$ELEVATION
 40
0.0
  9
$PELEVATION
 40
0.0
  9
$THICKNESS
 40
0.0
  9
$LIMCHECK
 70
     0
  9
$CHAMFERA
 40
0.0
  9
$CHAMFERB
 40
0.0
  9
$CHAMFERC
 40
0.0
  9
$CHAMFERD
 40
0.0
  9
$SKPOLY
 70
     0
  9
$TDCREATE
 40
2455843.370532037
  9
$TDUCREATE
 40
2455843.037198704
  9
$TDUPDATE
 40
2458858.661553600
  9
$TDUUPDATE
 40
2458858.328220267
  9
$TDINDWG
 40
2.3132859606
  9
$TDUSRTIMER
 40
2.3132857870
  9
$USRTIMER
 70
     1
  9
$ANGBASE
 50
0.0
  9
$ANGDIR
 70
     0
  9
$PDMODE
 70
     0
  9
$PDSIZE
 40
0.0
  9
$PLINEWID
 40
0.0
  9
$SPLFRAME
 70
     0
  9
$SPLINETYPE
 70
     6
  9
$SPLINESEGS
 70
     8
  9
$HANDSEED
  5
292
  9
$SURFTAB1
 70
     6
  9
$SURFTAB2
 70
     6
  9
$SURFTYPE
 70
     6
  9
$SURFU
 70
     6
  9
$SURFV
 70
     6
  9
$UCSBASE
  2

  9
$UCSNAME
  2

  9
$UCSORG
 10
0.0
 20
0.0
 30
0.0
  9
$UCSXDIR
 10
1.0
 20
0.0
 30
0.0
  9
$UCSYDIR
 10
0.0
 20
1.0
 30
0.0
  9
$UCSORTHOREF
  2

  9
$UCSORTHOVIEW
 70
     0
  9
$UCSORGTOP
 10
0.0
 20
0.0
 30
0.0
  9
$UCSORGBOTTOM
 10
0.0
 20
0.0
 30
0.0
  9
$UCSORGLEFT
 10
0.0
 20
0.0
 30
0.0
  9
$UCSORGRIGHT
 10
0.0
 20
0.0
 30
0.0
  9
$UCSORGFRONT
 10
0.0
 20
0.0
 30
0.0
  9
$UCSORGBACK
 10
0.0
 20
0.0
 30
0.0
  9
$PUCSBASE
  2

  9
$PUCSNAME
  2

  9
$PUCSORG
 10
0.0
 20
0.0
 30
0.0
  9
$PUCSXDIR
 10
1.0
 20
0.0
 30
0.0
  9
$PUCSYDIR
 10
0.0
 20
1.0
 30
0.0
  9
$PUCSORTHOREF
  2

  9
$PUCSORTHOVIEW
 70
     0
  9
$PUCSORGTOP
 10
0.0
 20
0.0
 30
0.0
  9
$PUCSORGBOTTOM
 10
0.0
 20
0.0
 30
0.0
  9
$PUCSORGLEFT
 10
0.0
 20
0.0
 30
0.0
  9
$PUCSORGRIGHT
 10
0.0
 20
0.0
 30
0.0
  9
$PUCSORGFRONT
 10
0.0
 20
0.0
 30
0.0
  9
$PUCSORGBACK
 10
0.0
 20
0.0
 30
0.0
  9
$USERI1
 70
     0
  9
$USERI2
 70
     0
  9
$USERI3
 70
     0
  9
$USERI4
 70
     0
  9
$USERI5
 70
     0
  9
$USERR1
 40
0.0
  9
$USERR2
 40
0.0
  9
$USERR3
 40
0.0
  9
$USERR4
 40
0.0
  9
$USERR5
 40
2.5
  9
$WORLDVIEW
 70
     1
  9
$SHADEDGE
 70
     3
  9
$SHADEDIF
 70
    70
  9
$TILEMODE
 70
     1
  9
$MAXACTVP
 70
    64
  9
$PINSBASE
 10
0.0
 20
0.0
 30
0.0
  9
$PLIMCHECK
 70
     0
  9
$PEXTMIN
 10
0.0
 20
0.0
 30
0.0
  9
$PEXTMAX
 10
0.0
 20
0.0
 30
0.0
  9
$PLIMMIN
 10
0.0
 20
0.0
  9
$PLIMMAX
 10
12.0
 20
9.0
  9
$UNITMODE
 70
     0
  9
$VISRETAIN
 70
     1
  9
$PLINEGEN
 70
     0
  9
$PSLTSCALE
 70
     1
  9
$TREEDEPTH
 70
  3020
  9
$CMLSTYLE
  2
Standard
  9
$CMLJUST
 70
     0
  9
$CMLSCALE
 40
20.0
  9
$PROXYGRAPHICS
 70
     1
  9
$MEASUREMENT
 70
     1
  9
$CELWEIGHT
370
    -1
  9
$ENDCAPS
280
     0
  9
$JOINSTYLE
280
     0
  9
$LWDISPLAY
290
     0
  9
$INSUNITS
 70
     4
  9
$HYPERLINKBASE
  1

  9
$STYLESHEET
  1

  9
$XEDIT
290
     1
  9
$CEPSNTYPE
380
     0
  9
$PSTYLEMODE
290
     1
  9
$FINGERPRINTGUID
  2
{AD4D6D9D-6BFF-4A9F-8F8C-8995711179C6}
  9
$VERSIONGUID
  2
{725BD228-397E-41B1-81DF-EEB4245B3628}
  9
$EXTNAMES
290
     1
  9
$PSVPSCALE
 40
0.0
  9
$OLESTARTUP
290
     0
  9
$SORTENTS
280
   127
  9
$INDEXCTL
280
     0
  9
$HIDETEXT
280
     1
  9
$XCLIPFRAME
290
     0
  9
$HALOGAP
280
     0
  9
$OBSCOLOR
 70
   257
  9
$OBSLTYPE
280
     0
  9
$INTERSECTIONDISPLAY
280
     0
  9
$INTERSECTIONCOLOR
 70
   257
  9
$DIMASSOC
280
     2
  9
$PROJECTNAME
  1

  0
ENDSEC
  0
SECTION
  2
CLASSES
  0
CLASS
  1
ACDBDICTIONARYWDFLT
  2
AcDbDictionaryWithDefault
  3
ObjectDBX Classes
 90
        0
 91
        1
280
     0
281
     0
  0
CLASS
  1
DICTIONARYVAR
  2
AcDbDictionaryVar
  3
ObjectDBX Classes
 90
        0
 91
        2
280
     0
281
     0
  0
CLASS
  1
TABLESTYLE
  2
AcDbTableStyle
  3
ObjectDBX Classes
 90
     4095
 91
        1
280
     0
281
     0
  0
CLASS
  1
MATERIAL
  2
AcDbMaterial
  3
ObjectDBX Classes
 90
        0
 91
        3
280
     0
281
     0
  0
CLASS
  1
VISUALSTYLE
  2
AcDbVisualStyle
  3
ObjectDBX Classes
 90
     4095
 91
       16
280
     0
281
     0
  0
CLASS
  1
VLO-VL
  2
vlo_VL
  3
VL|AutoLISP based application
 90
        0
 91
        0
280
     0
281
     0
  0
CLASS
  1
SORTENTSTABLE
  2
AcDbSortentsTable
  3
ObjectDBX Classes
 90
        0
 91
        1
280
     0
281
     0
  0
CLASS
  1
DIMASSOC
  2
AcDbDimAssoc
  3
"ZcDbDimAssoc|Product Desc:     ZwDim ZRX App For Dimension|Company:          ZwSoft.|WEB Address:      www.zwsoft.com"
 90
        0
 91
        0
280
     0
281
     0
  0
CLASS
  1
LARGE_RADIAL_DIMENSION
  2
AcDbRadialDimensionLarge
  3
ObjectDBX Classes
 90
     1025
 91
        0
280
     0
281
     1
  0
CLASS
  1
SCALE
  2
AcDbScale
  3
ObjectDBX Classes
 90
     1153
 91
       33
280
     0
281
     0
  0
CLASS
  1
MLEADERSTYLE
  2
AcDbMLeaderStyle
  3
ACDB_MLEADERSTYLE_CLASS
 90
     4095
 91
        1
280
     0
281
     0
  0
CLASS
  1
CELLSTYLEMAP
  2
AcDbCellStyleMap
  3
ObjectDBX Classes
 90
     1152
 91
        1
280
     0
281
     0
  0
ENDSEC
  0
SECTION
  2
TABLES
  0
TABLE
  2
VPORT
  5
23
102
{ACAD_XDICTIONARY
360
27
102
}
330
0
100
AcDbSymbolTable
 70
     2
  0
VPORT
  5
26B
330
23
100
AcDbSymbolTableRecord
100
AcDbViewportTableRecord
  2
*Active
 70
     0
 10
0.0
 20
0.0
 11
1.0
 21
1.0
 12
8961.119123927991
 22
-5969.987592829742
 13
0.0
 23
0.0
 14
10.0
 24
10.0
 15
10.0
 25
10.0
 16
0.0
 26
0.0
 36
1.0
 17
0.0
 27
0.0
 37
0.0
 40
1745.05514168303
 41
1.857503152585119
 42
50.0
 43
0.0
 44
0.0
 50
0.0
 51
0.0
 71
     0
 72
 10000
 73
     1
 74
     3
 75
     0
 76
     0
 77
     0
 78
     0
281
     0
 65
     1
110
0.0
120
0.0
130
0.0
111
1.0
121
0.0
131
0.0
112
0.0
122
1.0
132
0.0
 79
     0
146
0.0
  0
ENDTAB
  0
TABLE
  2
LTYPE
  5
1E
330
0
100
AcDbSymbolTable
 70
     1
  0
LTYPE
  5
1F
330
1E
100
AcDbSymbolTableRecord
100
AcDbLinetypeTableRecord
  2
ByBlock
 70
     0
  3

 72
    65
 73
     0
 40
0.0
  0
LTYPE
  5
20
330
1E
100
AcDbSymbolTableRecord
100
AcDbLinetypeTableRecord
  2
ByLayer
 70
     0
  3

 72
    65
 73
     0
 40
0.0
  0
LTYPE
  5
C
330
1E
100
AcDbSymbolTableRecord
100
AcDbLinetypeTableRecord
  2
Continuous
 70
     0
  3
Solid line
 72
    65
 73
     0
 40
0.0
  0
ENDTAB
  0
TABLE
  2
LAYER
  5
15
102
{ACAD_XDICTIONARY
360
16
102
}
330
0
100
AcDbSymbolTable
 70
     6
  0
LAYER
  5
6
330
15
100
AcDbSymbolTableRecord
100
AcDbLayerTableRecord
  2
0
 70
     0
 62
     7
  6
Continuous
370
    -3
390
7
  0
LAYER
  5
33
330
15
100
AcDbSymbolTableRecord
100
AcDbLayerTableRecord
  2
轮廓线.
 70
     0
 62
   255
  6
Continuous
370
    30
390
7
1001
AcAecLayerStandard
1000

1000

  0
LAYER
  5
D5
330
15
100
AcDbSymbolTableRecord
100
AcDbLayerTableRecord
  2
尺寸标注
 70
     0
 62
    80
  6
Continuous
370
    18
390
7
1001
AcAecLayerStandard
1000

1000

  0
LAYER
  5
61
330
15
100
AcDbSymbolTableRecord
100
AcDbLayerTableRecord
  2
02___PRT_ALL_AXES
 70
     0
 62
     7
  6
Continuous
370
    -3
390
7
  0
LAYER
  5
137
330
15
100
AcDbSymbolTableRecord
100
AcDbLayerTableRecord
  2
03___PRT_ALL_CURVES
 70
     0
 62
     7
  6
Continuous
370
    -3
390
7
  0
LAYER
  5
138
330
15
100
AcDbSymbolTableRecord
100
AcDbLayerTableRecord
  2
06___PRT_ALL_SURFS
 70
     0
 62
     7
  6
Continuous
370
    -3
390
7
  0
ENDTAB
  0
TABLE
  2
STYLE
  5
1B
330
0
100
AcDbSymbolTable
 70
     1
  0
STYLE
  5
1C
330
1B
100
AcDbSymbolTableRecord
100
AcDbTextStyleTableRecord
  2
Standard
 70
     0
 40
0.0
 41
1.0
 50
0.0
 71
     0
 42
2.5
  3
SimSun.ttf
  4

1001
ACAD
1000
SimSun
1071
    34306
  0
ENDTAB
  0
TABLE
  2
VIEW
  5
21
330
0
100
AcDbSymbolTable
 70
     0
  0
ENDTAB
  0
TABLE
  2
UCS
  5
22
330
0
100
AcDbSymbolTable
 70
     0
  0
ENDTAB
  0
TABLE
  2
APPID
  5
28
330
0
100
AcDbSymbolTable
 70
     4
  0
APPID
  5
1A
330
28
100
AcDbSymbolTableRecord
100
AcDbRegAppTableRecord
  2
ACAD
 70
     0
  0
APPID
  5
10
330
28
100
AcDbSymbolTableRecord
100
AcDbRegAppTableRecord
  2
ACAD_PSEXT
 70
     0
  0
APPID
  5
34
330
28
100
AcDbSymbolTableRecord
100
AcDbRegAppTableRecord
  2
AcAecLayerStandard
 70
     0
  0
APPID
  5
291
330
28
100
AcDbSymbolTableRecord
100
AcDbRegAppTableRecord
  2
ACAD_MLEADERVER
 70
     0
  0
ENDTAB
  0
TABLE
  2
DIMSTYLE
  5
29
330
0
100
AcDbSymbolTable
 70
     1
100
AcDbDimStyleTable
 71
     1
340
2A
  0
DIMSTYLE
105
2A
330
29
100
AcDbSymbolTableRecord
100
AcDbDimStyleTableRecord
  2
ISO-25
 70
     0
 40
9.0
 41
1.5
 42
0.625
 43
3.75
 44
0.5
 73
     0
 77
     1
 78
     8
140
2.5
141
2.5
143
0.03937007874016
147
0.3
171
     3
172
     1
271
     0
272
     0
274
     3
283
     0
284
     8
340
1C
  0
ENDTAB
  0
TABLE
  2
BLOCK_RECORD
  5
1
330
0
100
AcDbSymbolTable
 70
     0
  0
BLOCK_RECORD
  5
2
102
{ACAD_XDICTIONARY
360
3
102
}
330
1
100
AcDbSymbolTableRecord
100
AcDbBlockTableRecord
  2
*Model_Space
340
E
  0
BLOCK_RECORD
  5
11
330
1
100
AcDbSymbolTableRecord
100
AcDbBlockTableRecord
  2
*Paper_Space
340
14
  0
ENDTAB
  0
ENDSEC
  0
SECTION
  2
BLOCKS
  0
BLOCK
  5
5
330
2
100
AcDbEntity
  8
0
100
AcDbBlockBegin
  2
*Model_Space
 70
     0
 10
0.0
 20
0.0
 30
0.0
  3
*Model_Space
  1

  0
ENDBLK
  5
D
330
2
100
AcDbEntity
  8
0
100
AcDbBlockEnd
  0
BLOCK
  5
12
330
11
100
AcDbEntity
 67
     1
  8
0
100
AcDbBlockBegin
  2
*Paper_Space
 70
     0
 10
0.0
 20
0.0
 30
0.0
  3
*Paper_Space
  1

  0
ENDBLK
  5
13
330
11
100
AcDbEntity
 67
     1
  8
0
100
AcDbBlockEnd
  0
ENDSEC
  0
SECTION
  2
ENTITIES
  0
MTEXT
  5
1BE
330
2
100
AcDbEntity
  8
尺寸标注
100
AcDbMText
 10
8031.309884993083
 20
-5413.544542379867
 30
0.0
 40
75.0
 41
801.6353349369019
 71
     2
 72
     5
  1
SCALE\P1:1
 73
     1
 44
1.0
  0
LINE
  5
1BF
330
2
100
AcDbEntity
  8
0
  6
Continuous
 62
     7
100
AcDbLine
 10
8412.843618065727
 20
-5847.584826499989
 30
0.0
 11
8412.843618065727
 21
-5853.584826499988
 31
0.0
  0
LINE
  5
1C0
330
2
100
AcDbEntity
  8
0
  6
Continuous
 62
     7
100
AcDbLine
 10
8426.352602416024
 20
-5859.570461583388
 30
0.0
 11
8426.352550843727
 21
-5859.562220442688
 31
0.0
  0
LINE
  5
1C1
330
2
100
AcDbEntity
  8
0
  6
Continuous
 62
     7
100
AcDbLine
 10
8441.196599344326
 20
-5857.974559537288
 30
0.0
 11
8441.207328652126
 21
-5858.016170120188
 31
0.0
  0
LINE
  5
1C2
330
2
100
AcDbEntity
  8
0
  6
Continuous
 62
     7
100
AcDbLine
 10
8441.350726201823
 20
-5858.433771752988
 30
0.0
 11
8441.351159287725
 21
-5858.435544662688
 31
0.0
  0
LINE
  5
1C3
330
2
100
AcDbEntity
  8
0
  6
Continuous
 62
     7
100
AcDbLine
 10
8441.351159287725
 20
-5858.435544662688
 30
0.0
 11
8441.451501874825
 21
-5858.975063391488
 31
0.0
  0
LINE
  5
1C4
330
2
100
AcDbEntity
  8
0
  6
Continuous
 62
     7
100
AcDbLine
 10
8441.202818324226
 20
-5857.985532508388
 30
0.0
 11
8441.351159321024
 21
-5858.435544798989
 31
0.0
  0
LINE
  5
1C5
330
2
100
AcDbEntity
  8
0
  6
Continuous
 62
     7
100
AcDbLine
 10
8521.444300467425
 20
-6012.520605465488
 30
0.0
 11
8521.249337060927
 21
-6010.292163532988
 31
0.0
  0
LINE
  5
1C6
330
2
100
AcDbEntity
  8
0
  6
Continuous
 62
     7
100
AcDbLine
 10
8585.260637550826
 20
-6017.084826499988
 30
0.0
 11
8526.426598580627
 21
-6017.084826499988
 31
0.0
  0
LINE
  5
1C7
330
2
100
AcDbEntity
  8
0
  6
Continuous
 62
     7
100
AcDbLine
 10
8590.242935666825
 20
-6012.520605434588
 30
0.0
 11
8521.444300464725
 21
-6012.520605434588
 31
0.0
  0
LWPOLYLINE
  5
1C8
330
2
100
AcDbEntity
  8
0
  6
Continuous
 62
     7
100
AcDbPolyline
 90
        3
 70
     0
 43
0.0
 10
8440.235105948326
 20
-5856.584826499988
 10
8440.638504825228
 20
-5856.989839362988
 10
8441.202818324226
 20
-5857.985532508388
  0
LINE
  5
1C9
330
2
100
AcDbEntity
  8
03___PRT_ALL_CURVES
  6
Continuous
 62
     4
100
AcDbLine
 10
8597.937083912126
 20
-5979.568844640688
 30
0.0
 11
8597.639785120724
 21
-5979.573034284888
 31
0.0
  0
LINE
  5
1CA
330
2
100
AcDbEntity
  8
0
  6
Continuous
 62
     7
100
AcDbLine
 10
8592.726214949527
 20
-5984.136593349989
 30
0.0
 11
8541.836955049225
 21
-5984.129897511189
 31
0.0
  0
LINE
  5
1CB
330
2
100
AcDbEntity
  8
0
  6
Continuous
 62
     7
100
AcDbLine
 10
8590.242935664127
 20
-6012.520605465488
 30
0.0
 11
8592.726214949527
 21
-5984.136593349989
 31
0.0
  0
LINE
  5
1CC
330
2
100
AcDbEntity
  8
0
  6
Continuous
 62
     7
100
AcDbLine
 10
8415.843618065727
 20
-5856.584826499988
 30
0.0
 11
8785.843618065726
 21
-5856.584826499988
 31
0.0
  0
LINE
  5
1CF
330
2
100
AcDbEntity
  8
0
  6
Continuous
 62
     7
100
AcDbLine
 10
8782.843618065726
 20
-5841.584826499989
 30
0.0
 11
8418.843618065727
 21
-5841.584826499989
 31
0.0
  0
LINE
  5
1D0
330
2
100
AcDbEntity
  8
0
  6
Continuous
 62
     7
100
AcDbLine
 10
8788.843618065726
 20
-5847.584826499989
 30
0.0
 11
8788.843618065726
 21
-5853.584826499988
 31
0.0
  0
LINE
  5
1D1
330
2
100
AcDbEntity
  8
06___PRT_ALL_SURFS
  6
Continuous
 62
     7
100
AcDbLine
 10
7798.994055426426
 20
-5853.584826499988
 30
0.0
 11
7798.994055426426
 21
-5847.584826499989
 31
0.0
  0
LWPOLYLINE
  5
1D2
330
2
100
AcDbEntity
  8
06___PRT_ALL_SURFS
  6
Continuous
 62
     7
100
AcDbPolyline
 90
       18
 70
     0
 43
0.0
 10
7832.150678281525
 20
-5859.485067187389
 10
7839.063368954225
 20
-5874.935723190088
 10
7847.272867296625
 20
-5890.656561703588
 10
7856.336708283426
 20
-5905.079215687688
 10
7866.203074270726
 20
-5918.125309756389
 10
7876.745424926927
 20
-5929.797550936288
 10
7887.865084144324
 20
-5940.074685405487
 10
7899.490048689824
 20
-5948.928967188988
 10
7911.546325866126
 20
-5956.360004411788
 10
7923.833576071226
 20
-5962.343474213987
 10
7936.071209835025
 20
-5966.988319792988
 10
7947.982162410525
 20
-5970.583967739888
 10
7959.369757632725
 20
-5973.381391062588
 10
7970.205275316025
 20
-5975.603314521087
 10
7980.648625942025
 20
-5977.348975447888
 10
7990.424195565726
 20
-5978.570296008388
 10
7999.679536547725
 20
-5979.311489540288
 10
8007.204077152225
 20
-5979.573897554889
  0
LINE
  5
1D3
330
2
100
AcDbEntity
  8
0
  6
Continuous
 62
     7
100
AcDbLine
 10
8019.575711296525
 20
-6017.084826499988
 30
0.0
 11
8078.412399556425
 21
-6017.084826499988
 31
0.0
  0
LINE
  5
1D4
330
2
100
AcDbEntity
  8
0
  6
Continuous
 62
     7
100
AcDbLine
 10
8083.393373046826
 20
-6012.520605213788
 30
0.0
 11
8014.594737806126
 21
-6012.520605213788
 31
0.0
  0
LINE
  5
1D5
330
2
100
AcDbEntity
  8
0
  6
Continuous
 62
     7
100
AcDbLine
 10
8014.594737806126
 20
-6012.520605213788
 30
0.0
 11
8012.111530419225
 21
-5984.137414902687
 31
0.0
  0
LWPOLYLINE
  5
1D6
330
2
100
AcDbEntity
  8
0
  6
Continuous
 62
     7
100
AcDbPolyline
 90
        4
 70
     0
 43
0.0
 10
8090.554851447025
 20
-5979.582404114188
 10
8090.705192638926
 20
-5979.575595317788
 10
8090.755624864824
 20
-5979.574354995289
 10
8090.776006882725
 20
-5979.574017492588
  0
LWPOLYLINE
  5
1D7
330
2
100
AcDbEntity
  8
06___PRT_ALL_SURFS
  6
Continuous
 62
     7
100
AcDbPolyline
 90
       18
 70
     0
 43
0.0
 10
8090.784033463924
 20
-5979.573897557788
 10
8098.308574289825
 20
-5979.311489541188
 10
8107.563915290725
 20
-5978.570296007988
 10
8117.339484933324
 20
-5977.348975444588
 10
8127.782835580326
 20
-5975.603314512888
 10
8138.618353285727
 20
-5973.381391047989
 10
8150.005948531626
 20
-5970.583967715788
 10
8161.916901130926
 20
-5966.988319754988
 10
8174.154534916826
 20
-5962.343474156188
 10
8186.441785141026
 20
-5956.360004326988
 10
8198.498062332523
 20
-5948.928967072688
 10
8210.123026889126
 20
-5940.074685253788
 10
8221.242686113626
 20
-5929.797550746388
 10
8231.785036772825
 20
-5918.125309525888
 10
8241.651402758625
 20
-5905.079215414088
 10
8250.715243737825
 20
-5890.656561385789
 10
8258.924742072526
 20
-5874.935722827388
 10
8265.837432797626
 20
-5859.485066649188
  0
LINE
  5
1D8
330
2
100
AcDbEntity
  8
0
  6
Continuous
 62
     7
100
AcDbLine
 10
8090.795385980126
 20
-5979.573579838088
 30
0.0
 11
8090.784018110324
 21
-5979.573897743188
 31
0.0
  0
LINE
  5
1D9
330
2
100
AcDbEntity
  8
0
  6
Continuous
 62
     7
100
AcDbLine
 10
8090.784018110324
 20
-5979.573897743188
 30
0.0
 11
8090.782060191726
 21
-5979.573921477688
 31
0.0
  0
LINE
  5
1DA
330
2
100
AcDbEntity
  8
0
  6
Continuous
 62
     7
100
AcDbLine
 10
8085.876580433724
 20
-5984.137414902687
 30
0.0
 11
8012.111530419225
 21
-5984.137414902687
 31
0.0
  0
LINE
  5
1DB
330
2
100
AcDbEntity
  8
0
  6
Continuous
 62
     7
100
AcDbLine
 10
8007.205978006727
 20
-5979.573920631388
 30
0.0
 11
8007.204093030326
 21
-5979.573897746688
 31
0.0
  0
LWPOLYLINE
  5
1DC
330
2
100
AcDbEntity
  8
0
  6
Continuous
 62
     7
100
AcDbPolyline
 90
        4
 70
     0
 43
0.0
 10
8007.215515331726
 20
-5979.574066347188
 10
8007.246410674126
 20
-5979.574642388687
 10
8007.340955311725
 20
-5979.577679442988
 10
8007.596976339925
 20
-5979.595020653588
  0
LINE
  5
1DD
330
2
100
AcDbEntity
  8
0
  6
Continuous
 62
     7
100
AcDbLine
 10
8007.204093030326
 20
-5979.573897746688
 30
0.0
 11
8007.192724872826
 21
-5979.573579838088
 31
0.0
  0
LWPOLYLINE
  5
1DE
330
2
100
AcDbEntity
  8
0
  6
Continuous
 62
     7
100
AcDbPolyline
 90
       15
 70
     0
 43
0.0
 10
8007.596976339925
 20
-5979.595020653588
 10
8007.941875414024
 20
-5979.639469627088
 10
8008.303174839726
 20
-5979.712649424988
 10
8008.675327081425
 20
-5979.817813585788
 10
8009.053861368924
 20
-5979.957906398489
 10
8009.433640996824
 20
-5980.135198941788
 10
8009.809246831926
 20
-5980.351271417588
 10
8010.175678734825
 20
-5980.607433748888
 10
8010.527531397825
 20
-5980.904325616488
 10
8010.859122660624
 20
-5981.241852457588
 10
8011.164601076526
 20
-5981.619123329488
 10
8011.438057319526
 20
-5982.034396711488
 10
8011.673646996525
 20
-5982.485039727088
 10
8011.865726736225
 20
-5982.967508595588
 10
8011.991679623825
 20
-5983.402917750688
  0
LINE
  5
1DF
330
2
100
AcDbEntity
  8
0
  6
Continuous
 62
     7
100
AcDbLine
 10
8011.991676533027
 20
-5983.402918504689
 30
0.0
 11
8012.111533229326
 21
-5984.137414656788
 31
0.0
  0
LINE
  5
1E0
330
2
100
AcDbEntity
  8
0
  6
Continuous
 62
     7
100
AcDbLine
 10
8083.393373046826
 20
-6012.520605213788
 30
0.0
 11
8085.876580433724
 21
-5984.137414902687
 31
0.0
  0
LINE
  5
1E1
330
2
100
AcDbEntity
  8
0
  6
Continuous
 62
     7
100
AcDbLine
 10
8085.996824355126
 20
-5983.401285570089
 30
0.0
 11
8085.876574240826
 21
-5984.137414360888
 31
0.0
  0
LWPOLYLINE
  5
1E2
330
2
100
AcDbEntity
  8
0
  6
Continuous
 62
     7
100
AcDbPolyline
 90
       15
 70
     0
 43
0.0
 10
8085.996824355126
 20
-5983.401285570089
 10
8086.143631856426
 20
-5982.906161283988
 10
8086.351127592726
 20
-5982.407050516688
 10
8086.606029952724
 20
-5981.941731490888
 10
8086.902026920826
 20
-5981.514787404588
 10
8087.232347351825
 20
-5981.129661738988
 10
8087.589965569526
 20
-5980.788634010788
 10
8087.967791857325
 20
-5980.492839566887
 10
8088.358857988625
 20
-5980.242313863888
 10
8088.756478714024
 20
-5980.036072529588
 10
8089.154156382425
 20
-5979.872299957389
 10
8089.544355974224
 20
-5979.748730179488
 10
8089.919429712026
 20
-5979.662000727087
 10
8090.266508113126
 20
-5979.608269130888
 10
8090.554851447025
 20
-5979.582404114188
  0
LINE
  5
1E3
330
2
100
AcDbEntity
  8
0
  6
Continuous
 62
     7
100
AcDbLine
 10
7801.994055426525
 20
-5856.584826499988
 30
0.0
 11
8295.994055425126
 21
-5856.584826499988
 31
0.0
  0
LINE
  5
1E6
330
2
100
AcDbEntity
  8
0
  6
Continuous
 62
     7
100
AcDbLine
 10
8292.993905048424
 20
-5841.584826499989
 30
0.0
 11
7804.994055430326
 21
-5841.584826499989
 31
0.0
  0
LINE
  5
1E7
330
2
100
AcDbEntity
  8
06___PRT_ALL_SURFS
  6
Continuous
 62
     7
100
AcDbLine
 10
8298.994055426424
 20
-5853.584826499988
 30
0.0
 11
8298.994055426424
 21
-5847.584826499989
 31
0.0
  0
LINE
  5
1E8
330
2
100
AcDbEntity
  8
0
  6
Continuous
 62
     7
100
AcDbLine
 10
8110.994055426425
 20
-6543.034635571188
 30
0.0
 11
7986.994055426426
 21
-6543.034635571188
 31
0.0
  0
LINE
  5
1E9
330
2
100
AcDbEntity
  8
0
  6
Continuous
 62
     7
100
AcDbLine
 10
8110.994055426425
 20
-6537.034635571188
 30
0.0
 11
7986.994055426426
 21
-6537.034635571188
 31
0.0
  0
LINE
  5
1EA
330
2
100
AcDbEntity
  8
0
  6
Continuous
 62
     7
100
AcDbLine
 10
7986.994055426426
 20
-6173.034635571188
 30
0.0
 11
8110.994055426425
 21
-6173.034635571188
 31
0.0
  0
LINE
  5
1EB
330
2
100
AcDbEntity
  8
0
  6
Continuous
 62
     7
100
AcDbLine
 10
7986.994055426426
 20
-6167.034635571188
 30
0.0
 11
8110.994055426425
 21
-6167.034635571188
 31
0.0
  0
ARC
  5
1EC
330
2
100
AcDbEntity
  8
0
  6
Continuous
 62
     7
100
AcDbCircle
 10
8418.843618065727
 20
-5847.584826499989
 30
0.0
 40
6.0
100
AcDbArc
 50
90.0
 51
180.0
  0
ARC
  5
1ED
330
2
100
AcDbEntity
  8
0
  6
Continuous
 62
     7
100
AcDbCircle
 10
8526.425273935826
 20
-6012.084826499988
 30
0.0
 40
5.0
100
AcDbArc
 50
185.00000289508
 51
270.0000240493821
  0
ARC
  5
1EE
330
2
100
AcDbEntity
  8
0
  6
Continuous
 62
     7
100
AcDbCircle
 10
8423.339310280324
 20
-5859.598275813988
 30
0.0
 40
3.013436411899999
100
AcDbArc
 50
0.7106820515168922
 51
89.74944562840184
  0
ARC
  5
1EF
330
2
100
AcDbEntity
  8
0
  6
Continuous
 62
     7
100
AcDbCircle
 10
8518.260683978725
 20
-6010.552835111888
 30
0.0
 40
3.0000000013
100
AcDbArc
 50
5.000000416984246
 51
85.06418233442367
  0
ARC
  5
1F0
330
2
100
AcDbEntity
  8
0
  6
Continuous
 62
     7
100
AcDbCircle
 10
8415.843618065727
 20
-5853.584826499988
 30
0.0
 40
3.0
100
AcDbArc
 50
180.0
 51
270.0
  0
ARC
  5
1F1
330
2
100
AcDbEntity
  8
0
  6
Continuous
 62
     7
100
AcDbCircle
 10
8554.207022767325
 20
-5593.611003705688
 30
0.0
 40
415.4888020339
100
AcDbArc
 50
265.7910379649707
 51
266.2411231579103
  0
ARC
  5
1F2
330
2
100
AcDbEntity
  8
0
  6
Continuous
 62
     7
100
AcDbCircle
 10
8540.062654819726
 20
-5828.794755108388
 30
0.0
 40
150.7719790482
100
AcDbArc
 50
269.4332038813793
 51
269.9711817934781
  0
ARC
  5
1F3
330
2
100
AcDbEntity
  8
0
  6
Continuous
 62
     7
100
AcDbCircle
 10
8766.005638495524
 20
-5862.583480545288
 30
0.0
 40
7.998008745899999
100
AcDbArc
 50
130.9425888360977
 51
165.4592092827068
  0
ARC
  5
1F4
330
2
100
AcDbEntity
  8
0
  6
Continuous
 62
     7
100
AcDbCircle
 10
8782.843618065726
 20
-5847.584826499989
 30
0.0
 40
6.0
100
AcDbArc
 50
0.0
 51
90.0
  0
ARC
  5
1F5
330
2
100
AcDbEntity
  8
0
  6
Continuous
 62
     7
100
AcDbCircle
 10
8585.261962195625
 20
-6012.084826499988
 30
0.0
 40
5.0
100
AcDbArc
 50
269.999975950618
 51
354.9999971049199
  0
ARC
  5
1F6
330
2
100
AcDbEntity
  8
0
  6
Continuous
 62
     7
100
AcDbCircle
 10
8597.707188241624
 20
-5984.572372063688
 30
0.0
 40
4.999999976499999
100
AcDbArc
 50
90.76028688462224
 51
174.9999998013019
  0
ARC
  5
1F7
330
2
100
AcDbEntity
  8
0
  6
Continuous
 62
     7
100
AcDbCircle
 10
8785.843618065726
 20
-5853.584826499988
 30
0.0
 40
3.0
100
AcDbArc
 50
270.0
 51
0.0
  0
ARC
  5
1F8
330
2
100
AcDbEntity
  8
0
  6
Continuous
 62
     7
100
AcDbCircle
 10
8273.212495535524
 20
-5862.584826499988
 30
0.0
 40
8.000002636199999
100
AcDbArc
 50
130.9957084680694
 51
157.2027692141217
  0
ARC
  5
1F9
330
2
100
AcDbEntity
  8
0
  6
Continuous
 62
     7
100
AcDbCircle
 10
7824.775616752726
 20
-5862.584826499988
 30
0.0
 40
8.0000023039
100
AcDbArc
 50
22.7972311345894
 51
49.00426617382613
  0
ARC
  5
1FA
330
2
100
AcDbEntity
  8
0
  6
Continuous
 62
     7
100
AcDbCircle
 10
8292.994055426424
 20
-5847.584826499989
 30
0.0
 40
6.0
100
AcDbArc
 50
0.0
 51
90.00000003689402
  0
ARC
  5
1FB
330
2
100
AcDbEntity
  8
0
  6
Continuous
 62
     7
100
AcDbCircle
 10
7804.994055426425
 20
-5847.584826499989
 30
0.0
 40
6.0
100
AcDbArc
 50
89.99999996310597
 51
180.0
  0
ARC
  5
1FC
330
2
100
AcDbEntity
  8
0
  6
Continuous
 62
     7
100
AcDbCircle
 10
8019.575711296525
 20
-6012.084826499988
 30
0.0
 40
5.0
100
AcDbArc
 50
185.0000000067235
 51
270.0
  0
ARC
  5
1FD
330
2
100
AcDbEntity
  8
0
  6
Continuous
 62
     7
100
AcDbCircle
 10
8078.412399556425
 20
-6012.084826499988
 30
0.0
 40
5.0
100
AcDbArc
 50
270.0
 51
354.9999999932765
  0
ARC
  5
1FE
330
2
100
AcDbEntity
  8
0
  6
Continuous
 62
     7
100
AcDbCircle
 10
8007.130560137925
 20
-5984.573193236087
 30
0.0
 40
4.9999996167
100
AcDbArc
 50
13.53592287618193
 51
89.28762623731287
  0
ARC
  5
1FF
330
2
100
AcDbEntity
  8
0
  6
Continuous
 62
     7
100
AcDbCircle
 10
8090.857546903226
 20
-5984.573193342988
 30
0.0
 40
4.999999165899999
100
AcDbArc
 50
90.7123300706853
 51
166.4448273083702
  0
ARC
  5
200
330
2
100
AcDbEntity
  8
0
  6
Continuous
 62
     7
100
AcDbCircle
 10
7801.994055426426
 20
-5853.584826499988
 30
0.0
 40
3.0
100
AcDbArc
 50
180.0
 51
270.0000000264199
  0
ARC
  5
201
330
2
100
AcDbEntity
  8
0
  6
Continuous
 62
     7
100
AcDbCircle
 10
8295.994055426424
 20
-5853.584826499988
 30
0.0
 40
3.0
100
AcDbArc
 50
269.9999999735801
 51
0.0
  0
ARC
  5
202
330
2
100
AcDbEntity
  8
0
  6
Continuous
 62
     7
100
AcDbCircle
 10
7986.994055426426
 20
-6355.034635571188
 30
0.0
 40
188.0
100
AcDbArc
 50
90.0
 51
270.0
  0
ARC
  5
203
330
2
100
AcDbEntity
  8
0
  6
Continuous
 62
     7
100
AcDbCircle
 10
7986.994055426426
 20
-6355.034635571188
 30
0.0
 40
181.9999996516
100
AcDbArc
 50
90.0
 51
270.0
  0
ARC
  5
204
330
2
100
AcDbEntity
  8
0
  6
Continuous
 62
     7
100
AcDbCircle
 10
8048.854024616126
 20
-24107.74025801309
 30
0.0
 40
17901.9444823335
100
AcDbArc
 50
89.80269396050509
 51
90.19643437767832
  0
ARC
  5
205
330
2
100
AcDbEntity
  8
0
  6
Continuous
 62
     7
100
AcDbCircle
 10
8048.865283791226
 20
-20687.91839170019
 30
0.0
 40
14488.0586740093
100
AcDbArc
 50
89.75614990620526
 51
90.24286159399457
  0
ARC
  5
206
330
2
100
AcDbEntity
  8
0
  6
Continuous
 62
     7
100
AcDbCircle
 10
8048.897621000525
 20
9338.91242966931
 30
0.0
 40
15842.9547156213
100
AcDbArc
 50
269.7781162630026
 51
270.2225673020121
  0
ARC
  5
207
330
2
100
AcDbEntity
  8
0
  6
Continuous
 62
     7
100
AcDbCircle
 10
8048.902685301126
 20
4993.546945436408
 30
0.0
 40
11503.4551947654
100
AcDbArc
 50
269.6942416698263
 51
270.3066498639877
  0
ARC
  5
208
330
2
100
AcDbEntity
  8
0
  6
Continuous
 62
     7
100
AcDbCircle
 10
8110.994055426425
 20
-6355.034635571188
 30
0.0
 40
188.0
100
AcDbArc
 50
270.0
 51
90.0
  0
ARC
  5
209
330
2
100
AcDbEntity
  8
0
  6
Continuous
 62
     7
100
AcDbCircle
 10
8110.994055426425
 20
-6355.034635571188
 30
0.0
 40
181.9999996516
100
AcDbArc
 50
270.0
 51
90.0
  0
ARC
  5
20A
330
2
100
AcDbEntity
  8
0
  6
Continuous
 62
     7
100
AcDbCircle
 10
8049.020144978126
 20
-6310.038982732788
 30
0.0
 40
36.2379537762
100
AcDbArc
 50
179.9744887840893
 51
67.23177440160047
  0
ARC
  5
20B
330
2
100
AcDbEntity
  8
0
  6
Continuous
 62
     7
100
AcDbCircle
 10
8048.994055426424
 20
-6310.034635571188
 30
0.0
 40
36.2279485317
100
AcDbArc
 50
67.19108521797578
 51
180.0001195375861
  0
CIRCLE
  5
20C
330
2
100
AcDbEntity
  8
0
  6
Continuous
 62
     7
100
AcDbCircle
 10
8048.994055426424
 20
-6310.034635571188
 30
0.0
 40
32.2974763629
  0
CIRCLE
  5
20D
330
2
100
AcDbEntity
  8
0
  6
Continuous
 62
     7
100
AcDbCircle
 10
8048.994055426424
 20
-6310.034635571188
 30
0.0
 40
24.2742797107
  0
CIRCLE
  5
20E
330
2
100
AcDbEntity
  8
0
  6
Continuous
 62
     7
100
AcDbCircle
 10
8048.994055426424
 20
-6310.034635571188
 30
0.0
 40
22.25
  0
SPLINE
  5
20F
330
2
100
AcDbEntity
  8
0
  6
Continuous
 62
     7
100
AcDbSpline
210
0.0
220
0.0
230
1.0
 70
     8
 71
     3
 72
    13
 73
     9
 74
     0
 42
0.0000000001
 43
0.0000000001
 40
0.0
 40
0.0
 40
0.0
 40
0.0
 40
0.0481262395
 40
0.2163657441
 40
0.4760265153
 40
0.8069721651999998
 40
0.9352917519
 40
1.0
 40
1.0
 40
1.0
 40
1.0
 10
8526.968668511328
 20
-6008.206006899688
 30
0.0
 10
8523.594897128525
 20
-6007.984342295088
 30
0.0
 10
8508.381592654826
 20
-6006.799333600288
 30
0.0
 10
8475.201866718926
 20
-6002.311755595488
 30
0.0
 10
8431.077088274525
 20
-5964.640330960888
 30
0.0
 10
8427.001636692624
 20
-5912.477674825688
 30
0.0
 10
8426.312030126325
 20
-5877.326459281688
 30
0.0
 10
8426.388890794823
 20
-5864.088756634388
 30
0.0
 10
8426.352543389526
 20
-5859.560898525288
 30
0.0
  0
SPLINE
  5
210
330
2
100
AcDbEntity
  8
0
  6
Continuous
 62
     7
100
AcDbSpline
210
0.0
220
0.0
230
1.0
 70
     8
 71
     3
 72
    31
 73
    27
 74
     0
 42
0.0000000001
 43
0.0000000001
 40
0.0
 40
0.0
 40
0.0
 40
0.0
 40
0.0560285372
 40
0.1154330558
 40
0.1776180025
 40
0.2401794567
 40
0.3001660146
 40
0.3537566999
 40
0.3989937506
 40
0.4361642127000001
 40
0.464999455
 40
0.4852757216
 40
0.4969467317000001
 40
0.4999956452000001
 40
0.505592569
 40
0.5198210883
 40
0.5426197594
 40
0.5738814503000001
 40
0.6134694499000001
 40
0.6613244127000001
 40
0.7162192555
 40
0.774610967
 40
0.8341667115000001
 40
0.8926837239000001
 40
0.9480915448999999
 40
1.0
 40
1.0
 40
1.0
 40
1.0
 10
8526.968521374925
 20
-6008.205997232387
 30
0.0
 10
8526.652726644424
 20
-6008.185246897587
 30
0.0
 10
8526.002157805825
 20
-6008.141760836188
 30
0.0
 10
8525.001277258427
 20
-6008.072489666989
 30
0.0
 10
8523.963780519226
 20
-6007.998099502589
 30
0.0
 10
8522.923139271425
 20
-6007.920814065688
 30
0.0
 10
8521.931305324226
 20
-6007.844649355288
 30
0.0
 10
8521.036534073825
 20
-6007.773830825988
 30
0.0
 10
8520.272357138226
 20
-6007.711791834688
 30
0.0
 10
8519.642036514524
 20
-6007.659518047088
 30
0.0
 10
8519.166902444027
 20
-6007.619492090189
 30
0.0
 10
8518.801583386826
 20
-6007.588300942688
 30
0.0
 10
8518.643014079323
 20
-6007.574680893988
 30
0.0
 10
8518.480500677124
 20
-6007.560654183787
 30
0.0
 10
8518.712397831626
 20
-6007.580664804188
 30
0.0
 10
8518.874272492524
 20
-6007.594515820088
 30
0.0
 10
8519.300649201225
 20
-6007.630833219488
 30
0.0
 10
8519.809723904925
 20
-6007.673509641388
 30
0.0
 10
8520.484847379924
 20
-6007.729193899389
 30
0.0
 10
8521.283798001826
 20
-6007.793592431288
 30
0.0
 10
8522.192011100425
 20
-6007.864885182688
 30
0.0
 10
8523.165250530427
 20
-6007.938994418888
 30
0.0
 10
8524.159375200026
 20
-6008.012281482589
 30
0.0
 10
8525.136778444725
 20
-6008.081963350688
 30
0.0
 10
8526.071269366125
 20
-6008.146404890489
 30
0.0
 10
8526.676095835025
 20
-6008.186783128287
 30
0.0
 10
8526.968668511328
 20
-6008.206006899688
 30
0.0
  0
SPLINE
  5
211
330
2
100
AcDbEntity
  8
0
  6
Continuous
 62
     7
100
AcDbSpline
210
0.0
220
0.0
230
1.0
 70
     8
 71
     3
 72
     9
 73
     5
 74
     0
 42
0.0000000001
 43
0.0000000001
 40
0.0
 40
0.0
 40
0.0
 40
0.0
 40
0.1914225054
 40
1.0
 40
1.0
 40
1.0
 40
1.0
 10
8441.200650542526
 20
-5857.984332590389
 30
0.0
 10
8441.197340597025
 20
-5857.968481604888
 30
0.0
 10
8441.161392708025
 20
-5857.889439731688
 30
0.0
 10
8441.078739102826
 20
-5857.846193046788
 30
0.0
 10
8441.016247379026
 20
-5857.818385235588
 30
0.0
  0
SPLINE
  5
212
330
2
100
AcDbEntity
  8
0
  6
Continuous
 62
     7
100
AcDbSpline
210
0.0
220
0.0
230
1.0
 70
     8
 71
     3
 72
     9
 73
     5
 74
     0
 42
0.0000000001
 43
0.0000000001
 40
0.0
 40
0.0
 40
0.0
 40
0.0
 40
0.2018910125
 40
1.0
 40
1.0
 40
1.0
 40
1.0
 10
8441.016247379026
 20
-5857.818385235588
 30
0.0
 10
8440.986788246824
 20
-5857.805276395889
 30
0.0
 10
8440.837253801426
 20
-5857.748521721688
 30
0.0
 10
8440.680032020726
 20
-5857.715244345188
 30
0.0
 10
8440.554538683526
 20
-5857.692904031388
 30
0.0
  0
SPLINE
  5
213
330
2
100
AcDbEntity
  8
0
  6
Continuous
 62
     7
100
AcDbSpline
210
0.0
220
0.0
230
1.0
 70
     8
 71
     3
 72
     9
 73
     5
 74
     0
 42
0.0000000001
 43
0.0000000001
 40
0.0
 40
0.0
 40
0.0
 40
0.0
 40
0.2333548351
 40
1.0
 40
1.0
 40
1.0
 40
1.0
 10
8440.554538683526
 20
-5857.692904031388
 30
0.0
 10
8440.529371034726
 20
-5857.688423688588
 30
0.0
 10
8440.421350114124
 20
-5857.670176755888
 30
0.0
 10
8440.312767526027
 20
-5857.655360522388
 30
0.0
 10
8440.229385675925
 20
-5857.645324016588
 30
0.0
  0
SPLINE
  5
214
330
2
100
AcDbEntity
  8
0
  6
Continuous
 62
     7
100
AcDbSpline
210
0.0
220
0.0
230
1.0
 70
     8
 71
     3
 72
     9
 73
     5
 74
     0
 42
0.0000000001
 43
0.0000000001
 40
0.0
 40
0.0
 40
0.0
 40
0.0
 40
0.2368254911
 40
1.0
 40
1.0
 40
1.0
 40
1.0
 10
8440.229385675925
 20
-5857.645324016588
 30
0.0
 10
8440.199365916624
 20
-5857.641710598389
 30
0.0
 10
8440.072517193025
 20
-5857.627199554088
 30
0.0
 10
8439.945363565025
 20
-5857.615426296987
 30
0.0
 10
8439.848243571026
 20
-5857.607566602388
 30
0.0
  0
SPLINE
  5
215
330
2
100
AcDbEntity
  8
0
  6
Continuous
 62
     7
100
AcDbSpline
210
0.0
220
0.0
230
1.0
 70
     8
 71
     3
 72
     9
 73
     5
 74
     0
 42
0.0000000001
 43
0.0000000001
 40
0.0
 40
0.0
 40
0.0
 40
0.0
 40
0.4550642107
 40
1.0
 40
1.0
 40
1.0
 40
1.0
 10
8439.848243571026
 20
-5857.607566602388
 30
0.0
 10
8439.293153332325
 20
-5857.562644444188
 30
0.0
 10
8438.068258743726
 20
-5857.533759477588
 30
0.0
 10
8436.844711562324
 20
-5857.557049308788
 30
0.0
 10
8436.178227354325
 20
-5857.580290835088
 30
0.0
  0
SPLINE
  5
216
330
2
100
AcDbEntity
  8
0
  6
Continuous
 62
     7
100
AcDbSpline
210
0.0
220
0.0
230
1.0
 70
     8
 71
     3
 72
    17
 73
    13
 74
     0
 42
0.0000000001
 43
0.0000000001
 40
0.0
 40
0.0
 40
0.0
 40
0.0
 40
0.0485863939
 40
0.0990761283
 40
0.1515847619
 40
0.2060455378
 40
0.320561035
 40
0.4426549687
 40
0.5724799055
 40
0.7095498123999999
 40
0.8526302125
 40
1.0
 40
1.0
 40
1.0
 40
1.0
 10
8529.086574816025
 20
-6010.938036516388
 30
0.0
 10
8529.364742162526
 20
-6010.957607269788
 30
0.0
 10
8529.935558385725
 20
-6010.961399203188
 30
0.0
 10
8530.799548693627
 20
-6010.852590905388
 30
0.0
 10
8531.695551823927
 20
-6010.736279311188
 30
0.0
 10
8532.958197940425
 20
-6010.589483736488
 30
0.0
 10
8534.601916022424
 20
-6010.260710472588
 30
0.0
 10
8536.574840674424
 20
-6009.493672042289
 30
0.0
 10
8538.450512720023
 20
-6008.246674251788
 30
0.0
 10
8540.057880432426
 20
-6006.493442009388
 30
0.0
 10
8541.196800627323
 20
-6004.284582712688
 30
0.0
 10
8541.488682969525
 20
-6002.609268413388
 30
0.0
 10
8541.497689928426
 20
-6001.763507650388
 30
0.0
  0
SPLINE
  5
217
330
2
100
AcDbEntity
  8
0
  6
Continuous
 62
     7
100
AcDbSpline
210
0.0
220
0.0
230
1.0
 70
     8
 71
     3
 72
    21
 73
    17
 74
     0
 42
0.0000000001
 43
0.0000000001
 40
0.0
 40
0.0
 40
0.0
 40
0.0
 40
0.0010192442
 40
0.0040761112
 40
0.0091686934
 40
0.016294903
 40
0.036631913
 40
0.0650462537
 40
0.1014802336
 40
0.145860833
 40
0.1980996208
 40
0.2580922648
 40
0.4008499634
 40
0.5730111158
 40
0.7732382739000001
 40
1.0
 40
1.0
 40
1.0
 40
1.0
 10
8521.249267805426
 20
-6010.291367818888
 30
0.0
 10
8521.249570508924
 20
-6010.288713209589
 30
0.0
 10
8521.265948239026
 20
-6010.296780761588
 30
0.0
 10
8521.284337544926
 20
-6010.292198508688
 30
0.0
 10
8521.327342223827
 20
-6010.299792651488
 30
0.0
 10
8521.410406459727
 20
-6010.305387718289
 30
0.0
 10
8521.557666748925
 20
-6010.320717914088
 30
0.0
 10
8521.779335659227
 20
-6010.340470206588
 30
0.0
 10
8522.064728791425
 20
-6010.366990744888
 30
0.0
 10
8522.411981313727
 20
-6010.398466262888
 30
0.0
 10
8522.820903452723
 20
-6010.435252009187
 30
0.0
 10
8523.486701926126
 20
-6010.494220703288
 30
0.0
 10
8524.465850158925
 20
-6010.578764866789
 30
0.0
 10
8525.811638123824
 20
-6010.690093604289
 30
0.0
 10
8527.377377401027
 20
-6010.813571406388
 30
0.0
 10
8528.493725395925
 20
-6010.894779063288
 30
0.0
 10
8529.086574816025
 20
-6010.938036516388
 30
0.0
  0
SPLINE
  5
218
330
2
100
AcDbEntity
  8
0
  6
Continuous
 62
     7
100
AcDbSpline
210
0.0
220
0.0
230
1.0
 70
     8
 71
     3
 72
     8
 73
     4
 74
     0
 42
0.0000000001
 43
0.0000000001
 40
0.0
 40
0.0
 40
0.0
 40
0.0
 40
1.0
 40
1.0
 40
1.0
 40
1.0
 10
8541.497689928426
 20
-6001.763507650388
 30
0.0
 10
8541.560517220426
 20
-5995.884885533488
 30
0.0
 10
8541.575900144023
 20
-5990.003056422688
 30
0.0
 10
8541.836955049225
 20
-5984.129897511189
 30
0.0
  0
SPLINE
  5
219
330
2
100
AcDbEntity
  8
0
  6
Continuous
 62
     7
100
AcDbSpline
210
0.0
220
0.0
230
1.0
 70
     8
 71
     3
 72
    10
 73
     6
 74
     0
 42
0.0000000001
 43
0.0000000001
 40
0.0
 40
0.0
 40
0.0
 40
0.0
 40
0.3208701649
 40
0.5548387982000001
 40
1.0
 40
1.0
 40
1.0
 40
1.0
 10
8441.451501874825
 20
-5858.975063391488
 30
0.0
 10
8441.437927286326
 20
-5858.918577689689
 30
0.0
 10
8441.415850195827
 20
-5858.819595489688
 30
0.0
 10
8441.328840099224
 20
-5858.659481433388
 30
0.0
 10
8441.302854563225
 20
-5858.537705867188
 30
0.0
 10
8441.286126795025
 20
-5858.458863922589
 30
0.0
  0
SPLINE
  5
21A
330
2
100
AcDbEntity
  8
0
  6
Continuous
 62
     7
100
AcDbSpline
210
0.0
220
0.0
230
1.0
 70
     8
 71
     3
 72
     9
 73
     5
 74
     0
 42
0.0000000001
 43
0.0000000001
 40
0.0
 40
0.0
 40
0.0
 40
0.0
 40
0.189713623
 40
1.0
 40
1.0
 40
1.0
 40
1.0
 10
8441.286126795025
 20
-5858.458863922589
 30
0.0
 10
8441.280155364726
 20
-5858.430719153388
 30
0.0
 10
8441.250230473125
 20
-5858.282036712989
 30
0.0
 10
8441.224826949325
 20
-5858.132485188588
 30
0.0
 10
8441.204985060627
 20
-5858.011212620389
 30
0.0
  0
LINE
  5
21B
330
2
100
AcDbEntity
  8
0
  6
Continuous
 62
     7
100
AcDbLine
 10
8441.204985060627
 20
-5858.011212620389
 30
0.0
 11
8441.200594503426
 21
-5857.984272796088
 31
0.0
  0
SPLINE
  5
21C
330
2
100
AcDbEntity
  8
0
  6
Continuous
 62
     7
100
AcDbSpline
210
0.0
220
0.0
230
1.0
 70
     8
 71
     3
 72
    11
 73
     7
 74
     0
 42
0.0000000001
 43
0.0000000001
 40
0.0
 40
0.0
 40
0.0
 40
0.0
 40
0.2532919548
 40
0.5048578805
 40
0.7531084775
 40
1.0
 40
1.0
 40
1.0
 40
1.0
 10
8441.451501874825
 20
-5858.975063391488
 30
0.0
 10
8442.359502024727
 20
-5865.979069045488
 30
0.0
 10
8443.953912138626
 20
-5879.964669012388
 30
0.0
 10
8446.959346648625
 20
-5900.759799162988
 30
0.0
 10
8451.844854172225
 20
-5921.046558289988
 30
0.0
 10
8457.195173571426
 20
-5933.880696076688
 30
0.0
 10
8460.504426736326
 20
-5939.917283682988
 30
0.0
  0
LINE
  5
21D
330
2
100
AcDbEntity
  8
0
  6
Continuous
 62
     7
100
AcDbLine
 10
8441.256820016526
 20
-5858.444604326488
 30
0.0
 11
8441.200594503426
 21
-5857.984272796088
 31
0.0
  0
LINE
  5
21E
330
2
100
AcDbEntity
  8
0
  6
Continuous
 62
     7
100
AcDbLine
 10
8555.843618065727
 20
-5979.573579838088
 30
0.0
 11
8539.986820650527
 21
-5979.566715085388
 31
0.0
  0
SPLINE
  5
21F
330
2
100
AcDbEntity
  8
0
  6
Continuous
 62
     7
100
AcDbSpline
210
0.0
220
0.0
230
1.0
 70
     8
 71
     3
 72
    15
 73
    11
 74
     0
 42
0.0000000001
 43
0.0000000001
 40
0.0
 40
0.0
 40
0.0
 40
0.0
 40
0.1252516106
 40
0.250476545
 40
0.3756710942
 40
0.5008113494
 40
0.6258476308
 40
0.7507145544000001
 40
0.8754127
 40
1.0
 40
1.0
 40
1.0
 40
1.0
 10
8538.571173607026
 20
-5979.559356888488
 30
0.0
 10
8534.732954029125
 20
-5979.519557784888
 30
0.0
 10
8527.054378502926
 20
-5979.324156249289
 30
0.0
 10
8515.599291719125
 20
-5977.882731572488
 30
0.0
 10
8504.465627769826
 20
-5974.839363910488
 30
0.0
 10
8493.750171037026
 20
-5970.599467076388
 30
0.0
 10
8483.605578277224
 20
-5965.119505788488
 30
0.0
 10
8474.450806627126
 20
-5958.096544541788
 30
0.0
 10
8466.675890537123
 20
-5949.598058084188
 30
0.0
 10
8462.418104415425
 20
-5943.221141763788
 30
0.0
 10
8460.504426736326
 20
-5939.917283682988
 30
0.0
  0
SPLINE
  5
220
330
2
100
AcDbEntity
  8
0
  6
Continuous
 62
     7
100
AcDbSpline
210
0.0
220
0.0
230
1.0
 70
     8
 71
     3
 72
    22
 73
    18
 74
     0
 42
0.0000000001
 43
0.0000000001
 40
0.0
 40
0.0
 40
0.0
 40
0.0
 40
0.1264005907
 40
0.189262595
 40
0.2517593084
 40
0.3141967495
 40
0.376924473
 40
0.4399894042000001
 40
0.5031941219000001
 40
0.5662367384
 40
0.6287805802000001
 40
0.6907351783
 40
0.7524312993000001
 40
0.8142814231
 40
0.8763282176
 40
0.9383221112999999
 40
1.0
 40
1.0
 40
1.0
 40
1.0
 10
8758.263812356824
 20
-5860.575426794188
 30
0.0
 10
8755.953552505628
 20
-5869.553242943488
 30
0.0
 10
8752.080648622424
 20
-5882.916362399889
 30
0.0
 10
8745.137849842926
 20
-5900.044774968088
 30
0.0
 10
8738.830427378026
 20
-5912.316444013089
 30
0.0
 10
8731.154142297723
 20
-5923.781271498288
 30
0.0
 10
8722.112263850325
 20
-5934.256257253788
 30
0.0
 10
8711.898296793625
 20
-5943.667979287289
 30
0.0
 10
8700.724609295626
 20
-5951.951593682088
 30
0.0
 10
8688.793556948127
 20
-5959.025378032889
 30
0.0
 10
8676.280362020726
 20
-5964.794332609688
 30
0.0
 10
8663.346143204726
 20
-5969.238434506588
 30
0.0
 10
8650.138686217324
 20
-5972.549571922988
 30
0.0
 10
8636.767574454024
 20
-5975.114792237689
 30
0.0
 10
8623.304818635425
 20
-5977.275883272288
 30
0.0
 10
8609.786058923026
 20
-5978.971009726388
 30
0.0
 10
8600.720298284825
 20
-5979.517492874888
 30
0.0
 10
8596.197154072026
 20
-5979.573929089988
 30
0.0
  0
SPLINE
  5
221
330
2
100
AcDbEntity
  8
0
  6
Continuous
 62
     7
100
AcDbSpline
210
0.0
220
0.0
230
1.0
 70
     8
 71
     3
 72
     9
 73
     5
 74
     0
 42
0.0000000001
 43
0.0000000001
 40
0.0
 40
0.0
 40
0.0
 40
0.0
 40
0.7525462620000001
 40
1.0
 40
1.0
 40
1.0
 40
1.0
 10
8434.320573527926
 20
-5857.497622598089
 30
0.0
 10
8433.875936116226
 20
-5857.476059334288
 30
0.0
 10
8433.283846416427
 20
-5857.481738281388
 30
0.0
 10
8432.693266459423
 20
-5857.442868555688
 30
0.0
 10
8432.547588431827
 20
-5857.428566766488
 30
0.0
  0
SPLINE
  5
222
330
2
100
AcDbEntity
  8
0
  6
Continuous
 62
     7
100
AcDbSpline
210
0.0
220
0.0
230
1.0
 70
     8
 71
     3
 72
    13
 73
     9
 74
     0
 42
0.0000000001
 43
0.0000000001
 40
0.0
 40
0.0
 40
0.0
 40
0.0
 40
0.4246723967000001
 40
0.7369337537
 40
0.8482239161
 40
0.9287501248999999
 40
0.9784993744999999
 40
1.0
 40
1.0
 40
1.0
 40
1.0
 10
8428.182382589824
 20
-5859.396248543489
 30
0.0
 10
8427.920827777226
 20
-5859.403954925587
 30
0.0
 10
8427.467793586727
 20
-5859.420088467189
 30
0.0
 10
8426.943788784527
 20
-5859.451497818788
 30
0.0
 10
8426.637505650626
 20
-5859.481255261289
 30
0.0
 10
8426.485423515227
 20
-5859.505140406488
 30
0.0
 10
8426.403124646226
 20
-5859.522778334088
 30
0.0
 10
8426.352429165225
 20
-5859.547659373489
 30
0.0
 10
8426.352534964227
 20
-5859.560906886388
 30
0.0
  0
SPLINE
  5
223
330
2
100
AcDbEntity
  8
0
  6
Continuous
 62
     7
100
AcDbSpline
210
0.0
220
0.0
230
1.0
 70
     8
 71
     3
 72
     9
 73
     5
 74
     0
 42
0.0000000001
 43
0.0000000001
 40
0.0
 40
0.0
 40
0.0
 40
0.0
 40
0.5498242006
 40
1.0
 40
1.0
 40
1.0
 40
1.0
 10
8431.709777840126
 20
-5857.739486069888
 30
0.0
 10
8431.179751448825
 20
-5858.235192939288
 30
0.0
 10
8430.088409618226
 20
-5859.018755473088
 30
0.0
 10
8428.776308669425
 20
-5859.378755497187
 30
0.0
 10
8428.182382589824
 20
-5859.396248543489
 30
0.0
  0
SPLINE
  5
224
330
2
100
AcDbEntity
  8
0
  6
Continuous
 62
     7
100
AcDbSpline
210
0.0
220
0.0
230
1.0
 70
     8
 71
     3
 72
     9
 73
     5
 74
     0
 42
0.0000000001
 43
0.0000000001
 40
0.0
 40
0.0
 40
0.0
 40
0.0
 40
0.5029692417
 40
1.0
 40
1.0
 40
1.0
 40
1.0
 10
8432.547588431827
 20
-5857.428566766488
 30
0.0
 10
8432.394982621227
 20
-5857.413599429988
 30
0.0
 10
8432.080120141327
 20
-5857.461375867488
 30
0.0
 10
8431.820461687726
 20
-5857.635998390988
 30
0.0
 10
8431.709777840126
 20
-5857.739486069888
 30
0.0
  0
SPLINE
  5
225
330
2
100
AcDbEntity
  8
0
  6
Continuous
 62
     7
100
AcDbSpline
210
0.0
220
0.0
230
1.0
 70
     8
 71
     3
 72
     9
 73
     5
 74
     0
 42
0.0000000001
 43
0.0000000001
 40
0.0
 40
0.0
 40
0.0
 40
0.0
 40
0.2418563829
 40
1.0
 40
1.0
 40
1.0
 40
1.0
 10
8541.836955270625
 20
-5984.129896977687
 30
0.0
 10
8541.569703430928
 20
-5984.112951346388
 30
0.0
 10
8540.464037757528
 20
-5984.053568449988
 30
0.0
 10
8539.356417261625
 20
-5984.032462484687
 30
0.0
 10
8538.516988851025
 20
-5984.035162987788
 30
0.0
  0
SPLINE
  5
226
330
2
100
AcDbEntity
  8
0
  6
Continuous
 62
     7
100
AcDbSpline
210
0.0
220
0.0
230
1.0
 70
     8
 71
     3
 72
    11
 73
     7
 74
     0
 42
0.0000000001
 43
0.0000000001
 40
0.0
 40
0.0
 40
0.0
 40
0.0
 40
0.2789251376
 40
0.5400365921
 40
0.7782825068000001
 40
1.0
 40
1.0
 40
1.0
 40
1.0
 10
8529.086575935824
 20
-6010.938036389588
 30
0.0
 10
8529.071861252727
 20
-6010.589069208887
 30
0.0
 10
8528.951366682624
 20
-6009.912789002088
 30
0.0
 10
8528.498411933425
 20
-6009.031384253388
 30
0.0
 10
8527.817096676027
 20
-6008.404651996888
 30
0.0
 10
8527.244996798128
 20
-6008.224160003887
 30
0.0
 10
8526.967953780426
 20
-6008.205957027088
 30
0.0
  0
LINE
  5
227
330
2
100
AcDbEntity
  8
0
  6
Continuous
 62
     7
100
AcDbLine
 10
8596.197154072026
 20
-5979.573929089988
 30
0.0
 11
8555.843618065727
 21
-5979.573579838088
 31
0.0
  0
SPLINE
  5
228
330
2
100
AcDbEntity
  8
0
  6
Continuous
 62
     7
100
AcDbSpline
210
0.0
220
0.0
230
1.0
 70
     8
 71
     3
 72
    12
 73
     8
 74
     0
 42
0.0000000001
 43
0.0000000001
 40
0.0
 40
0.0
 40
0.0
 40
0.0
 40
0.1481105211
 40
0.2483600446
 40
0.3683047738
 40
0.6607708655
 40
1.0
 40
1.0
 40
1.0
 40
1.0
 10
8539.986820650327
 20
-5979.566715099988
 30
0.0
 10
8540.242933142726
 20
-5979.580483416689
 30
0.0
 10
8540.642254102523
 20
-5979.853361467288
 30
0.0
 10
8541.000028182425
 20
-5980.374662426488
 30
0.0
 10
8541.384912678124
 20
-5981.181443543588
 30
0.0
 10
8541.708716157028
 20
-5982.450651667887
 30
0.0
 10
8541.817813047027
 20
-5983.542772972588
 30
0.0
 10
8541.837009676227
 20
-5984.129900767688
 30
0.0
  0
LINE
  5
229
330
2
100
AcDbEntity
  8
0
  6
Continuous
 62
     7
100
AcDbLine
 10
8597.640842641725
 20
-5979.572812259588
 30
0.0
 11
8596.197154072026
 21
-5979.573929089988
 31
0.0
  0
SPLINE
  5
22A
330
2
100
AcDbEntity
  8
0
  6
Continuous
 62
     7
100
AcDbSpline
210
0.0
220
0.0
230
1.0
 70
     8
 71
     3
 72
     8
 73
     4
 74
     0
 42
0.0000000001
 43
0.0000000001
 40
0.0
 40
0.0
 40
0.0
 40
0.0
 40
1.0
 40
1.0
 40
1.0
 40
1.0
 10
8436.178234945524
 20
-5857.580367345488
 30
0.0
 10
8435.564040456826
 20
-5857.496939956988
 30
0.0
 10
8434.940122544725
 20
-5857.516421714888
 30
0.0
 10
8434.320573344027
 20
-5857.497612489588
 30
0.0
  0
SPLINE
  5
22B
330
2
100
AcDbEntity
  8
0
  6
Continuous
 62
     7
100
AcDbSpline
210
0.0
220
0.0
230
1.0
 70
     8
 71
     3
 72
    11
 73
     7
 74
     0
 42
0.0000000001
 43
0.0000000001
 40
0.0
 40
0.0
 40
0.0
 40
0.0
 40
0.2500009589999999
 40
0.4999902895
 40
0.7499976670999999
 40
1.0
 40
1.0
 40
1.0
 40
1.0
 10
8456.231655287826
 20
-5941.935237559988
 30
0.0
 10
8452.573736085424
 20
-5935.643943523288
 30
0.0
 10
8446.685956021624
 20
-5922.200397831588
 30
0.0
 10
8441.513361306325
 20
-5900.927322032687
 30
0.0
 10
8438.570863318625
 20
-5879.279413025788
 30
0.0
 10
8437.070019231425
 20
-5864.802974661489
 30
0.0
 10
8436.178234945524
 20
-5857.580367345488
 30
0.0
  0
SPLINE
  5
22C
330
2
100
AcDbEntity
  8
0
  6
Continuous
 62
     7
100
AcDbSpline
210
0.0
220
0.0
230
1.0
 70
     8
 71
     3
 72
    15
 73
    11
 74
     0
 42
0.0000000001
 43
0.0000000001
 40
0.0
 40
0.0
 40
0.0
 40
0.0
 40
0.1252292095
 40
0.2503965282
 40
0.3755294452
 40
0.5006305018
 40
0.6256391935
 40
0.7505184268000001
 40
0.8752931689
 40
1.0
 40
1.0
 40
1.0
 40
1.0
 10
8538.516988949625
 20
-5984.035176926388
 30
0.0
 10
8534.467975602828
 20
-5983.991201417087
 30
0.0
 10
8526.367910354228
 20
-5983.765618132588
 30
0.0
 10
8514.297028144026
 20
-5982.158611913288
 30
0.0
 10
8502.569621336226
 20
-5978.901792926888
 30
0.0
 10
8491.280241933225
 20
-5974.395771943188
 30
0.0
 10
8480.606527735625
 20
-5968.561030639988
 30
0.0
 10
8470.975617389024
 20
-5961.114596255889
 30
0.0
 10
8462.766676230328
 20
-5952.146633864487
 30
0.0
 10
8458.258362322125
 20
-5945.421266147787
 30
0.0
 10
8456.231655287826
 20
-5941.935237559988
 30
0.0
  0
LINE
  5
22D
330
2
100
AcDbEntity
  8
0
  6
Continuous
 62
     7
100
AcDbLine
 10
8038.079833817524
 20
-5979.573929089988
 30
0.0
 11
8007.205913466124
 21
-5979.573921587088
 31
0.0
  0
LINE
  5
22E
330
2
100
AcDbEntity
  8
0
  6
Continuous
 62
     7
100
AcDbLine
 10
8048.994055426424
 20
-5979.572812259588
 30
0.0
 11
8038.079833817524
 21
-5979.573929089988
 31
0.0
  0
LINE
  5
22F
330
2
100
AcDbEntity
  8
0
  6
Continuous
 62
     7
100
AcDbLine
 10
8090.782124278526
 20
-5979.573922458287
 30
0.0
 11
8059.908277035425
 21
-5979.573929089988
 31
0.0
  0
LINE
  5
230
330
2
100
AcDbEntity
  8
0
  6
Continuous
 62
     7
100
AcDbLine
 10
8059.908277035425
 20
-5979.573929089988
 30
0.0
 11
8048.994055426424
 21
-5979.572812259588
 31
0.0
  0
SPLINE
  5
231
330
2
100
AcDbEntity
  8
02___PRT_ALL_AXES
  6
Continuous
 62
     7
100
AcDbSpline
210
0.0
220
0.0
230
1.0
 70
     8
 71
     3
 72
    14
 73
    10
 74
     0
 42
0.0000000001
 43
0.0000000001
 40
0.0
 40
0.0
 40
0.0
 40
0.0
 40
0.3744472747
 40
0.691980444
 40
0.8143995751
 40
0.9068508943999999
 40
0.9411783212999999
 40
0.9676042760999999
 40
1.0
 40
1.0
 40
1.0
 40
1.0
 10
8048.994055426424
 20
-6208.402226896088
 30
0.0
 10
8050.467688189925
 20
-6208.402227332088
 30
0.0
 10
8053.191259446625
 20
-6208.475764639088
 30
0.0
 10
8056.388356640026
 20
-6208.742596510188
 30
0.0
 10
8058.458056540226
 20
-6209.085408220587
 30
0.0
 10
8059.410484541725
 20
-6209.314515103988
 30
0.0
 10
8059.979586398625
 20
-6209.533574186789
 30
0.0
 10
8060.294531479925
 20
-6209.695908544588
 30
0.0
 10
8060.493646389124
 20
-6209.889587462089
 30
0.0
 10
8060.493966093725
 20
-6210.017080044588
 30
0.0
  0
SPLINE
  5
232
330
2
100
AcDbEntity
  8
02___PRT_ALL_AXES
  6
Continuous
 62
     7
100
AcDbSpline
210
0.0
220
0.0
230
1.0
 70
     8
 71
     3
 72
    14
 73
    10
 74
     0
 42
0.0000000001
 43
0.0000000001
 40
0.0
 40
0.0
 40
0.0
 40
0.0
 40
0.0324249013
 40
0.0588780153
 40
0.0932323601
 40
0.1857427049
 40
0.3081792066
 40
0.6256433389
 40
1.0
 40
1.0
 40
1.0
 40
1.0
 10
8037.494155085825
 20
-6210.016664485188
 30
0.0
 10
8037.494823739626
 20
-6209.889062972988
 30
0.0
 10
8037.694172765226
 20
-6209.695534326488
 30
0.0
 10
8038.009524532325
 20
-6209.533213181089
 30
0.0
 10
8038.579049378226
 20
-6209.314143044288
 30
0.0
 10
8039.531886814426
 20
-6209.085084350488
 30
0.0
 10
8041.601556782024
 20
-6208.742452766288
 30
0.0
 10
8044.797985993126
 20
-6208.475708889088
 30
0.0
 10
8047.520831761024
 20
-6208.402226460088
 30
0.0
 10
8048.994055426424
 20
-6208.402226896088
 30
0.0
  0
SPLINE
  5
233
330
2
100
AcDbEntity
  8
0
  6
Continuous
 62
     7
100
AcDbSpline
210
0.0
220
0.0
230
1.0
 70
     8
 71
     3
 72
    15
 73
    11
 74
     0
 42
0.0000000001
 43
0.0000000001
 40
0.0
 40
0.0
 40
0.0
 40
0.0
 40
0.1249761021
 40
0.2499571186
 40
0.3749400371
 40
0.4999233406
 40
0.6249151578000001
 40
0.7499253131
 40
0.8749507040999999
 40
1.0
 40
1.0
 40
1.0
 40
1.0
 10
7845.348843231426
 20
-6310.034635571188
 30
0.0
 10
7847.706464291025
 20
-6302.553083886988
 30
0.0
 10
7853.621503912325
 20
-6287.938120301388
 30
0.0
 10
7865.831751413626
 20
-6267.710252161788
 30
0.0
 10
7881.086586967725
 20
-6249.658774817788
 30
0.0
 10
7898.999316617626
 20
-6234.243025150589
 30
0.0
 10
7919.116659221126
 20
-6221.838715171188
 30
0.0
 10
7940.937372580126
 20
-6212.750411003788
 30
0.0
 10
7963.909077982425
 20
-6207.190903072088
 30
0.0
 10
7979.629839862025
 20
-6205.921115349088
 30
0.0
 10
7987.478641208425
 20
-6205.900986282788
 30
0.0
  0
SPLINE
  5
234
330
2
100
AcDbEntity
  8
0
  6
Continuous
 62
     7
100
AcDbSpline
210
0.0
220
0.0
230
1.0
 70
     8
 71
     3
 72
    15
 73
    11
 74
     0
 42
0.0000000001
 43
0.0000000001
 40
0.0
 40
0.0
 40
0.0
 40
0.0
 40
0.1249933571
 40
0.2499907202
 40
0.374991957
 40
0.4999968643
 40
0.6249992911
 40
0.7499997184
 40
0.8749989624999999
 40
1.0
 40
1.0
 40
1.0
 40
1.0
 10
8252.612328439026
 20
-6310.034635571188
 30
0.0
 10
8256.106197266225
 20
-6321.118979101488
 30
0.0
 10
8260.497494295426
 20
-6344.202547327288
 30
0.0
 10
8258.845495690726
 20
-6379.337198994988
 30
0.0
 10
8249.073948096226
 20
-6413.146223471589
 30
0.0
 10
8231.710964172625
 20
-6443.753306579587
 30
0.0
 10
8207.714819974524
 20
-6469.490559865988
 30
0.0
 10
8178.398463194625
 20
-6488.956998539087
 30
0.0
 10
8145.391739203224
 20
-6501.105780885588
 30
0.0
 10
8122.062566657925
 20
-6503.894296860187
 30
0.0
 10
8110.439934392024
 20
-6503.922754251888
 30
0.0
  0
SPLINE
  5
235
330
2
100
AcDbEntity
  8
0
  6
Continuous
 62
     7
100
AcDbSpline
210
0.0
220
0.0
230
1.0
 70
     8
 71
     3
 72
    15
 73
    11
 74
     0
 42
0.0000000001
 43
0.0000000001
 40
0.0
 40
0.0
 40
0.0
 40
0.0
 40
0.1250493632
 40
0.2500744327
 40
0.3750840878
 40
0.5000755782000001
 40
0.6250588891
 40
0.7500418007
 40
0.8750233726999999
 40
1.0
 40
1.0
 40
1.0
 40
1.0
 10
8110.501755279326
 20
-6205.901922080787
 30
0.0
 10
8118.349779473724
 20
-6205.922159998288
 30
0.0
 10
8134.068962103025
 20
-6207.192252582988
 30
0.0
 10
8157.037988332524
 20
-6212.752830568188
 30
0.0
 10
8178.855576653026
 20
-6221.842401708087
 30
0.0
 10
8198.969465273625
 20
-6234.247740869488
 30
0.0
 10
8216.878760192924
 20
-6249.663804141889
 30
0.0
 10
8232.130762849225
 20
-6267.714570777989
 30
0.0
 10
8244.339360621426
 20
-6287.940686147187
 30
0.0
 10
8250.254410670427
 20
-6302.553961321287
 30
0.0
 10
8252.612328439026
 20
-6310.034635571188
 30
0.0
  0
SPLINE
  5
236
330
2
100
AcDbEntity
  8
02___PRT_ALL_AXES
  6
Continuous
 62
     7
100
AcDbSpline
210
0.0
220
0.0
230
1.0
 70
     8
 71
     3
 72
    14
 73
    10
 74
     0
 42
0.0000000001
 43
0.0000000001
 40
0.0
 40
0.0
 40
0.0
 40
0.0
 40
0.3746422995
 40
0.6922350801999999
 40
0.8146480227999999
 40
0.9070626879
 40
0.9413461948
 40
0.9677097447000001
 40
1.0
 40
1.0
 40
1.0
 40
1.0
 10
8048.994055426424
 20
-6211.618497650088
 30
0.0
 10
8047.519754134524
 20
-6211.618500067288
 30
0.0
 10
8044.795394281925
 20
-6211.546848519888
 30
0.0
 10
8041.597122498226
 20
-6211.285242669688
 30
0.0
 10
8039.526944310827
 20
-6210.945817766288
 30
0.0
 10
8038.574546405426
 20
-6210.718249114988
 30
0.0
 10
8038.005846708326
 20
-6210.499747895288
 30
0.0
 10
8037.691568022925
 20
-6210.338064498388
 30
0.0
 10
8037.493489229625
 20
-6210.143732121488
 30
0.0
 10
8037.494155085825
 20
-6210.016664485188
 30
0.0
  0
SPLINE
  5
237
330
2
100
AcDbEntity
  8
0
  6
Continuous
 62
     7
100
AcDbSpline
210
0.0
220
0.0
230
1.0
 70
     8
 71
     3
 72
    15
 73
    11
 74
     0
 42
0.0000000001
 43
0.0000000001
 40
0.0
 40
0.0
 40
0.0
 40
0.0
 40
0.1250025216
 40
0.2500028668
 40
0.3750043672999999
 40
0.5000065908
 40
0.6250080403000001
 40
0.7500078426000001
 40
0.8750060601999999
 40
1.0
 40
1.0
 40
1.0
 40
1.0
 10
7987.544319936225
 20
-6503.923487352588
 30
0.0
 10
7975.921073826926
 20
-6503.895107032389
 30
0.0
 10
7952.590707864226
 20
-6501.106891107188
 30
0.0
 10
7919.581842254726
 20
-6488.958843362387
 30
0.0
 10
7890.263314117426
 20
-6469.492751232388
 30
0.0
 10
7866.264939462926
 20
-6443.756039114788
 30
0.0
 10
7848.898807082226
 20
-6413.149724548688
 30
0.0
 10
7839.123306136426
 20
-6379.340810715988
 30
0.0
 10
7837.466533959625
 20
-6344.204961388088
 30
0.0
 10
7841.855600972626
 20
-6321.119732085788
 30
0.0
 10
7845.348843231426
 20
-6310.034635571188
 30
0.0
  0
SPLINE
  5
238
330
2
100
AcDbEntity
  8
0
  6
Continuous
 62
     7
100
AcDbSpline
210
0.0
220
0.0
230
1.0
 70
     8
 71
     3
 72
    15
 73
    11
 74
     0
 42
0.0000000001
 43
0.0000000001
 40
0.0
 40
0.0
 40
0.0
 40
0.0
 40
0.1250516271
 40
0.250077688
 40
0.3750874363
 40
0.5000784993999999
 40
0.6250610865000001
 40
0.7500432071
 40
0.8750240179999998
 40
1.0
 40
1.0
 40
1.0
 40
1.0
 10
8110.526087267125
 20
-6199.990931678488
 30
0.0
 10
8118.678057564826
 20
-6200.024715082588
 30
0.0
 10
8135.003894132525
 20
-6201.368763280289
 30
0.0
 10
8158.854235839426
 20
-6207.177368137988
 30
0.0
 10
8181.505019945625
 20
-6216.645980879088
 30
0.0
 10
8202.383287338625
 20
-6229.554607790388
 30
0.0
 10
8220.967833074325
 20
-6245.588512459688
 30
0.0
 10
8236.786611846126
 20
-6264.358261620188
 30
0.0
 10
8249.436549769326
 20
-6285.386548821688
 30
0.0
 10
8255.553436363326
 20
-6300.576778511487
 30
0.0
 10
8257.987635500825
 20
-6308.351742197788
 30
0.0
  0
SPLINE
  5
239
330
2
100
AcDbEntity
  8
0
  6
Continuous
 62
     7
100
AcDbSpline
210
0.0
220
0.0
230
1.0
 70
     8
 71
     3
 72
    15
 73
    11
 74
     0
 42
0.0000000001
 43
0.0000000001
 40
0.0
 40
0.0
 40
0.0
 40
0.0
 40
0.1249918991
 40
0.2499880608
 40
0.3749880759000001
 40
0.4999918965
 40
0.6249938675
 40
0.7499949295000001
 40
0.8749960815000001
 40
1.0
 40
1.0
 40
1.0
 40
1.0
 10
8257.987635500825
 20
-6308.351742197788
 30
0.0
 10
8261.589490231328
 20
-6319.856431883788
 30
0.0
 10
8266.097230081127
 20
-6343.809566755588
 30
0.0
 10
8264.323296462126
 20
-6380.250047854088
 30
0.0
 10
8254.155295538224
 20
-6415.308001843389
 30
0.0
 10
8236.148092966327
 20
-6447.054976255188
 30
0.0
 10
8211.289002183526
 20
-6473.778117221889
 30
0.0
 10
8180.922224495827
 20
-6494.031926089188
 30
0.0
 10
8146.717886982925
 20
-6506.723570352787
 30
0.0
 10
8122.525800999525
 20
-6509.682306320788
 30
0.0
 10
8110.469456189226
 20
-6509.743494724388
 30
0.0
  0
SPLINE
  5
23A
330
2
100
AcDbEntity
  8
0
  6
Continuous
 62
     7
100
AcDbSpline
210
0.0
220
0.0
230
1.0
 70
     8
 71
     3
 72
    15
 73
    11
 74
     0
 42
0.0000000001
 43
0.0000000001
 40
0.0
 40
0.0
 40
0.0
 40
0.0
 40
0.1250054014
 40
0.2500076227
 40
0.3750097194
 40
0.5000114884000001
 40
0.6250119073000001
 40
0.7500105270000001
 40
0.8750075510999998
 40
1.0
 40
1.0
 40
1.0
 40
1.0
 10
7987.514907925426
 20
-6509.744451323088
 30
0.0
 10
7975.457285874824
 20
-6509.683488590188
 30
0.0
 10
7951.262662588625
 20
-6506.725240028687
 30
0.0
 10
7917.053945542825
 20
-6494.034813410488
 30
0.0
 10
7886.682217187026
 20
-6473.782027419789
 30
0.0
 10
7861.817687595425
 20
-6447.059715516188
 30
0.0
 10
7843.804310339726
 20
-6415.312892958389
 30
0.0
 10
7833.630494642125
 20
-6380.253418026589
 30
0.0
 10
7831.851870694825
 20
-6343.809621983588
 30
0.0
 10
7836.358855144725
 20
-6319.853664281588
 30
0.0
 10
7839.961042272526
 20
-6308.347835923687
 30
0.0
  0
SPLINE
  5
23B
330
2
100
AcDbEntity
  8
0
  6
Continuous
 62
     7
100
AcDbSpline
210
0.0
220
0.0
230
1.0
 70
     8
 71
     3
 72
    15
 73
    11
 74
     0
 42
0.0000000001
 43
0.0000000001
 40
0.0
 40
0.0
 40
0.0
 40
0.0
 40
0.124975472
 40
0.2499557188
 40
0.374937829
 40
0.4999203943000001
 40
0.624911773
 40
0.7499220157
 40
0.8749483864
 40
1.0
 40
1.0
 40
1.0
 40
1.0
 10
7839.961042272526
 20
-6308.347835923687
 30
0.0
 10
7842.395548957625
 20
-6300.571885387688
 30
0.0
 10
7848.513787476425
 20
-6285.379884379888
 30
0.0
 10
7861.167570052924
 20
-6264.350158422888
 30
0.0
 10
7876.991261557326
 20
-6245.580334883288
 30
0.0
 10
7895.581062367925
 20
-6229.547553657688
 30
0.0
 10
7916.464279919025
 20
-6216.640769957088
 30
0.0
 10
7939.119384675525
 20
-6207.174086303188
 30
0.0
 10
7962.973396445426
 20
-6201.367050807988
 30
0.0
 10
7979.301396478925
 20
-6200.023430938788
 30
0.0
 10
7987.454434383424
 20
-6199.989870026988
 30
0.0
  0
SPLINE
  5
23C
330
2
100
AcDbEntity
  8
02___PRT_ALL_AXES
  6
Continuous
 62
     7
100
AcDbSpline
210
0.0
220
0.0
230
1.0
 70
     8
 71
     3
 72
    14
 73
    10
 74
     0
 42
0.0000000001
 43
0.0000000001
 40
0.0
 40
0.0
 40
0.0
 40
0.0
 40
0.032314079
 40
0.0586965424
 40
0.0929899914
 40
0.1854206316
 40
0.3078248516
 40
0.6253777903
 40
1.0
 40
1.0
 40
1.0
 40
1.0
 10
8060.493966093725
 20
-6210.017080044588
 30
0.0
 10
8060.494284959926
 20
-6210.144238319388
 30
0.0
 10
8060.296012060225
 20
-6210.338371252088
 30
0.0
 10
8059.981447981625
 20
-6210.500018457388
 30
0.0
 10
8059.412596922125
 20
-6210.718483412188
 30
0.0
 10
8058.460123091425
 20
-6210.945950273988
 30
0.0
 10
8056.390151164825
 20
-6211.285296497888
 30
0.0
 10
8053.192251357925
 20
-6211.546847788088
 30
0.0
 10
8050.468225979924
 20
-6211.618495233188
 30
0.0
 10
8048.994055426424
 20
-6211.618497650088
 30
0.0
  0
ENDSEC
  0
SECTION
  2
OBJECTS
  0
DICTIONARY
  5
9
330
0
100
AcDbDictionary
281
     1
  3
ACAD_COLOR
350
31
  3
ACAD_GROUP
350
2C
  3
ACAD_LAYOUT
350
F
  3
ACAD_MATERIAL
350
B
  3
ACAD_MLEADERSTYLE
350
265
  3
ACAD_MLINESTYLE
350
2D
  3
ACAD_PLOTSETTINGS
350
2E
  3
ACAD_PLOTSTYLENAME
350
8
  3
ACAD_SCALELIST
350
243
  3
ACAD_TABLESTYLE
350
32
  3
ACAD_VISUALSTYLE
350
26
  3
ACDB_RECOMPOSE_DATA
350
272
  3
ACDBHEADERROUNDTRIPXREC
350
26C
  3
AcDbVariableDictionary
350
D8
  0
DICTIONARY
  5
27
330
23
100
AcDbDictionary
280
     1
281
     1
  0
DICTIONARY
  5
16
330
15
100
AcDbDictionary
280
     1
281
     1
  3
ACAD_LAYERFILTERS
360
17
  3
ACAD_LAYERSTATES
360
18
  3
ACLYDICTIONARY
360
19
  0
DICTIONARY
  5
3
330
2
100
AcDbDictionary
280
     1
281
     1
  3
ACAD_SORTENTS
360
D6
  0
DICTIONARY
  5
31
102
{ACAD_REACTORS
330
9
102
}
330
9
100
AcDbDictionary
281
     1
  0
DICTIONARY
  5
2C
102
{ACAD_REACTORS
330
9
102
}
330
9
100
AcDbDictionary
281
     1
  0
DICTIONARY
  5
F
102
{ACAD_REACTORS
330
9
102
}
330
9
100
AcDbDictionary
281
     1
  3
Model
350
E
  3
布局1
350
14
  0
DICTIONARY
  5
B
102
{ACAD_REACTORS
330
9
102
}
330
9
100
AcDbDictionary
281
     1
  3
ByBlock
350
30
  3
ByLayer
350
2F
  3
Global
350
A
  0
DICTIONARY
  5
265
102
{ACAD_REACTORS
330
9
102
}
330
9
100
AcDbDictionary
281
     1
  3
Standard
350
266
  0
DICTIONARY
  5
2D
102
{ACAD_REACTORS
330
9
102
}
330
9
100
AcDbDictionary
281
     1
  3
Standard
350
35
  0
DICTIONARY
  5
2E
102
{ACAD_REACTORS
330
9
102
}
330
9
100
AcDbDictionary
281
     1
  0
ACDBDICTIONARYWDFLT
  5
8
102
{ACAD_REACTORS
330
9
102
}
330
9
100
AcDbDictionary
281
     1
  3
Normal
350
7
100
AcDbDictionaryWithDefault
340
7
  0
DICTIONARY
  5
243
102
{ACAD_REACTORS
330
9
102
}
330
9
100
AcDbDictionary
281
     1
  3
A0
350
244
  3
A1
350
245
  3
A2
350
246
  3
A3
350
247
  3
A4
350
248
  3
A5
350
249
  3
A6
350
24A
  3
A7
350
24B
  3
A8
350
24C
  3
A9
350
24D
  3
B0
350
24E
  3
B1
350
24F
  3
B2
350
250
  3
B3
350
251
  3
B4
350
252
  3
B5
350
253
  3
B6
350
254
  3
B7
350
255
  3
B8
350
256
  3
B9
350
257
  3
C0
350
258
  3
C1
350
259
  3
C2
350
25A
  3
C3
350
25B
  3
C4
350
25C
  3
C5
350
25D
  3
C6
350
25E
  3
C7
350
25F
  3
C8
350
260
  3
C9
350
261
  3
D0
350
262
  3
D1
350
263
  3
D2
350
264
  0
DICTIONARY
  5
32
102
{ACAD_REACTORS
330
9
102
}
330
9
100
AcDbDictionary
281
     1
  3
Standard
350
36
  0
DICTIONARY
  5
26
102
{ACAD_REACTORS
330
9
102
}
330
9
100
AcDbDictionary
281
     1
  3
2dWireframe
350
25
  3
3D Hidden
350
E0
  3
3dWireframe
350
38
  3
Basic
350
DF
  3
Brighten
350
E3
  3
ColorChange
350
E7
  3
Conceptual
350
E1
  3
Dim
350
E2
  3
Facepattern
350
E6
  3
Flat
350
DB
  3
FlatWithEdges
350
DC
  3
Gouraud
350
DD
  3
GouraudWithEdges
350
DE
  3
Linepattern
350
E5
  3
Realistic
350
37
  3
Thicken
350
E4
  0
XRECORD
  5
272
102
{ACAD_REACTORS
330
9
102
}
330
9
100
AcDbXrecord
280
     1
 90
        1
330
36
  0
DICTIONARY
  5
26C
102
{ACAD_REACTORS
330
9
102
}
330
9
100
AcDbDictionary
281
     1
  0
DICTIONARY
  5
D8
102
{ACAD_REACTORS
330
9
102
}
330
9
100
AcDbDictionary
281
     1
  3
CMLEADERSTYLE
350
26A
  3
CTABLESTYLE
350
D9
  0
DICTIONARY
  5
17
102
{ACAD_REACTORS
330
16
102
}
330
16
100
AcDbDictionary
281
     1
  0
DICTIONARY
  5
18
102
{ACAD_REACTORS
330
16
102
}
330
16
100
AcDbDictionary
281
     1
  0
DICTIONARY
  5
19
102
{ACAD_REACTORS
330
16
102
}
330
16
100
AcDbDictionary
281
     1
1001
ACAD
1000
<All
  0
SORTENTSTABLE
  5
D6
102
{ACAD_REACTORS
330
3
102
}
330
3
100
AcDbSortentsTable
330
2
  0
LAYOUT
  5
E
102
{ACAD_REACTORS
330
F
102
}
330
F
100
AcDbPlotSettings
  1

  2
ww.pc3
  4
User300
  6

 40
7.143749713897705
 41
7.143741130828857
 42
7.14373779296875
 43
7.143753051757812
 44
297.0106506347656
 45
209.9733276367187
 46
2.983742192813338
 47
0.0
 48
-6371.604273466221
 49
-5387.338647280774
140
-3995.60427346622
141
-3707.338647280774
142
1.0
143
8.585189690769233
 70
  3764
 72
     1
 73
     0
 74
     4
  7
acad.ctb
 75
     0
147
0.1164796627703167
 76
     1
 77
     2
 78
   300
148
6371.604273466221
149
5387.338647280774
100
AcDbLayout
  1
Model
 70
     1
 71
     0
 10
0.0
 20
0.0
 11
12.0
 21
9.0
 12
0.0
 22
0.0
 32
0.0
 14
0.0
 24
0.0
 34
0.0
 15
0.0
 25
0.0
 35
0.0
146
0.0
 13
0.0
 23
0.0
 33
0.0
 16
1.0
 26
0.0
 36
0.0
 17
0.0
 27
1.0
 37
0.0
 76
     0
330
2
331
24
1001
ACAD_PSEXT
1000
ww.pc3
1000
pdfFactory 3
1000
FPP3:
1000

1070
     0
  0
LAYOUT
  5
14
102
{ACAD_REACTORS
330
F
102
}
330
F
100
AcDbPlotSettings
  1

  2
C:\Documents and Settings\basas\Application Data\Autodesk\AutoCAD 2005\R16.1\enu\plotters\Default Windows System Printer.pc3
  4

  6

 40
0.0
 41
0.0
 42
0.0
 43
0.0
 44
0.0
 45
0.0
 46
0.0
 47
0.0
 48
0.0
 49
0.0
140
0.0
141
0.0
142
1.0
143
1.0
 70
   688
 72
     0
 73
     0
 74
     5
  7
acad.ctb
 75
    16
147
1.0
 76
     0
 77
     2
 78
   300
148
0.0
149
0.0
100
AcDbLayout
  1
布局1
 70
     1
 71
     1
 10
0.0
 20
0.0
 11
12.0
 21
9.0
 12
0.0
 22
0.0
 32
0.0
 14
0.0
 24
0.0
 34
0.0
 15
0.0
 25
0.0
 35
0.0
146
0.0
 13
0.0
 23
0.0
 33
0.0
 16
1.0
 26
0.0
 36
0.0
 17
0.0
 27
1.0
 37
0.0
 76
     0
330
11
  0
MATERIAL
  5
30
102
{ACAD_REACTORS
330
B
102
}
330
B
100
AcDbMaterial
  1
ByBlock
  2

  0
MATERIAL
  5
2F
102
{ACAD_REACTORS
330
B
102
}
330
B
100
AcDbMaterial
  1
ByLayer
  2

  0
MATERIAL
  5
A
102
{ACAD_REACTORS
330
B
102
}
330
B
100
AcDbMaterial
  1
Global
  2

  0
MLEADERSTYLE
  5
266
102
{ACAD_REACTORS
330
265
102
}
330
265
100
AcDbMLeaderStyle
170
     2
171
     1
172
     0
 90
        2
 40
0.0
 41
0.0
173
     1
 91
-1056964608
340
1F
 92
       -2
290
     1
 42
0.09
291
     1
 43
8.0
  3
Standard
341
0
 44
0.18
300

342
1C
174
     1
178
     1
175
     1
176
     0
 93
-1056964608
 45
0.18
292
     0
297
     0
 46
0.18
343
0
 94
-1056964608
 47
1.0
 49
1.0
140
1.0
293
     1
141
0.0
294
     1
177
     0
142
1.0
295
     0
296
     0
143
3.75
1001
ACAD_MLEADERVER
1070
     2
  0
MLINESTYLE
  5
35
102
{ACAD_REACTORS
330
2D
102
}
330
2D
100
AcDbMlineStyle
  2
STANDARD
 70
     0
  3

 62
   256
 51
90.0
 52
90.0
 71
     2
 49
0.5
 62
   256
  6
BYLAYER
 49
-0.5
 62
   256
  6
BYLAYER
  0
ACDBPLACEHOLDER
  5
7
102
{ACAD_REACTORS
330
8
102
}
330
8
  0
SCALE
  5
244
102
{ACAD_REACTORS
330
243
102
}
330
243
100
AcDbScale
 70
     0
300
1:1
140
1.0
141
1.0
290
     1
  0
SCALE
  5
245
102
{ACAD_REACTORS
330
243
102
}
330
243
100
AcDbScale
 70
     0
300
1:2
140
1.0
141
2.0
290
     0
  0
SCALE
  5
246
102
{ACAD_REACTORS
330
243
102
}
330
243
100
AcDbScale
 70
     0
300
1:4
140
1.0
141
4.0
290
     0
  0
SCALE
  5
247
102
{ACAD_REACTORS
330
243
102
}
330
243
100
AcDbScale
 70
     0
300
1:5
140
1.0
141
5.0
290
     0
  0
SCALE
  5
248
102
{ACAD_REACTORS
330
243
102
}
330
243
100
AcDbScale
 70
     0
300
1:8
140
1.0
141
8.0
290
     0
  0
SCALE
  5
249
102
{ACAD_REACTORS
330
243
102
}
330
243
100
AcDbScale
 70
     0
300
1:10
140
1.0
141
10.0
290
     0
  0
SCALE
  5
24A
102
{ACAD_REACTORS
330
243
102
}
330
243
100
AcDbScale
 70
     0
300
1:16
140
1.0
141
16.0
290
     0
  0
SCALE
  5
24B
102
{ACAD_REACTORS
330
243
102
}
330
243
100
AcDbScale
 70
     0
300
1:20
140
1.0
141
20.0
290
     0
  0
SCALE
  5
24C
102
{ACAD_REACTORS
330
243
102
}
330
243
100
AcDbScale
 70
     0
300
1:30
140
1.0
141
30.0
290
     0
  0
SCALE
  5
24D
102
{ACAD_REACTORS
330
243
102
}
330
243
100
AcDbScale
 70
     0
300
1:40
140
1.0
141
40.0
290
     0
  0
SCALE
  5
24E
102
{ACAD_REACTORS
330
243
102
}
330
243
100
AcDbScale
 70
     0
300
1:50
140
1.0
141
50.0
290
     0
  0
SCALE
  5
24F
102
{ACAD_REACTORS
330
243
102
}
330
243
100
AcDbScale
 70
     0
300
1:100
140
1.0
141
100.0
290
     0
  0
SCALE
  5
250
102
{ACAD_REACTORS
330
243
102
}
330
243
100
AcDbScale
 70
     0
300
2:1
140
2.0
141
1.0
290
     0
  0
SCALE
  5
251
102
{ACAD_REACTORS
330
243
102
}
330
243
100
AcDbScale
 70
     0
300
4:1
140
4.0
141
1.0
290
     0
  0
SCALE
  5
252
102
{ACAD_REACTORS
330
243
102
}
330
243
100
AcDbScale
 70
     0
300
8:1
140
8.0
141
1.0
290
     0
  0
SCALE
  5
253
102
{ACAD_REACTORS
330
243
102
}
330
243
100
AcDbScale
 70
     0
300
10:1
140
10.0
141
1.0
290
     0
  0
SCALE
  5
254
102
{ACAD_REACTORS
330
243
102
}
330
243
100
AcDbScale
 70
     0
300
100:1
140
100.0
141
1.0
290
     0
  0
SCALE
  5
255
102
{ACAD_REACTORS
330
243
102
}
330
243
100
AcDbScale
 70
     0
300
1/128" = 1'-0"
140
0.0078125
141
12.0
290
     0
  0
SCALE
  5
256
102
{ACAD_REACTORS
330
243
102
}
330
243
100
AcDbScale
 70
     0
300
1/64" = 1'-0"
140
0.015625
141
12.0
290
     0
  0
SCALE
  5
257
102
{ACAD_REACTORS
330
243
102
}
330
243
100
AcDbScale
 70
     0
300
1/32" = 1'-0"
140
0.03125
141
12.0
290
     0
  0
SCALE
  5
258
102
{ACAD_REACTORS
330
243
102
}
330
243
100
AcDbScale
 70
     0
300
1/16" = 1'-0"
140
0.0625
141
12.0
290
     0
  0
SCALE
  5
259
102
{ACAD_REACTORS
330
243
102
}
330
243
100
AcDbScale
 70
     0
300
3/32" = 1'-0"
140
0.09375
141
12.0
290
     0
  0
SCALE
  5
25A
102
{ACAD_REACTORS
330
243
102
}
330
243
100
AcDbScale
 70
     0
300
1/8" = 1'-0"
140
0.125
141
12.0
290
     0
  0
SCALE
  5
25B
102
{ACAD_REACTORS
330
243
102
}
330
243
100
AcDbScale
 70
     0
300
3/16" = 1'-0"
140
0.1875
141
12.0
290
     0
  0
SCALE
  5
25C
102
{ACAD_REACTORS
330
243
102
}
330
243
100
AcDbScale
 70
     0
300
1/4" = 1'-0"
140
0.25
141
12.0
290
     0
  0
SCALE
  5
25D
102
{ACAD_REACTORS
330
243
102
}
330
243
100
AcDbScale
 70
     0
300
3/8" = 1'-0"
140
0.375
141
12.0
290
     0
  0
SCALE
  5
25E
102
{ACAD_REACTORS
330
243
102
}
330
243
100
AcDbScale
 70
     0
300
1/2" = 1'-0"
140
0.5
141
12.0
290
     0
  0
SCALE
  5
25F
102
{ACAD_REACTORS
330
243
102
}
330
243
100
AcDbScale
 70
     0
300
3/4" = 1'-0"
140
0.75
141
12.0
290
     0
  0
SCALE
  5
260
102
{ACAD_REACTORS
330
243
102
}
330
243
100
AcDbScale
 70
     0
300
1" = 1'-0"
140
1.0
141
12.0
290
     0
  0
SCALE
  5
261
102
{ACAD_REACTORS
330
243
102
}
330
243
100
AcDbScale
 70
     0
300
1-1/2" = 1'-0"
140
1.5
141
12.0
290
     0
  0
SCALE
  5
262
102
{ACAD_REACTORS
330
243
102
}
330
243
100
AcDbScale
 70
     0
300
3" = 1'-0"
140
3.0
141
12.0
290
     0
  0
SCALE
  5
263
102
{ACAD_REACTORS
330
243
102
}
330
243
100
AcDbScale
 70
     0
300
6" = 1'-0"
140
6.0
141
12.0
290
     0
  0
SCALE
  5
264
102
{ACAD_REACTORS
330
243
102
}
330
243
100
AcDbScale
 70
     0
300
1'-0" = 1'-0"
140
12.0
141
12.0
290
     0
  0
TABLESTYLE
  5
36
102
{ACAD_XDICTIONARY
360
26F
102
}
102
{ACAD_REACTORS
330
32
102
}
330
32
100
AcDbTableStyle
  3
Standard
 70
     0
 71
     0
 40
1.5
 41
1.5
280
     0
281
     0
  7
Standard
140
4.5
170
     2
 62
     0
 63
   257
283
     0
274
    -2
284
     1
 64
     0
275
    -2
285
     1
 65
     0
276
    -2
286
     1
 66
     0
277
    -2
287
     1
 67
     0
278
    -2
288
     1
 68
     0
279
    -2
289
     1
 69
     0
  7
Standard
140
6.0
170
     5
 62
     0
 63
   257
283
     0
274
    -2
284
     1
 64
     0
275
    -2
285
     1
 65
     0
276
    -2
286
     1
 66
     0
277
    -2
287
     1
 67
     0
278
    -2
288
     1
 68
     0
279
    -2
289
     1
 69
     0
  7
Standard
140
4.5
170
     5
 62
     0
 63
   257
283
     0
274
    -2
284
     1
 64
     0
275
    -2
285
     1
 65
     0
276
    -2
286
     1
 66
     0
277
    -2
287
     1
 67
     0
278
    -2
288
     1
 68
     0
279
    -2
289
     1
 69
     0
  0
VISUALSTYLE
  5
25
102
{ACAD_XDICTIONARY
360
26D
102
}
102
{ACAD_REACTORS
330
26
102
}
330
26
100
AcDbVisualStyle
  2
2dWireframe
 70
     4
 71
     0
 72
     2
 73
     1
 90
        0
 40
-0.6
 41
-30.0
 62
     5
 63
     7
 74
     1
 91
        4
 64
     7
 65
   257
 75
     1
175
     1
 42
1.0
 92
        0
 66
   257
 43
1.0
 76
     1
 77
     6
 78
     2
 67
     7
 79
     5
170
     0
171
     0
290
     0
174
     0
 93
        1
 44
0.0
173
     0
291
     0
 45
0.0
1001
ACAD
1000
AcDbSavedByObjectVersion
1070
     0
  0
VISUALSTYLE
  5
E0
102
{ACAD_XDICTIONARY
360
281
102
}
102
{ACAD_REACTORS
330
26
102
}
330
26
100
AcDbVisualStyle
  2
3D Hidden
 70
     6
 71
     1
 72
     2
 73
     2
 90
        0
 40
-0.6
 41
-30.0
 62
     5
 63
     7
421
 16777215
 74
     2
 91
        2
 64
     7
 65
   257
 75
     2
175
     1
 42
40.0
 92
        0
 66
   257
 43
1.0
 76
     1
 77
     6
 78
     2
 67
     7
 79
     3
170
     0
171
     0
290
     0
174
     0
 93
        1
 44
0.0
173
     0
291
     0
 45
0.0
1001
ACAD
1000
AcDbSavedByObjectVersion
1070
     0
  0
VISUALSTYLE
  5
38
102
{ACAD_XDICTIONARY
360
275
102
}
102
{ACAD_REACTORS
330
26
102
}
330
26
100
AcDbVisualStyle
  2
3dWireframe
 70
     5
 71
     0
 72
     2
 73
     1
 90
        0
 40
-0.6
 41
-30.0
 62
     5
 63
     7
 74
     1
 91
        4
 64
     7
 65
   257
 75
     1
175
     1
 42
1.0
 92
        0
 66
   257
 43
1.0
 76
     1
 77
     6
 78
     2
 67
     7
 79
     5
170
     0
171
     0
290
     0
174
     0
 93
        1
 44
0.0
173
     0
291
     0
 45
0.0
1001
ACAD
1000
AcDbSavedByObjectVersion
1070
     0
  0
VISUALSTYLE
  5
DF
102
{ACAD_XDICTIONARY
360
27F
102
}
102
{ACAD_REACTORS
330
26
102
}
330
26
100
AcDbVisualStyle
  2
Basic
 70
     7
 71
     1
 72
     0
 73
     1
 90
        0
 40
-0.6
 41
-30.0
 62
     5
 63
     7
421
 16777215
 74
     0
 91
        4
 64
     7
 65
   257
 75
     1
175
     1
 42
1.0
 92
        8
 66
     7
 43
1.0
 76
     1
 77
     6
 78
     2
 67
     7
 79
     5
170
     0
171
     0
290
     0
174
     0
 93
        1
 44
0.0
173
     0
291
     1
 45
0.0
1001
ACAD
1000
AcDbSavedByObjectVersion
1070
     0
  0
VISUALSTYLE
  5
E3
102
{ACAD_XDICTIONARY
360
287
102
}
102
{ACAD_REACTORS
330
26
102
}
330
26
100
AcDbVisualStyle
  2
Brighten
 70
    12
 71
     2
 72
     2
 73
     0
 90
        0
 40
-0.6
 41
-30.0
 62
     5
 63
     7
421
 16777215
 74
     1
 91
        4
 64
     7
 65
   257
 75
     1
175
     1
 42
1.0
 92
        8
 66
     7
 43
1.0
 76
     1
 77
     6
 78
     2
 67
     7
 79
     5
170
     0
171
     0
290
     0
174
     0
 93
        1
 44
50.0
173
     0
291
     1
 45
0.0
1001
ACAD
1000
AcDbSavedByObjectVersion
1070
     0
  0
VISUALSTYLE
  5
E7
102
{ACAD_XDICTIONARY
360
28F
102
}
102
{ACAD_REACTORS
330
26
102
}
330
26
100
AcDbVisualStyle
  2
ColorChange
 70
    16
 71
     2
 72
     2
 73
     3
 90
        0
 40
-0.6
 41
-30.0
 62
     5
 63
     8
421
  8421504
 74
     1
 91
        4
 64
     7
 65
   257
 75
     1
175
     1
 42
1.0
 92
        8
 66
     8
424
  8421504
 43
1.0
 76
     1
 77
     6
 78
     2
 67
     7
 79
     5
170
     0
171
     0
290
     0
174
     0
 93
        1
 44
0.0
173
     0
291
     1
 45
0.0
1001
ACAD
1000
AcDbSavedByObjectVersion
1070
     0
  0
VISUALSTYLE
  5
E1
102
{ACAD_XDICTIONARY
360
283
102
}
102
{ACAD_REACTORS
330
26
102
}
330
26
100
AcDbVisualStyle
  2
Conceptual
 70
     9
 71
     3
 72
     2
 73
     0
 90
        0
 40
-0.6
 41
-30.0
 62
     5
 63
     7
421
 16777215
 74
     2
 91
        2
 64
     7
 65
   257
 75
     1
175
     1
 42
40.0
 92
        8
 66
     7
 43
1.0
 76
     1
 77
     6
 78
     2
 67
     7
 79
     3
170
     0
171
     0
290
     0
174
     0
 93
        1
 44
0.0
173
     0
291
     0
 45
0.0
1001
ACAD
1000
AcDbSavedByObjectVersion
1070
     0
  0
VISUALSTYLE
  5
E2
102
{ACAD_XDICTIONARY
360
285
102
}
102
{ACAD_REACTORS
330
26
102
}
330
26
100
AcDbVisualStyle
  2
Dim
 70
    11
 71
     2
 72
     2
 73
     0
 90
        0
 40
-0.6
 41
-30.0
 62
     5
 63
     7
421
 16777215
 74
     1
 91
        4
 64
     7
 65
   257
 75
     1
175
     1
 42
1.0
 92
        8
 66
     7
 43
1.0
 76
     1
 77
     6
 78
     2
 67
     7
 79
     5
170
     0
171
     0
290
     0
174
     0
 93
        1
 44
-50.0
173
     0
291
     1
 45
0.0
1001
ACAD
1000
AcDbSavedByObjectVersion
1070
     0
  0
VISUALSTYLE
  5
E6
102
{ACAD_XDICTIONARY
360
28D
102
}
102
{ACAD_REACTORS
330
26
102
}
330
26
100
AcDbVisualStyle
  2
Facepattern
 70
    15
 71
     2
 72
     2
 73
     0
 90
        0
 40
-0.6
 41
-30.0
 62
     5
 63
     7
421
 16777215
 74
     1
 91
        4
 64
     7
 65
   257
 75
     1
175
     1
 42
1.0
 92
        8
 66
     7
 43
1.0
 76
     1
 77
     6
 78
     2
 67
     7
 79
     5
170
     0
171
     0
290
     0
174
     0
 93
        1
 44
0.0
173
     0
291
     1
 45
0.0
1001
ACAD
1000
AcDbSavedByObjectVersion
1070
     0
  0
VISUALSTYLE
  5
DB
102
{ACAD_XDICTIONARY
360
277
102
}
102
{ACAD_REACTORS
330
26
102
}
330
26
100
AcDbVisualStyle
  2
Flat
 70
     0
 71
     2
 72
     1
 73
     1
 90
        2
 40
-0.6
 41
30.0
 62
     5
 63
     7
421
 16777215
 74
     0
 91
        4
 64
     7
 65
   257
 75
     1
175
     1
 42
1.0
 92
        8
 66
     7
 43
1.0
 76
     1
 77
     6
 78
     2
 67
     7
 79
     5
170
     0
171
     0
290
     0
174
     0
 93
       13
 44
0.0
173
     0
291
     1
 45
0.0
1001
ACAD
1000
AcDbSavedByObjectVersion
1070
     0
  0
VISUALSTYLE
  5
DC
102
{ACAD_XDICTIONARY
360
279
102
}
102
{ACAD_REACTORS
330
26
102
}
330
26
100
AcDbVisualStyle
  2
FlatWithEdges
 70
     1
 71
     2
 72
     1
 73
     1
 90
        2
 40
-0.6
 41
30.0
 62
     5
 63
     7
421
 16777215
 74
     1
 91
        4
 64
     7
 65
   257
 75
     1
175
     1
 42
1.0
 92
        0
 66
   257
 43
1.0
 76
     1
 77
     6
 78
     2
 67
     7
 79
     5
170
     0
171
     0
290
     0
174
     0
 93
       13
 44
0.0
173
     0
291
     1
 45
0.0
1001
ACAD
1000
AcDbSavedByObjectVersion
1070
     0
  0
VISUALSTYLE
  5
DD
102
{ACAD_XDICTIONARY
360
27B
102
}
102
{ACAD_REACTORS
330
26
102
}
330
26
100
AcDbVisualStyle
  2
Gouraud
 70
     2
 71
     2
 72
     2
 73
     1
 90
        2
 40
-0.6
 41
30.0
 62
     5
 63
     7
421
 16777215
 74
     0
 91
        4
 64
     7
 65
   257
 75
     1
175
     1
 42
1.0
 92
        0
 66
     7
 43
1.0
 76
     1
 77
     6
 78
     2
 67
     7
 79
     5
170
     0
171
     0
290
     0
174
     0
 93
       13
 44
0.0
173
     0
291
     1
 45
0.0
1001
ACAD
1000
AcDbSavedByObjectVersion
1070
     0
  0
VISUALSTYLE
  5
DE
102
{ACAD_XDICTIONARY
360
27D
102
}
102
{ACAD_REACTORS
330
26
102
}
330
26
100
AcDbVisualStyle
  2
GouraudWithEdges
 70
     3
 71
     2
 72
     2
 73
     1
 90
        2
 40
-0.6
 41
30.0
 62
     5
 63
     7
421
 16777215
 74
     1
 91
        4
 64
     7
 65
   257
 75
     1
175
     1
 42
1.0
 92
        0
 66
   257
 43
1.0
 76
     1
 77
     6
 78
     2
 67
     7
 79
     5
170
     0
171
     0
290
     0
174
     0
 93
       13
 44
0.0
173
     0
291
     1
 45
0.0
1001
ACAD
1000
AcDbSavedByObjectVersion
1070
     0
  0
VISUALSTYLE
  5
E5
102
{ACAD_XDICTIONARY
360
28B
102
}
102
{ACAD_REACTORS
330
26
102
}
330
26
100
AcDbVisualStyle
  2
Linepattern
 70
    14
 71
     2
 72
     2
 73
     0
 90
        0
 40
-0.6
 41
-30.0
 62
     5
 63
     7
421
 16777215
 74
     1
 91
        4
 64
     7
 65
   257
 75
     7
175
     7
 42
1.0
 92
        8
 66
     7
 43
1.0
 76
     1
 77
     6
 78
     2
 67
     7
 79
     5
170
     0
171
     0
290
     0
174
     0
 93
        1
 44
0.0
173
     0
291
     1
 45
0.0
1001
ACAD
1000
AcDbSavedByObjectVersion
1070
     0
  0
VISUALSTYLE
  5
37
102
{ACAD_XDICTIONARY
360
273
102
}
102
{ACAD_REACTORS
330
26
102
}
330
26
100
AcDbVisualStyle
  2
Realistic
 70
     8
 71
     2
 72
     2
 73
     1
 90
        0
 40
-0.6
 41
-30.0
 62
     5
 63
     7
 74
     1
 91
        0
 64
     7
 65
   257
 75
     1
175
     1
 42
1.0
 92
        8
 66
     8
 43
1.0
 76
     1
 77
     6
 78
     2
 67
     7
 79
     5
170
     0
171
     0
290
     0
174
     0
 93
       13
 44
0.0
173
     0
291
     0
 45
0.0
1001
ACAD
1000
AcDbSavedByObjectVersion
1070
     0
  0
VISUALSTYLE
  5
E4
102
{ACAD_XDICTIONARY
360
289
102
}
102
{ACAD_REACTORS
330
26
102
}
330
26
100
AcDbVisualStyle
  2
Thicken
 70
    13
 71
     2
 72
     2
 73
     0
 90
        0
 40
-0.6
 41
-30.0
 62
     5
 63
     7
421
 16777215
 74
     1
 91
        4
 64
     7
 65
   257
 75
     1
175
     1
 42
1.0
 92
       12
 66
     7
 43
1.0
 76
     1
 77
     6
 78
     2
 67
     7
 79
     5
170
     0
171
     0
290
     0
174
     0
 93
        1
 44
0.0
173
     0
291
     1
 45
0.0
1001
ACAD
1000
AcDbSavedByObjectVersion
1070
     0
  0
DICTIONARYVAR
  5
26A
102
{ACAD_REACTORS
330
D8
102
}
330
D8
100
DictionaryVariables
280
     0
  1
STANDARD
  0
DICTIONARYVAR
  5
D9
102
{ACAD_REACTORS
330
D8
102
}
330
D8
100
DictionaryVariables
280
     0
  1
STANDARD
  0
DICTIONARY
  5
26F
330
36
100
AcDbDictionary
280
     1
281
     1
  3
ACAD_ROUNDTRIP_2008_TABLESTYLE_CELLSTYLEMAP
360
271
  3
ACAD_XREC_ROUNDTRIP
360
270
  0
DICTIONARY
  5
26D
330
25
100
AcDbDictionary
280
     1
281
     1
  3
ACAD_XREC_ROUNDTRIP
360
26E
  0
DICTIONARY
  5
281
330
E0
100
AcDbDictionary
280
     1
281
     1
  3
ACAD_XREC_ROUNDTRIP
360
282
  0
DICTIONARY
  5
275
330
38
100
AcDbDictionary
280
     1
281
     1
  3
ACAD_XREC_ROUNDTRIP
360
276
  0
DICTIONARY
  5
27F
330
DF
100
AcDbDictionary
280
     1
281
     1
  3
ACAD_XREC_ROUNDTRIP
360
280
  0
DICTIONARY
  5
287
330
E3
100
AcDbDictionary
280
     1
281
     1
  3
ACAD_XREC_ROUNDTRIP
360
288
  0
DICTIONARY
  5
28F
330
E7
100
AcDbDictionary
280
     1
281
     1
  3
ACAD_XREC_ROUNDTRIP
360
290
  0
DICTIONARY
  5
283
330
E1
100
AcDbDictionary
280
     1
281
     1
  3
ACAD_XREC_ROUNDTRIP
360
284
  0
DICTIONARY
  5
285
330
E2
100
AcDbDictionary
280
     1
281
     1
  3
ACAD_XREC_ROUNDTRIP
360
286
  0
DICTIONARY
  5
28D
330
E6
100
AcDbDictionary
280
     1
281
     1
  3
ACAD_XREC_ROUNDTRIP
360
28E
  0
DICTIONARY
  5
277
330
DB
100
AcDbDictionary
280
     1
281
     1
  3
ACAD_XREC_ROUNDTRIP
360
278
  0
DICTIONARY
  5
279
330
DC
100
AcDbDictionary
280
     1
281
     1
  3
ACAD_XREC_ROUNDTRIP
360
27A
  0
DICTIONARY
  5
27B
330
DD
100
AcDbDictionary
280
     1
281
     1
  3
ACAD_XREC_ROUNDTRIP
360
27C
  0
DICTIONARY
  5
27D
330
DE
100
AcDbDictionary
280
     1
281
     1
  3
ACAD_XREC_ROUNDTRIP
360
27E
  0
DICTIONARY
  5
28B
330
E5
100
AcDbDictionary
280
     1
281
     1
  3
ACAD_XREC_ROUNDTRIP
360
28C
  0
DICTIONARY
  5
273
330
37
100
AcDbDictionary
280
     1
281
     1
  3
ACAD_XREC_ROUNDTRIP
360
274
  0
DICTIONARY
  5
289
330
E4
100
AcDbDictionary
280
     1
281
     1
  3
ACAD_XREC_ROUNDTRIP
360
28A
  0
CELLSTYLEMAP
  5
271
102
{ACAD_REACTORS
330
26F
102
}
330
26F
100
AcDbCellStyleMap
 90
        3
300
CELLSTYLE
  1
TABLEFORMAT_BEGIN
 90
        5
170
     1
 91
        0
 92
        0
 62
   257
 93
        1
300
CONTENTFORMAT
  1
CONTENTFORMAT_BEGIN
 90
        0
 91
        0
 92
      512
 93
        0
300

 40
0.0
140
1.0
 94
        5
 62
     0
340
1C
144
6.0
309
CONTENTFORMAT_END
171
     1
301
MARGIN
  1
CELLMARGIN_BEGIN
 40
1.5
 40
1.5
 40
1.5
 40
1.5
 40
4.5
 40
4.5
309
CELLMARGIN_END
 94
        6
 95
        1
302
GRIDFORMAT
  1
GRIDFORMAT_BEGIN
 90
        0
 91
        1
 62
     0
 92
       -2
340
0
 93
        0
 40
0.045
309
GRIDFORMAT_END
 95
        2
302
GRIDFORMAT
  1
GRIDFORMAT_BEGIN
 90
        0
 91
        1
 62
     0
 92
       -2
340
0
 93
        0
 40
0.045
309
GRIDFORMAT_END
 95
        4
302
GRIDFORMAT
  1
GRIDFORMAT_BEGIN
 90
        0
 91
        1
 62
     0
 92
       -2
340
0
 93
        0
 40
0.045
309
GRIDFORMAT_END
 95
        8
302
GRIDFORMAT
  1
GRIDFORMAT_BEGIN
 90
        0
 91
        1
 62
     0
 92
       -2
340
0
 93
        0
 40
0.045
309
GRIDFORMAT_END
 95
       16
302
GRIDFORMAT
  1
GRIDFORMAT_BEGIN
 90
        0
 91
        1
 62
     0
 92
       -2
340
0
 93
        0
 40
0.045
309
GRIDFORMAT_END
 95
       32
302
GRIDFORMAT
  1
GRIDFORMAT_BEGIN
 90
        0
 91
        1
 62
     0
 92
       -2
340
0
 93
        0
 40
0.045
309
GRIDFORMAT_END
309
TABLEFORMAT_END
  1
CELLSTYLE_BEGIN
 90
        1
 91
        1
300
_TITLE
309
CELLSTYLE_END
300
CELLSTYLE
  1
TABLEFORMAT_BEGIN
 90
        5
170
     1
 91
        0
 92
        0
 62
   257
 93
        1
300
CONTENTFORMAT
  1
CONTENTFORMAT_BEGIN
 90
        0
 91
        0
 92
      512
 93
        0
300

 40
0.0
140
1.0
 94
        5
 62
     0
340
1C
144
4.5
309
CONTENTFORMAT_END
171
     1
301
MARGIN
  1
CELLMARGIN_BEGIN
 40
1.5
 40
1.5
 40
1.5
 40
1.5
 40
4.5
 40
4.5
309
CELLMARGIN_END
 94
        6
 95
        1
302
GRIDFORMAT
  1
GRIDFORMAT_BEGIN
 90
        0
 91
        1
 62
     0
 92
       -2
340
0
 93
        0
 40
0.045
309
GRIDFORMAT_END
 95
        2
302
GRIDFORMAT
  1
GRIDFORMAT_BEGIN
 90
        0
 91
        1
 62
     0
 92
       -2
340
0
 93
        0
 40
0.045
309
GRIDFORMAT_END
 95
        4
302
GRIDFORMAT
  1
GRIDFORMAT_BEGIN
 90
        0
 91
        1
 62
     0
 92
       -2
340
0
 93
        0
 40
0.045
309
GRIDFORMAT_END
 95
        8
302
GRIDFORMAT
  1
GRIDFORMAT_BEGIN
 90
        0
 91
        1
 62
     0
 92
       -2
340
0
 93
        0
 40
0.045
309
GRIDFORMAT_END
 95
       16
302
GRIDFORMAT
  1
GRIDFORMAT_BEGIN
 90
        0
 91
        1
 62
     0
 92
       -2
340
0
 93
        0
 40
0.045
309
GRIDFORMAT_END
 95
       32
302
GRIDFORMAT
  1
GRIDFORMAT_BEGIN
 90
        0
 91
        1
 62
     0
 92
       -2
340
0
 93
        0
 40
0.045
309
GRIDFORMAT_END
309
TABLEFORMAT_END
  1
CELLSTYLE_BEGIN
 90
        2
 91
        1
300
_HEADER
309
CELLSTYLE_END
300
CELLSTYLE
  1
TABLEFORMAT_BEGIN
 90
        5
170
     1
 91
        0
 92
        0
 62
   257
 93
        1
300
CONTENTFORMAT
  1
CONTENTFORMAT_BEGIN
 90
        0
 91
        0
 92
      512
 93
        0
300

 40
0.0
140
1.0
 94
        2
 62
     0
340
1C
144
4.5
309
CONTENTFORMAT_END
171
     1
301
MARGIN
  1
CELLMARGIN_BEGIN
 40
1.5
 40
1.5
 40
1.5
 40
1.5
 40
4.5
 40
4.5
309
CELLMARGIN_END
 94
        6
 95
        1
302
GRIDFORMAT
  1
GRIDFORMAT_BEGIN
 90
        0
 91
        1
 62
     0
 92
       -2
340
0
 93
        0
 40
0.045
309
GRIDFORMAT_END
 95
        2
302
GRIDFORMAT
  1
GRIDFORMAT_BEGIN
 90
        0
 91
        1
 62
     0
 92
       -2
340
0
 93
        0
 40
0.045
309
GRIDFORMAT_END
 95
        4
302
GRIDFORMAT
  1
GRIDFORMAT_BEGIN
 90
        0
 91
        1
 62
     0
 92
       -2
340
0
 93
        0
 40
0.045
309
GRIDFORMAT_END
 95
        8
302
GRIDFORMAT
  1
GRIDFORMAT_BEGIN
 90
        0
 91
        1
 62
     0
 92
       -2
340
0
 93
        0
 40
0.045
309
GRIDFORMAT_END
 95
       16
302
GRIDFORMAT
  1
GRIDFORMAT_BEGIN
 90
        0
 91
        1
 62
     0
 92
       -2
340
0
 93
        0
 40
0.045
309
GRIDFORMAT_END
 95
       32
302
GRIDFORMAT
  1
GRIDFORMAT_BEGIN
 90
        0
 91
        1
 62
     0
 92
       -2
340
0
 93
        0
 40
0.045
309
GRIDFORMAT_END
309
TABLEFORMAT_END
  1
CELLSTYLE_BEGIN
 90
        3
 91
        2
300
_DATA
309
CELLSTYLE_END
  0
XRECORD
  5
270
102
{ACAD_REACTORS
330
26F
102
}
330
26F
100
AcDbXrecord
280
     1
102
ACAD_ROUNDTRIP_PRE2007_TABLESTYLE
 90
      512
 91
        0
  1

 92
      512
 93
        0
  2

 94
      512
 95
        0
  3

  0
XRECORD
  5
26E
102
{ACAD_REACTORS
330
26D
102
}
330
26D
100
AcDbXrecord
280
     1
102
RTVSPropertyOp0
 70
     1
102
RTVSPropertyOp1
 70
     1
102
RTVSPropertyOp2
 70
     1
102
RTVSPropertyOp3
 70
     1
102
RTVSPropertyOp4
 70
     1
102
RTVSPropertyOp5
 70
     1
102
RTVSPropertyOp6
 70
     1
102
RTVSPropertyOp7
 70
     1
102
RTVSPropertyOp8
 70
     1
102
RTVSPropertyOp9
 70
     1
102
RTVSPropertyOp10
 70
     1
102
RTVSPropertyOp11
 70
     1
102
RTVSPropertyOp12
 70
     1
102
RTVSPropertyOp13
 70
     1
102
RTVSPropertyOp14
 70
     1
102
RTVSPropertyOp15
 70
     1
102
RTVSPropertyOp16
 70
     1
102
RTVSPropertyOp17
 70
     1
102
RTVSPropertyOp18
 70
     1
102
RTVSPropertyOp19
 70
     1
102
RTVSPropertyOp20
 70
     1
102
RTVSPropertyOp21
 70
     1
102
RTVSPropertyOp22
 70
     1
102
RTVSPropertyOp23
 70
     1
102
RTVSPropertyOp24
 70
     1
102
RTVSPropertyOp25
 70
     1
102
RTVSPropertyOp26
 70
     1
102
RTVSPropertyOp27
 70
     1
  0
XRECORD
  5
282
102
{ACAD_REACTORS
330
281
102
}
330
281
100
AcDbXrecord
280
     1
102
RTVSPropertyOp0
 70
     1
102
RTVSPropertyOp1
 70
     1
102
RTVSPropertyOp2
 70
     1
102
RTVSPropertyOp3
 70
     1
102
RTVSPropertyOp4
 70
     1
102
RTVSPropertyOp5
 70
     1
102
RTVSPropertyOp6
 70
     1
102
RTVSPropertyOp7
 70
     1
102
RTVSPropertyOp8
 70
     1
102
RTVSPropertyOp9
 70
     1
102
RTVSPropertyOp10
 70
     1
102
RTVSPropertyOp11
 70
     1
102
RTVSPropertyOp12
 70
     1
102
RTVSPropertyOp13
 70
     1
102
RTVSPropertyOp14
 70
     1
102
RTVSPropertyOp15
 70
     1
102
RTVSPropertyOp16
 70
     1
102
RTVSPropertyOp17
 70
     1
102
RTVSPropertyOp18
 70
     1
102
RTVSPropertyOp19
 70
     1
102
RTVSPropertyOp20
 70
     1
102
RTVSPropertyOp21
 70
     1
102
RTVSPropertyOp22
 70
     1
102
RTVSPropertyOp23
 70
     1
102
RTVSPropertyOp24
 70
     1
102
RTVSPropertyOp25
 70
     1
102
RTVSPropertyOp26
 70
     1
102
RTVSPropertyOp27
 70
     1
  0
XRECORD
  5
276
102
{ACAD_REACTORS
330
275
102
}
330
275
100
AcDbXrecord
280
     1
102
RTVSPropertyOp0
 70
     1
102
RTVSPropertyOp1
 70
     1
102
RTVSPropertyOp2
 70
     1
102
RTVSPropertyOp3
 70
     1
102
RTVSPropertyOp4
 70
     1
102
RTVSPropertyOp5
 70
     1
102
RTVSPropertyOp6
 70
     1
102
RTVSPropertyOp7
 70
     1
102
RTVSPropertyOp8
 70
     1
102
RTVSPropertyOp9
 70
     1
102
RTVSPropertyOp10
 70
     1
102
RTVSPropertyOp11
 70
     1
102
RTVSPropertyOp12
 70
     1
102
RTVSPropertyOp13
 70
     1
102
RTVSPropertyOp14
 70
     1
102
RTVSPropertyOp15
 70
     1
102
RTVSPropertyOp16
 70
     1
102
RTVSPropertyOp17
 70
     1
102
RTVSPropertyOp18
 70
     1
102
RTVSPropertyOp19
 70
     1
102
RTVSPropertyOp20
 70
     1
102
RTVSPropertyOp21
 70
     1
102
RTVSPropertyOp22
 70
     1
102
RTVSPropertyOp23
 70
     1
102
RTVSPropertyOp24
 70
     1
102
RTVSPropertyOp25
 70
     1
102
RTVSPropertyOp26
 70
     1
102
RTVSPropertyOp27
 70
     1
  0
XRECORD
  5
280
102
{ACAD_REACTORS
330
27F
102
}
330
27F
100
AcDbXrecord
280
     1
102
RTVSPropertyOp0
 70
     1
102
RTVSPropertyOp1
 70
     1
102
RTVSPropertyOp2
 70
     1
102
RTVSPropertyOp3
 70
     1
102
RTVSPropertyOp4
 70
     1
102
RTVSPropertyOp5
 70
     1
102
RTVSPropertyOp6
 70
     1
102
RTVSPropertyOp7
 70
     1
102
RTVSPropertyOp8
 70
     1
102
RTVSPropertyOp9
 70
     1
102
RTVSPropertyOp10
 70
     1
102
RTVSPropertyOp11
 70
     1
102
RTVSPropertyOp12
 70
     1
102
RTVSPropertyOp13
 70
     1
102
RTVSPropertyOp14
 70
     1
102
RTVSPropertyOp15
 70
     1
102
RTVSPropertyOp16
 70
     1
102
RTVSPropertyOp17
 70
     1
102
RTVSPropertyOp18
 70
     1
102
RTVSPropertyOp19
 70
     1
102
RTVSPropertyOp20
 70
     1
102
RTVSPropertyOp21
 70
     1
102
RTVSPropertyOp22
 70
     1
102
RTVSPropertyOp23
 70
     1
102
RTVSPropertyOp24
 70
     1
102
RTVSPropertyOp25
 70
     1
102
RTVSPropertyOp26
 70
     1
102
RTVSPropertyOp27
 70
     1
  0
XRECORD
  5
288
102
{ACAD_REACTORS
330
287
102
}
330
287
100
AcDbXrecord
280
     1
102
RTVSPropertyOp0
 70
     1
102
RTVSPropertyOp1
 70
     1
102
RTVSPropertyOp2
 70
     1
102
RTVSPropertyOp3
 70
     1
102
RTVSPropertyOp4
 70
     1
102
RTVSPropertyOp5
 70
     1
102
RTVSPropertyOp6
 70
     1
102
RTVSPropertyOp7
 70
     1
102
RTVSPropertyOp8
 70
     1
102
RTVSPropertyOp9
 70
     1
102
RTVSPropertyOp10
 70
     1
102
RTVSPropertyOp11
 70
     1
102
RTVSPropertyOp12
 70
     1
102
RTVSPropertyOp13
 70
     1
102
RTVSPropertyOp14
 70
     1
102
RTVSPropertyOp15
 70
     1
102
RTVSPropertyOp16
 70
     1
102
RTVSPropertyOp17
 70
     1
102
RTVSPropertyOp18
 70
     1
102
RTVSPropertyOp19
 70
     1
102
RTVSPropertyOp20
 70
     1
102
RTVSPropertyOp21
 70
     1
102
RTVSPropertyOp22
 70
     1
102
RTVSPropertyOp23
 70
     1
102
RTVSPropertyOp24
 70
     1
102
RTVSPropertyOp25
 70
     1
102
RTVSPropertyOp26
 70
     1
102
RTVSPropertyOp27
 70
     1
  0
XRECORD
  5
290
102
{ACAD_REACTORS
330
28F
102
}
330
28F
100
AcDbXrecord
280
     1
102
RTVSPropertyOp0
 70
     1
102
RTVSPropertyOp1
 70
     1
102
RTVSPropertyOp2
 70
     1
102
RTVSPropertyOp3
 70
     1
102
RTVSPropertyOp4
 70
     1
102
RTVSPropertyOp5
 70
     1
102
RTVSPropertyOp6
 70
     1
102
RTVSPropertyOp7
 70
     1
102
RTVSPropertyOp8
 70
     1
102
RTVSPropertyOp9
 70
     1
102
RTVSPropertyOp10
 70
     1
102
RTVSPropertyOp11
 70
     1
102
RTVSPropertyOp12
 70
     1
102
RTVSPropertyOp13
 70
     1
102
RTVSPropertyOp14
 70
     1
102
RTVSPropertyOp15
 70
     1
102
RTVSPropertyOp16
 70
     1
102
RTVSPropertyOp17
 70
     1
102
RTVSPropertyOp18
 70
     1
102
RTVSPropertyOp19
 70
     1
102
RTVSPropertyOp20
 70
     1
102
RTVSPropertyOp21
 70
     1
102
RTVSPropertyOp22
 70
     1
102
RTVSPropertyOp23
 70
     1
102
RTVSPropertyOp24
 70
     1
102
RTVSPropertyOp25
 70
     1
102
RTVSPropertyOp26
 70
     1
102
RTVSPropertyOp27
 70
     1
  0
XRECORD
  5
284
102
{ACAD_REACTORS
330
283
102
}
330
283
100
AcDbXrecord
280
     1
102
RTVSPropertyOp0
 70
     1
102
RTVSPropertyOp1
 70
     1
102
RTVSPropertyOp2
 70
     1
102
RTVSPropertyOp3
 70
     1
102
RTVSPropertyOp4
 70
     1
102
RTVSPropertyOp5
 70
     1
102
RTVSPropertyOp6
 70
     1
102
RTVSPropertyOp7
 70
     1
102
RTVSPropertyOp8
 70
     1
102
RTVSPropertyOp9
 70
     1
102
RTVSPropertyOp10
 70
     1
102
RTVSPropertyOp11
 70
     1
102
RTVSPropertyOp12
 70
     1
102
RTVSPropertyOp13
 70
     1
102
RTVSPropertyOp14
 70
     1
102
RTVSPropertyOp15
 70
     1
102
RTVSPropertyOp16
 70
     1
102
RTVSPropertyOp17
 70
     1
102
RTVSPropertyOp18
 70
     1
102
RTVSPropertyOp19
 70
     1
102
RTVSPropertyOp20
 70
     1
102
RTVSPropertyOp21
 70
     1
102
RTVSPropertyOp22
 70
     1
102
RTVSPropertyOp23
 70
     1
102
RTVSPropertyOp24
 70
     1
102
RTVSPropertyOp25
 70
     1
102
RTVSPropertyOp26
 70
     1
102
RTVSPropertyOp27
 70
     1
  0
XRECORD
  5
286
102
{ACAD_REACTORS
330
285
102
}
330
285
100
AcDbXrecord
280
     1
102
RTVSPropertyOp0
 70
     1
102
RTVSPropertyOp1
 70
     1
102
RTVSPropertyOp2
 70
     1
102
RTVSPropertyOp3
 70
     1
102
RTVSPropertyOp4
 70
     1
102
RTVSPropertyOp5
 70
     1
102
RTVSPropertyOp6
 70
     1
102
RTVSPropertyOp7
 70
     1
102
RTVSPropertyOp8
 70
     1
102
RTVSPropertyOp9
 70
     1
102
RTVSPropertyOp10
 70
     1
102
RTVSPropertyOp11
 70
     1
102
RTVSPropertyOp12
 70
     1
102
RTVSPropertyOp13
 70
     1
102
RTVSPropertyOp14
 70
     1
102
RTVSPropertyOp15
 70
     1
102
RTVSPropertyOp16
 70
     1
102
RTVSPropertyOp17
 70
     1
102
RTVSPropertyOp18
 70
     1
102
RTVSPropertyOp19
 70
     1
102
RTVSPropertyOp20
 70
     1
102
RTVSPropertyOp21
 70
     1
102
RTVSPropertyOp22
 70
     1
102
RTVSPropertyOp23
 70
     1
102
RTVSPropertyOp24
 70
     1
102
RTVSPropertyOp25
 70
     1
102
RTVSPropertyOp26
 70
     1
102
RTVSPropertyOp27
 70
     1
  0
XRECORD
  5
28E
102
{ACAD_REACTORS
330
28D
102
}
330
28D
100
AcDbXrecord
280
     1
102
RTVSPropertyOp0
 70
     1
102
RTVSPropertyOp1
 70
     1
102
RTVSPropertyOp2
 70
     1
102
RTVSPropertyOp3
 70
     1
102
RTVSPropertyOp4
 70
     1
102
RTVSPropertyOp5
 70
     1
102
RTVSPropertyOp6
 70
     1
102
RTVSPropertyOp7
 70
     1
102
RTVSPropertyOp8
 70
     1
102
RTVSPropertyOp9
 70
     1
102
RTVSPropertyOp10
 70
     1
102
RTVSPropertyOp11
 70
     1
102
RTVSPropertyOp12
 70
     1
102
RTVSPropertyOp13
 70
     1
102
RTVSPropertyOp14
 70
     1
102
RTVSPropertyOp15
 70
     1
102
RTVSPropertyOp16
 70
     1
102
RTVSPropertyOp17
 70
     1
102
RTVSPropertyOp18
 70
     1
102
RTVSPropertyOp19
 70
     1
102
RTVSPropertyOp20
 70
     1
102
RTVSPropertyOp21
 70
     1
102
RTVSPropertyOp22
 70
     1
102
RTVSPropertyOp23
 70
     1
102
RTVSPropertyOp24
 70
     1
102
RTVSPropertyOp25
 70
     1
102
RTVSPropertyOp26
 70
     1
102
RTVSPropertyOp27
 70
     1
  0
XRECORD
  5
278
102
{ACAD_REACTORS
330
277
102
}
330
277
100
AcDbXrecord
280
     1
102
RTVSPropertyOp0
 70
     1
102
RTVSPropertyOp1
 70
     1
102
RTVSPropertyOp2
 70
     1
102
RTVSPropertyOp3
 70
     1
102
RTVSPropertyOp4
 70
     1
102
RTVSPropertyOp5
 70
     1
102
RTVSPropertyOp6
 70
     1
102
RTVSPropertyOp7
 70
     1
102
RTVSPropertyOp8
 70
     1
102
RTVSPropertyOp9
 70
     1
102
RTVSPropertyOp10
 70
     1
102
RTVSPropertyOp11
 70
     1
102
RTVSPropertyOp12
 70
     1
102
RTVSPropertyOp13
 70
     1
102
RTVSPropertyOp14
 70
     1
102
RTVSPropertyOp15
 70
     1
102
RTVSPropertyOp16
 70
     1
102
RTVSPropertyOp17
 70
     1
102
RTVSPropertyOp18
 70
     1
102
RTVSPropertyOp19
 70
     1
102
RTVSPropertyOp20
 70
     1
102
RTVSPropertyOp21
 70
     1
102
RTVSPropertyOp22
 70
     1
102
RTVSPropertyOp23
 70
     1
102
RTVSPropertyOp24
 70
     1
102
RTVSPropertyOp25
 70
     1
102
RTVSPropertyOp26
 70
     1
102
RTVSPropertyOp27
 70
     1
  0
XRECORD
  5
27A
102
{ACAD_REACTORS
330
279
102
}
330
279
100
AcDbXrecord
280
     1
102
RTVSPropertyOp0
 70
     1
102
RTVSPropertyOp1
 70
     1
102
RTVSPropertyOp2
 70
     1
102
RTVSPropertyOp3
 70
     1
102
RTVSPropertyOp4
 70
     1
102
RTVSPropertyOp5
 70
     1
102
RTVSPropertyOp6
 70
     1
102
RTVSPropertyOp7
 70
     1
102
RTVSPropertyOp8
 70
     1
102
RTVSPropertyOp9
 70
     1
102
RTVSPropertyOp10
 70
     1
102
RTVSPropertyOp11
 70
     1
102
RTVSPropertyOp12
 70
     1
102
RTVSPropertyOp13
 70
     1
102
RTVSPropertyOp14
 70
     1
102
RTVSPropertyOp15
 70
     1
102
RTVSPropertyOp16
 70
     1
102
RTVSPropertyOp17
 70
     1
102
RTVSPropertyOp18
 70
     1
102
RTVSPropertyOp19
 70
     1
102
RTVSPropertyOp20
 70
     1
102
RTVSPropertyOp21
 70
     1
102
RTVSPropertyOp22
 70
     1
102
RTVSPropertyOp23
 70
     1
102
RTVSPropertyOp24
 70
     1
102
RTVSPropertyOp25
 70
     1
102
RTVSPropertyOp26
 70
     1
102
RTVSPropertyOp27
 70
     1
  0
XRECORD
  5
27C
102
{ACAD_REACTORS
330
27B
102
}
330
27B
100
AcDbXrecord
280
     1
102
RTVSPropertyOp0
 70
     1
102
RTVSPropertyOp1
 70
     1
102
RTVSPropertyOp2
 70
     1
102
RTVSPropertyOp3
 70
     1
102
RTVSPropertyOp4
 70
     1
102
RTVSPropertyOp5
 70
     1
102
RTVSPropertyOp6
 70
     1
102
RTVSPropertyOp7
 70
     1
102
RTVSPropertyOp8
 70
     1
102
RTVSPropertyOp9
 70
     1
102
RTVSPropertyOp10
 70
     1
102
RTVSPropertyOp11
 70
     1
102
RTVSPropertyOp12
 70
     1
102
RTVSPropertyOp13
 70
     1
102
RTVSPropertyOp14
 70
     1
102
RTVSPropertyOp15
 70
     1
102
RTVSPropertyOp16
 70
     1
102
RTVSPropertyOp17
 70
     1
102
RTVSPropertyOp18
 70
     1
102
RTVSPropertyOp19
 70
     1
102
RTVSPropertyOp20
 70
     1
102
RTVSPropertyOp21
 70
     1
102
RTVSPropertyOp22
 70
     1
102
RTVSPropertyOp23
 70
     1
102
RTVSPropertyOp24
 70
     1
102
RTVSPropertyOp25
 70
     1
102
RTVSPropertyOp26
 70
     1
102
RTVSPropertyOp27
 70
     1
  0
XRECORD
  5
27E
102
{ACAD_REACTORS
330
27D
102
}
330
27D
100
AcDbXrecord
280
     1
102
RTVSPropertyOp0
 70
     1
102
RTVSPropertyOp1
 70
     1
102
RTVSPropertyOp2
 70
     1
102
RTVSPropertyOp3
 70
     1
102
RTVSPropertyOp4
 70
     1
102
RTVSPropertyOp5
 70
     1
102
RTVSPropertyOp6
 70
     1
102
RTVSPropertyOp7
 70
     1
102
RTVSPropertyOp8
 70
     1
102
RTVSPropertyOp9
 70
     1
102
RTVSPropertyOp10
 70
     1
102
RTVSPropertyOp11
 70
     1
102
RTVSPropertyOp12
 70
     1
102
RTVSPropertyOp13
 70
     1
102
RTVSPropertyOp14
 70
     1
102
RTVSPropertyOp15
 70
     1
102
RTVSPropertyOp16
 70
     1
102
RTVSPropertyOp17
 70
     1
102
RTVSPropertyOp18
 70
     1
102
RTVSPropertyOp19
 70
     1
102
RTVSPropertyOp20
 70
     1
102
RTVSPropertyOp21
 70
     1
102
RTVSPropertyOp22
 70
     1
102
RTVSPropertyOp23
 70
     1
102
RTVSPropertyOp24
 70
     1
102
RTVSPropertyOp25
 70
     1
102
RTVSPropertyOp26
 70
     1
102
RTVSPropertyOp27
 70
     1
  0
XRECORD
  5
28C
102
{ACAD_REACTORS
330
28B
102
}
330
28B
100
AcDbXrecord
280
     1
102
RTVSPropertyOp0
 70
     1
102
RTVSPropertyOp1
 70
     1
102
RTVSPropertyOp2
 70
     1
102
RTVSPropertyOp3
 70
     1
102
RTVSPropertyOp4
 70
     1
102
RTVSPropertyOp5
 70
     1
102
RTVSPropertyOp6
 70
     1
102
RTVSPropertyOp7
 70
     1
102
RTVSPropertyOp8
 70
     1
102
RTVSPropertyOp9
 70
     1
102
RTVSPropertyOp10
 70
     1
102
RTVSPropertyOp11
 70
     1
102
RTVSPropertyOp12
 70
     1
102
RTVSPropertyOp13
 70
     1
102
RTVSPropertyOp14
 70
     1
102
RTVSPropertyOp15
 70
     1
102
RTVSPropertyOp16
 70
     1
102
RTVSPropertyOp17
 70
     1
102
RTVSPropertyOp18
 70
     1
102
RTVSPropertyOp19
 70
     1
102
RTVSPropertyOp20
 70
     1
102
RTVSPropertyOp21
 70
     1
102
RTVSPropertyOp22
 70
     1
102
RTVSPropertyOp23
 70
     1
102
RTVSPropertyOp24
 70
     1
102
RTVSPropertyOp25
 70
     1
102
RTVSPropertyOp26
 70
     1
102
RTVSPropertyOp27
 70
     1
  0
XRECORD
  5
274
102
{ACAD_REACTORS
330
273
102
}
330
273
100
AcDbXrecord
280
     1
102
RTVSPropertyOp0
 70
     1
102
RTVSPropertyOp1
 70
     1
102
RTVSPropertyOp2
 70
     1
102
RTVSPropertyOp3
 70
     1
102
RTVSPropertyOp4
 70
     1
102
RTVSPropertyOp5
 70
     1
102
RTVSPropertyOp6
 70
     1
102
RTVSPropertyOp7
 70
     1
102
RTVSPropertyOp8
 70
     1
102
RTVSPropertyOp9
 70
     1
102
RTVSPropertyOp10
 70
     1
102
RTVSPropertyOp11
 70
     1
102
RTVSPropertyOp12
 70
     1
102
RTVSPropertyOp13
 70
     1
102
RTVSPropertyOp14
 70
     1
102
RTVSPropertyOp15
 70
     1
102
RTVSPropertyOp16
 70
     1
102
RTVSPropertyOp17
 70
     1
102
RTVSPropertyOp18
 70
     1
102
RTVSPropertyOp19
 70
     1
102
RTVSPropertyOp20
 70
     1
102
RTVSPropertyOp21
 70
     1
102
RTVSPropertyOp22
 70
     1
102
RTVSPropertyOp23
 70
     1
102
RTVSPropertyOp24
 70
     1
102
RTVSPropertyOp25
 70
     1
102
RTVSPropertyOp26
 70
     1
102
RTVSPropertyOp27
 70
     1
  0
XRECORD
  5
28A
102
{ACAD_REACTORS
330
289
102
}
330
289
100
AcDbXrecord
280
     1
102
RTVSPropertyOp0
 70
     1
102
RTVSPropertyOp1
 70
     1
102
RTVSPropertyOp2
 70
     1
102
RTVSPropertyOp3
 70
     1
102
RTVSPropertyOp4
 70
     1
102
RTVSPropertyOp5
 70
     1
102
RTVSPropertyOp6
 70
     1
102
RTVSPropertyOp7
 70
     1
102
RTVSPropertyOp8
 70
     1
102
RTVSPropertyOp9
 70
     1
102
RTVSPropertyOp10
 70
     1
102
RTVSPropertyOp11
 70
     1
102
RTVSPropertyOp12
 70
     1
102
RTVSPropertyOp13
 70
     1
102
RTVSPropertyOp14
 70
     1
102
RTVSPropertyOp15
 70
     1
102
RTVSPropertyOp16
 70
     1
102
RTVSPropertyOp17
 70
     1
102
RTVSPropertyOp18
 70
     1
102
RTVSPropertyOp19
 70
     1
102
RTVSPropertyOp20
 70
     1
102
RTVSPropertyOp21
 70
     1
102
RTVSPropertyOp22
 70
     1
102
RTVSPropertyOp23
 70
     1
102
RTVSPropertyOp24
 70
     1
102
RTVSPropertyOp25
 70
     1
102
RTVSPropertyOp26
 70
     1
102
RTVSPropertyOp27
 70
     1
  0
ENDSEC
  0
EOF
