  0
SECTION
  2
HEADER
  9
$ACADVER
  1
AC1018
  9
$ACADMAINTVER
 70
   104
  9
$DWGCODEPAGE
  3
ANSI_936
  9
$LASTSAVEDBY
  1
chaxiu.zhu
  9
$INSBASE
 10
0.0
 20
0.0
 30
0.0
  9
$EXTMIN
 10
1005.223888274015
 20
-2978.323104679487
 30
-0.00000001
  9
$EXTMAX
 10
2034.621801160581
 20
-1912.95984227041
 30
0.00000001
  9
$LIMMIN
 10
0.0
 20
0.0
  9
$LIMMAX
 10
420.0
 20
297.0
  9
$ORTHOMODE
 70
     1
  9
$REGENMODE
 70
     1
  9
$FILLMODE
 70
     1
  9
$QTEXTMODE
 70
     0
  9
$MIRRTEXT
 70
     0
  9
$LTSCALE
 40
1.0
  9
$ATTMODE
 70
     1
  9
$TEXTSIZE
 40
2.5
  9
$TRACEWID
 40
1.0
  9
$TEXTSTYLE
  7
Standard
  9
$CLAYER
  8
轮廓线.
  9
$CELTYPE
  6
ByLayer
  9
$CECOLOR
 62
   256
  9
$CELTSCALE
 40
1.0
  9
$DISPSILH
 70
     0
  9
$DIMSCALE
 40
9.0
  9
$DIMASZ
 40
1.5
  9
$DIMEXO
 40
0.625
  9
$DIMDLI
 40
3.75
  9
$DIMRND
 40
0.0
  9
$DIMDLE
 40
0.0
  9
$DIMEXE
 40
0.5
  9
$DIMTP
 40
0.0
  9
$DIMTM
 40
0.0
  9
$DIMTXT
 40
2.5
  9
$DIMCEN
 40
2.5
  9
$DIMTSZ
 40
0.0
  9
$DIMTOL
 70
     0
  9
$DIMLIM
 70
     0
  9
$DIMTIH
 70
     0
  9
$DIMTOH
 70
     1
  9
$DIMSE1
 70
     0
  9
$DIMSE2
 70
     0
  9
$DIMTAD
 70
     1
  9
$DIMZIN
 70
     8
  9
$DIMBLK
  1

  9
$DIMASO
 70
     1
  9
$DIMSHO
 70
     1
  9
$DIMPOST
  1

  9
$DIMAPOST
  1

  9
$DIMALT
 70
     0
  9
$DIMALTD
 70
     3
  9
$DIMALTF
 40
0.03937007874016
  9
$DIMLFAC
 40
1.0
  9
$DIMTOFL
 70
     1
  9
$DIMTVP
 40
0.0
  9
$DIMTIX
 70
     0
  9
$DIMSOXD
 70
     0
  9
$DIMSAH
 70
     0
  9
$DIMBLK1
  1

  9
$DIMBLK2
  1

  9
$DIMSTYLE
  2
ISO-25
  9
$DIMCLRD
 70
     0
  9
$DIMCLRE
 70
     0
  9
$DIMCLRT
 70
     0
  9
$DIMTFAC
 40
1.0
  9
$DIMGAP
 40
0.3
  9
$DIMJUST
 70
     0
  9
$DIMSD1
 70
     0
  9
$DIMSD2
 70
     0
  9
$DIMTOLJ
 70
     0
  9
$DIMTZIN
 70
     8
  9
$DIMALTZ
 70
     0
  9
$DIMALTTZ
 70
     0
  9
$DIMUPT
 70
     0
  9
$DIMDEC
 70
     0
  9
$DIMTDEC
 70
     0
  9
$DIMALTU
 70
     2
  9
$DIMALTTD
 70
     3
  9
$DIMTXSTY
  7
Standard
  9
$DIMAUNIT
 70
     0
  9
$DIMADEC
 70
     0
  9
$DIMALTRND
 40
0.0
  9
$DIMAZIN
 70
     0
  9
$DIMDSEP
 70
    46
  9
$DIMATFIT
 70
     3
  9
$DIMFRAC
 70
     0
  9
$DIMLDRBLK
  1

  9
$DIMLUNIT
 70
     2
  9
$DIMLWD
 70
    -2
  9
$DIMLWE
 70
    -2
  9
$DIMTMOVE
 70
     0
  9
$LUNITS
 70
     2
  9
$LUPREC
 70
     4
  9
$SKETCHINC
 40
1.0
  9
$FILLETRAD
 40
8.0
  9
$AUNITS
 70
     0
  9
$AUPREC
 70
     0
  9
$MENU
  1
.
  9
$ELEVATION
 40
0.0
  9
$PELEVATION
 40
0.0
  9
$THICKNESS
 40
0.0
  9
$LIMCHECK
 70
     0
  9
$CHAMFERA
 40
0.0
  9
$CHAMFERB
 40
0.0
  9
$CHAMFERC
 40
0.0
  9
$CHAMFERD
 40
0.0
  9
$SKPOLY
 70
     0
  9
$TDCREATE
 40
2455843.370532037
  9
$TDUCREATE
 40
2455843.037198704
  9
$TDUPDATE
 40
2458858.657388588
  9
$TDUUPDATE
 40
2458858.324055255
  9
$TDINDWG
 40
2.3446292130
  9
$TDUSRTIMER
 40
2.3446290394
  9
$USRTIMER
 70
     1
  9
$ANGBASE
 50
0.0
  9
$ANGDIR
 70
     0
  9
$PDMODE
 70
     0
  9
$PDSIZE
 40
0.0
  9
$PLINEWID
 40
0.0
  9
$SPLFRAME
 70
     0
  9
$SPLINETYPE
 70
     6
  9
$SPLINESEGS
 70
     8
  9
$HANDSEED
  5
15C
  9
$SURFTAB1
 70
     6
  9
$SURFTAB2
 70
     6
  9
$SURFTYPE
 70
     6
  9
$SURFU
 70
     6
  9
$SURFV
 70
     6
  9
$UCSBASE
  2

  9
$UCSNAME
  2

  9
$UCSORG
 10
0.0
 20
0.0
 30
0.0
  9
$UCSXDIR
 10
1.0
 20
0.0
 30
0.0
  9
$UCSYDIR
 10
0.0
 20
1.0
 30
0.0
  9
$UCSORTHOREF
  2

  9
$UCSORTHOVIEW
 70
     0
  9
$UCSORGTOP
 10
0.0
 20
0.0
 30
0.0
  9
$UCSORGBOTTOM
 10
0.0
 20
0.0
 30
0.0
  9
$UCSORGLEFT
 10
0.0
 20
0.0
 30
0.0
  9
$UCSORGRIGHT
 10
0.0
 20
0.0
 30
0.0
  9
$UCSORGFRONT
 10
0.0
 20
0.0
 30
0.0
  9
$UCSORGBACK
 10
0.0
 20
0.0
 30
0.0
  9
$PUCSBASE
  2

  9
$PUCSNAME
  2

  9
$PUCSORG
 10
0.0
 20
0.0
 30
0.0
  9
$PUCSXDIR
 10
1.0
 20
0.0
 30
0.0
  9
$PUCSYDIR
 10
0.0
 20
1.0
 30
0.0
  9
$PUCSORTHOREF
  2

  9
$PUCSORTHOVIEW
 70
     0
  9
$PUCSORGTOP
 10
0.0
 20
0.0
 30
0.0
  9
$PUCSORGBOTTOM
 10
0.0
 20
0.0
 30
0.0
  9
$PUCSORGLEFT
 10
0.0
 20
0.0
 30
0.0
  9
$PUCSORGRIGHT
 10
0.0
 20
0.0
 30
0.0
  9
$PUCSORGFRONT
 10
0.0
 20
0.0
 30
0.0
  9
$PUCSORGBACK
 10
0.0
 20
0.0
 30
0.0
  9
$USERI1
 70
     0
  9
$USERI2
 70
     0
  9
$USERI3
 70
     0
  9
$USERI4
 70
     0
  9
$USERI5
 70
     0
  9
$USERR1
 40
0.0
  9
$USERR2
 40
0.0
  9
$USERR3
 40
0.0
  9
$USERR4
 40
0.0
  9
$USERR5
 40
2.5
  9
$WORLDVIEW
 70
     1
  9
$SHADEDGE
 70
     3
  9
$SHADEDIF
 70
    70
  9
$TILEMODE
 70
     1
  9
$MAXACTVP
 70
    64
  9
$PINSBASE
 10
0.0
 20
0.0
 30
0.0
  9
$PLIMCHECK
 70
     0
  9
$PEXTMIN
 10
0.0
 20
0.0
 30
0.0
  9
$PEXTMAX
 10
0.0
 20
0.0
 30
0.0
  9
$PLIMMIN
 10
0.0
 20
0.0
  9
$PLIMMAX
 10
12.0
 20
9.0
  9
$UNITMODE
 70
     0
  9
$VISRETAIN
 70
     1
  9
$PLINEGEN
 70
     0
  9
$PSLTSCALE
 70
     1
  9
$TREEDEPTH
 70
  3020
  9
$CMLSTYLE
  2
Standard
  9
$CMLJUST
 70
     0
  9
$CMLSCALE
 40
20.0
  9
$PROXYGRAPHICS
 70
     1
  9
$MEASUREMENT
 70
     1
  9
$CELWEIGHT
370
    -1
  9
$ENDCAPS
280
     0
  9
$JOINSTYLE
280
     0
  9
$LWDISPLAY
290
     0
  9
$INSUNITS
 70
     4
  9
$HYPERLINKBASE
  1

  9
$STYLESHEET
  1

  9
$XEDIT
290
     1
  9
$CEPSNTYPE
380
     0
  9
$PSTYLEMODE
290
     1
  9
$FINGERPRINTGUID
  2
{4663FB0B-863D-4A5C-9C9E-31D6F9379CDB}
  9
$VERSIONGUID
  2
{90096E21-13B7-4160-B59B-218A4D2D5BEC}
  9
$EXTNAMES
290
     1
  9
$PSVPSCALE
 40
0.0
  9
$OLESTARTUP
290
     0
  9
$SORTENTS
280
   127
  9
$INDEXCTL
280
     0
  9
$HIDETEXT
280
     1
  9
$XCLIPFRAME
290
     0
  9
$HALOGAP
280
     0
  9
$OBSCOLOR
 70
   257
  9
$OBSLTYPE
280
     0
  9
$INTERSECTIONDISPLAY
280
     0
  9
$INTERSECTIONCOLOR
 70
   257
  9
$DIMASSOC
280
     2
  9
$PROJECTNAME
  1

  0
ENDSEC
  0
SECTION
  2
CLASSES
  0
CLASS
  1
ACDBDICTIONARYWDFLT
  2
AcDbDictionaryWithDefault
  3
ObjectDBX Classes
 90
        0
 91
        1
280
     0
281
     0
  0
CLASS
  1
DICTIONARYVAR
  2
AcDbDictionaryVar
  3
ObjectDBX Classes
 90
        0
 91
        2
280
     0
281
     0
  0
CLASS
  1
TABLESTYLE
  2
AcDbTableStyle
  3
ObjectDBX Classes
 90
     4095
 91
        1
280
     0
281
     0
  0
CLASS
  1
MATERIAL
  2
AcDbMaterial
  3
ObjectDBX Classes
 90
        0
 91
        3
280
     0
281
     0
  0
CLASS
  1
VISUALSTYLE
  2
AcDbVisualStyle
  3
ObjectDBX Classes
 90
     4095
 91
       16
280
     0
281
     0
  0
CLASS
  1
VLO-VL
  2
vlo_VL
  3
VL|AutoLISP based application
 90
        0
 91
        0
280
     0
281
     0
  0
CLASS
  1
SORTENTSTABLE
  2
AcDbSortentsTable
  3
ObjectDBX Classes
 90
        0
 91
        1
280
     0
281
     0
  0
CLASS
  1
DIMASSOC
  2
AcDbDimAssoc
  3
"ZcDbDimAssoc|Product Desc:     ZwDim ZRX App For Dimension|Company:          ZwSoft.|WEB Address:      www.zwsoft.com"
 90
        0
 91
        0
280
     0
281
     0
  0
CLASS
  1
SCALE
  2
AcDbScale
  3
ObjectDBX Classes
 90
     1153
 91
       33
280
     0
281
     0
  0
CLASS
  1
MLEADERSTYLE
  2
AcDbMLeaderStyle
  3
ACDB_MLEADERSTYLE_CLASS
 90
     4095
 91
        1
280
     0
281
     0
  0
CLASS
  1
CELLSTYLEMAP
  2
AcDbCellStyleMap
  3
ObjectDBX Classes
 90
     1152
 91
        1
280
     0
281
     0
  0
ENDSEC
  0
SECTION
  2
TABLES
  0
TABLE
  2
VPORT
  5
23
102
{ACAD_XDICTIONARY
360
27
102
}
330
0
100
AcDbSymbolTable
 70
     2
  0
VPORT
  5
135
330
23
100
AcDbSymbolTableRecord
100
AcDbViewportTableRecord
  2
*Active
 70
     0
 10
0.0
 20
0.0
 11
1.0
 21
1.0
 12
2430.979697056956
 22
-2647.889737230328
 13
0.0
 23
0.0
 14
10.0
 24
10.0
 15
10.0
 25
10.0
 16
0.0
 26
0.0
 36
1.0
 17
0.0
 27
0.0
 37
0.0
 40
2350.201579229631
 41
1.857503152585119
 42
50.0
 43
0.0
 44
0.0
 50
0.0
 51
0.0
 71
     0
 72
 10000
 73
     1
 74
     3
 75
     0
 76
     0
 77
     0
 78
     0
281
     0
 65
     1
110
0.0
120
0.0
130
0.0
111
1.0
121
0.0
131
0.0
112
0.0
122
1.0
132
0.0
 79
     0
146
0.0
  0
ENDTAB
  0
TABLE
  2
LTYPE
  5
1E
330
0
100
AcDbSymbolTable
 70
     1
  0
LTYPE
  5
1F
330
1E
100
AcDbSymbolTableRecord
100
AcDbLinetypeTableRecord
  2
ByBlock
 70
     0
  3

 72
    65
 73
     0
 40
0.0
  0
LTYPE
  5
20
330
1E
100
AcDbSymbolTableRecord
100
AcDbLinetypeTableRecord
  2
ByLayer
 70
     0
  3

 72
    65
 73
     0
 40
0.0
  0
LTYPE
  5
C
330
1E
100
AcDbSymbolTableRecord
100
AcDbLinetypeTableRecord
  2
Continuous
 70
     0
  3
Solid line
 72
    65
 73
     0
 40
0.0
  0
ENDTAB
  0
TABLE
  2
LAYER
  5
15
102
{ACAD_XDICTIONARY
360
16
102
}
330
0
100
AcDbSymbolTable
 70
     4
  0
LAYER
  5
6
330
15
100
AcDbSymbolTableRecord
100
AcDbLayerTableRecord
  2
0
 70
     0
 62
     7
  6
Continuous
370
    -3
390
7
  0
LAYER
  5
33
330
15
100
AcDbSymbolTableRecord
100
AcDbLayerTableRecord
  2
轮廓线.
 70
     0
 62
   255
  6
Continuous
370
    30
390
7
1001
AcAecLayerStandard
1000

1000

  0
LAYER
  5
F0
330
15
100
AcDbSymbolTableRecord
100
AcDbLayerTableRecord
  2
尺寸标注
 70
     0
 62
    80
  6
Continuous
370
    18
390
7
1001
AcAecLayerStandard
1000

1000

  0
LAYER
  5
71
330
15
100
AcDbSymbolTableRecord
100
AcDbLayerTableRecord
  2
02___PRT_ALL_AXES
 70
     0
 62
     7
  6
Continuous
370
    -3
390
7
  0
ENDTAB
  0
TABLE
  2
STYLE
  5
1B
330
0
100
AcDbSymbolTable
 70
     1
  0
STYLE
  5
1C
330
1B
100
AcDbSymbolTableRecord
100
AcDbTextStyleTableRecord
  2
Standard
 70
     0
 40
0.0
 41
1.0
 50
0.0
 71
     0
 42
2.5
  3

  4

1001
ACAD
1000
SimSun
1071
    34306
  0
ENDTAB
  0
TABLE
  2
VIEW
  5
21
330
0
100
AcDbSymbolTable
 70
     0
  0
ENDTAB
  0
TABLE
  2
UCS
  5
22
330
0
100
AcDbSymbolTable
 70
     0
  0
ENDTAB
  0
TABLE
  2
APPID
  5
28
330
0
100
AcDbSymbolTable
 70
     4
  0
APPID
  5
1A
330
28
100
AcDbSymbolTableRecord
100
AcDbRegAppTableRecord
  2
ACAD
 70
     0
  0
APPID
  5
10
330
28
100
AcDbSymbolTableRecord
100
AcDbRegAppTableRecord
  2
ACAD_PSEXT
 70
     0
  0
APPID
  5
34
330
28
100
AcDbSymbolTableRecord
100
AcDbRegAppTableRecord
  2
AcAecLayerStandard
 70
     0
  0
APPID
  5
15B
330
28
100
AcDbSymbolTableRecord
100
AcDbRegAppTableRecord
  2
ACAD_MLEADERVER
 70
     0
  0
ENDTAB
  0
TABLE
  2
DIMSTYLE
  5
29
330
0
100
AcDbSymbolTable
 70
     1
100
AcDbDimStyleTable
 71
     1
340
2A
  0
DIMSTYLE
105
2A
330
29
100
AcDbSymbolTableRecord
100
AcDbDimStyleTableRecord
  2
ISO-25
 70
     0
 40
9.0
 41
1.5
 42
0.625
 43
3.75
 44
0.5
 73
     0
 77
     1
 78
     8
140
2.5
141
2.5
143
0.03937007874016
147
0.3
171
     3
172
     1
271
     0
272
     0
274
     3
283
     0
284
     8
340
1C
  0
ENDTAB
  0
TABLE
  2
BLOCK_RECORD
  5
1
330
0
100
AcDbSymbolTable
 70
     0
  0
BLOCK_RECORD
  5
2
102
{ACAD_XDICTIONARY
360
3
102
}
330
1
100
AcDbSymbolTableRecord
100
AcDbBlockTableRecord
  2
*Model_Space
340
E
  0
BLOCK_RECORD
  5
11
330
1
100
AcDbSymbolTableRecord
100
AcDbBlockTableRecord
  2
*Paper_Space
340
14
  0
ENDTAB
  0
ENDSEC
  0
SECTION
  2
BLOCKS
  0
BLOCK
  5
5
330
2
100
AcDbEntity
  8
0
100
AcDbBlockBegin
  2
*Model_Space
 70
     0
 10
0.0
 20
0.0
 30
0.0
  3
*Model_Space
  1

  0
ENDBLK
  5
D
330
2
100
AcDbEntity
  8
0
100
AcDbBlockEnd
  0
BLOCK
  5
12
330
11
100
AcDbEntity
 67
     1
  8
0
100
AcDbBlockBegin
  2
*Paper_Space
 70
     0
 10
0.0
 20
0.0
 30
0.0
  3
*Paper_Space
  1

  0
ENDBLK
  5
13
330
11
100
AcDbEntity
 67
     1
  8
0
100
AcDbBlockEnd
  0
ENDSEC
  0
SECTION
  2
ENTITIES
  0
LINE
  5
39
330
2
100
AcDbEntity
  8
0
  6
Continuous
 62
     7
100
AcDbLine
 10
1005.223888284015
 20
-2348.328204991167
 30
0.0
 11
1005.223888284015
 21
-2342.328204992207
 31
0.0
  0
LINE
  5
3A
330
2
100
AcDbEntity
  8
0
  6
Continuous
 62
     7
100
AcDbLine
 10
1294.640906014735
 20
-2513.328204993047
 30
0.0
 11
1235.805544153055
 21
-2513.328204993047
 31
0.0
  0
LINE
  5
3B
330
2
100
AcDbEntity
  8
0
  6
Continuous
 62
     7
100
AcDbLine
 10
1299.623205869775
 20
-2508.763984085947
 30
0.0
 11
1230.824570696175
 21
-2508.763984085947
 31
0.0
  0
LINE
  5
3C
330
2
100
AcDbEntity
  8
0
  6
Continuous
 62
     7
100
AcDbLine
 10
1301.932400705275
 20
-2482.369766341087
 30
0.0
 11
1288.093493399655
 21
-2482.373810094747
 31
0.0
  0
LINE
  5
3D
330
2
100
AcDbEntity
  8
0
  6
Continuous
 62
     7
100
AcDbLine
 10
1242.354283453315
 20
-2482.373808321827
 30
0.0
 11
1228.515375512695
 21
-2482.369762363447
 31
0.0
  0
LINE
  5
3E
330
2
100
AcDbEntity
  8
0
  6
Continuous
 62
     7
100
AcDbLine
 10
1228.515375512695
 20
-2482.369762363447
 30
0.0
 11
1230.824570701255
 21
-2508.763984136747
 31
0.0
  0
LINE
  5
3F
330
2
100
AcDbEntity
  8
0
  6
Continuous
 62
     7
100
AcDbLine
 10
1301.932400705275
 20
-2482.369766341087
 30
0.0
 11
1299.623205864695
 21
-2508.763984136747
 31
0.0
  0
LINE
  5
40
330
2
100
AcDbEntity
  8
0
  6
Continuous
 62
     7
100
AcDbLine
 10
1008.223888283495
 20
-2351.328204993187
 30
0.0
 11
1522.223888282455
 21
-2351.328204993187
 31
0.0
  0
LINE
  5
41
330
2
100
AcDbEntity
  8
0
  6
Continuous
 62
     7
100
AcDbLine
 10
1011.223888282975
 20
-2336.328204993247
 30
0.0
 11
1519.223888282975
 21
-2336.328204993247
 31
0.0
  0
LINE
  5
42
330
2
100
AcDbEntity
  8
0
  6
Continuous
 62
     7
100
AcDbLine
 10
1525.223888284475
 20
-2348.328204991167
 30
0.0
 11
1525.223888284475
 21
-2342.328204992207
 31
0.0
  0
LINE
  5
43
330
2
100
AcDbEntity
  8
0
  6
Continuous
 62
     7
100
AcDbLine
 10
1664.62180114952
 20
-2336.328204993247
 30
0.0
 11
2028.62180115162
 21
-2336.328204993247
 31
0.0
  0
LINE
  5
44
330
2
100
AcDbEntity
  8
0
  6
Continuous
 62
     7
100
AcDbLine
 10
1005.223888284015
 20
-2608.323104670967
 30
0.0
 11
1005.223888284015
 21
-2972.323104670527
 31
0.0
  0
LINE
  5
45
330
2
100
AcDbEntity
  8
0
  6
Continuous
 62
     7
100
AcDbLine
 10
1011.223888282975
 20
-2978.323104672027
 30
0.0
 11
1011.223888227095
 21
-2602.323104672007
 31
0.0
  0
LINE
  5
46
330
2
100
AcDbEntity
  8
0
  6
Continuous
 62
     7
100
AcDbLine
 10
1038.878753237295
 20
-2929.774504545647
 30
0.0
 11
1038.878753237295
 21
-2650.526528432607
 31
0.0
  0
LINE
  5
47
330
2
100
AcDbEntity
  8
0
  6
Continuous
 62
     7
100
AcDbLine
 10
1044.838903925555
 20
-2929.774459684167
 30
0.0
 11
1044.838903925555
 21
-2650.525129867967
 31
0.0
  0
LINE
  5
48
330
2
100
AcDbEntity
  8
0
  6
Continuous
 62
     7
100
AcDbLine
 10
1054.899954219975
 20
-2634.594660425947
 30
0.0
 11
1054.899954219975
 21
-2640.588230800987
 31
0.0
  0
LINE
  5
49
330
2
100
AcDbEntity
  8
0
  6
Continuous
 62
     7
100
AcDbLine
 10
1011.223888282975
 20
-2978.323104672027
 30
0.0
 11
1519.223888282975
 21
-2978.323104672027
 31
0.0
  0
LINE
  5
4A
330
2
100
AcDbEntity
  8
0
  6
Continuous
 62
     7
100
AcDbLine
 10
1005.223888284015
 20
-2972.323104728947
 30
0.0
 11
1525.223888284475
 21
-2972.323104670527
 31
0.0
  0
LINE
  5
4B
330
2
100
AcDbEntity
  8
0
  6
Continuous
 62
     7
100
AcDbLine
 10
1475.675288156575
 20
-2945.668239717727
 30
0.0
 11
1054.772488409375
 21
-2945.668239717727
 31
0.0
  0
LINE
  5
4C
330
2
100
AcDbEntity
  8
0
  6
Continuous
 62
     7
100
AcDbLine
 10
1475.675243295095
 20
-2939.708089029467
 30
0.0
 11
1054.771153108515
 21
-2939.708089029467
 31
0.0
  0
LINE
  5
4D
330
2
100
AcDbEntity
  8
0
  6
Continuous
 62
     7
100
AcDbLine
 10
1491.569023328655
 20
-2929.774504545647
 30
0.0
 11
1485.608872640395
 21
-2929.774504604067
 31
0.0
  0
LINE
  5
4E
330
2
100
AcDbEntity
  8
0
  6
Continuous
 62
     7
100
AcDbLine
 10
1038.878753237295
 20
-2929.774504545647
 30
0.0
 11
1044.838903925555
 21
-2929.774504545647
 31
0.0
  0
LINE
  5
4F
330
2
100
AcDbEntity
  8
0
  6
Continuous
 62
     7
100
AcDbLine
 10
1491.569023328655
 20
-2650.526528432607
 30
0.0
 11
1485.608872640395
 21
-2650.526528432607
 31
0.0
  0
LINE
  5
50
330
2
100
AcDbEntity
  8
0
  6
Continuous
 62
     7
100
AcDbLine
 10
1038.878753237295
 20
-2650.526528432607
 30
0.0
 11
1044.838903925555
 21
-2650.526528364027
 31
0.0
  0
LINE
  5
51
330
2
100
AcDbEntity
  8
0
  6
Continuous
 62
     7
100
AcDbLine
 10
1054.900038276195
 20
-2640.588230800987
 30
0.0
 11
1475.549123996915
 21
-2640.588230800987
 31
0.0
  0
LINE
  5
52
330
2
100
AcDbEntity
  8
0
  6
Continuous
 62
     7
100
AcDbLine
 10
1054.899954219975
 20
-2634.594660425947
 30
0.0
 11
1475.547822345975
 21
-2634.594660425947
 31
0.0
  0
LINE
  5
53
330
2
100
AcDbEntity
  8
0
  6
Continuous
 62
     7
100
AcDbLine
 10
1005.223888284015
 20
-2608.323104670967
 30
0.0
 11
1525.223888284475
 21
-2608.323104615087
 31
0.0
  0
LINE
  5
54
330
2
100
AcDbEntity
  8
0
  6
Continuous
 62
     7
100
AcDbLine
 10
1519.223888282975
 20
-2602.323104672007
 30
0.0
 11
1011.223888282975
 21
-2602.323104672007
 31
0.0
  0
LINE
  5
55
330
2
100
AcDbEntity
  8
0
  6
Continuous
 62
     7
100
AcDbLine
 10
1475.547822345975
 20
-2634.594660425947
 30
0.0
 11
1475.547822404395
 21
-2640.588230800987
 31
0.0
  0
LINE
  5
56
330
2
100
AcDbEntity
  8
0
  6
Continuous
 62
     7
100
AcDbLine
 10
1485.608872640395
 20
-2650.526632018887
 30
0.0
 11
1485.608872640395
 21
-2929.775839846507
 31
0.0
  0
LINE
  5
57
330
2
100
AcDbEntity
  8
0
  6
Continuous
 62
     7
100
AcDbLine
 10
1491.569023328655
 20
-2650.526528432607
 30
0.0
 11
1491.569023328655
 21
-2929.774504545647
 31
0.0
  0
LINE
  5
58
330
2
100
AcDbEntity
  8
0
  6
Continuous
 62
     7
100
AcDbLine
 10
1519.223888338855
 20
-2978.323104672027
 30
0.0
 11
1519.223888282975
 21
-2602.323104672007
 31
0.0
  0
LINE
  5
59
330
2
100
AcDbEntity
  8
0
  6
Continuous
 62
     7
100
AcDbLine
 10
1525.223888284475
 20
-2972.323104670527
 30
0.0
 11
1525.223888284475
 21
-2608.323104670967
 31
0.0
  0
ARC
  5
5A
330
2
100
AcDbEntity
  8
0
  6
Continuous
 62
     7
100
AcDbCircle
 10
1026.523085642355
 20
-2357.328204992147
 30
0.0
 40
7.99978628894
100
AcDbArc
 50
6.607532225500137
 51
48.67492471589919
  0
ARC
  5
5B
330
2
100
AcDbEntity
  8
0
  6
Continuous
 62
     7
100
AcDbCircle
 10
1011.223888282975
 20
-2342.328204992207
 30
0.0
 40
5.999999998959999
100
AcDbArc
 50
90.0
 51
180.0
  0
ARC
  5
5C
330
2
100
AcDbEntity
  8
0
  6
Continuous
 62
     7
100
AcDbCircle
 10
1519.223888282975
 20
-2342.328204992207
 30
0.0
 40
5.999999998959999
100
AcDbArc
 50
0.0
 51
90.0
  0
ARC
  5
5D
330
2
100
AcDbEntity
  8
0
  6
Continuous
 62
     7
100
AcDbCircle
 10
1235.805544153055
 20
-2508.328204993067
 30
0.0
 40
4.999999999979999
100
AcDbArc
 50
185.0000049659007
 51
270.0
  0
ARC
  5
5E
330
2
100
AcDbEntity
  8
0
  6
Continuous
 62
     7
100
AcDbCircle
 10
1294.642232412895
 20
-2508.328204993067
 30
0.0
 40
4.999999999979999
100
AcDbArc
 50
270.0
 51
354.9999950340993
  0
ARC
  5
5F
330
2
100
AcDbEntity
  8
0
  6
Continuous
 62
     7
100
AcDbCircle
 10
1223.534402553655
 20
-2482.805541082947
 30
0.0
 40
4.99999993648
100
AcDbArc
 50
5.000000592114345
 51
89.38668778450368
  0
ARC
  5
60
330
2
100
AcDbEntity
  8
0
  6
Continuous
 62
     7
100
AcDbCircle
 10
1306.913373659235
 20
-2482.805545058047
 30
0.0
 40
4.99999993648
100
AcDbArc
 50
90.613236231803
 51
174.9999994006143
  0
ARC
  5
61
330
2
100
AcDbEntity
  8
0
  6
Continuous
 62
     7
100
AcDbCircle
 10
1008.223888283495
 20
-2348.328204991167
 30
0.0
 40
2.999999999479999
100
AcDbArc
 50
180.0
 51
270.0
  0
ARC
  5
62
330
2
100
AcDbEntity
  8
0
  6
Continuous
 62
     7
100
AcDbCircle
 10
1522.223888282455
 20
-2348.328204991167
 30
0.0
 40
2.999999999479999
100
AcDbArc
 50
270.0
 51
0.0
  0
ARC
  5
63
330
2
100
AcDbEntity
  8
0
  6
Continuous
 62
     7
100
AcDbCircle
 10
1011.223888282975
 20
-2972.323104670527
 30
0.0
 40
5.999999998959999
100
AcDbArc
 50
180.0
 51
270.0
  0
ARC
  5
64
330
2
100
AcDbEntity
  8
0
  6
Continuous
 62
     7
100
AcDbCircle
 10
1011.223888282975
 20
-2608.323104670967
 30
0.0
 40
5.999999998959999
100
AcDbArc
 50
90.0
 51
180.0
  0
ARC
  5
65
330
2
100
AcDbEntity
  8
0
  6
Continuous
 62
     7
100
AcDbCircle
 10
1519.223888282975
 20
-2972.323104670527
 30
0.0
 40
5.999999998959999
100
AcDbArc
 50
270.0
 51
0.0
  0
CIRCLE
  5
66
330
2
100
AcDbEntity
  8
0
  6
Continuous
 62
     7
100
AcDbCircle
 10
1265.223888282975
 20
-2735.323104670967
 30
0.0
 40
22.2500000008
  0
ARC
  5
67
330
2
100
AcDbEntity
  8
0
  6
Continuous
 62
     7
100
AcDbCircle
 10
1519.223888282975
 20
-2608.323104670967
 30
0.0
 40
5.999999998959999
100
AcDbArc
 50
0.0
 51
90.0
  0
SPLINE
  5
68
330
2
100
AcDbEntity
  8
0
  6
Continuous
 62
     7
100
AcDbSpline
210
0.0
220
0.0
230
1.0
 70
     8
 71
     3
 72
    18
 73
    14
 74
    12
 42
0.0000000001
 43
0.0000000001
 44
0.0000000001
 12
-0.9999999999999571
 22
-0.0000002929200992
 32
0.0
 13
-0.9999993241994264
 23
-0.0011625836273654
 33
0.0
 40
0.0
 40
0.0
 40
0.0
 40
0.0
 40
2.545978441790117
 40
5.082510911947744
 40
7.599452881540335
 40
10.08816258051902
 40
12.53956255879099
 40
14.94415960668276
 40
17.29244318915442
 40
19.5757698934839
 40
21.78558906438583
 40
23.91364084076847
 40
25.95322076484264
 40
25.95322076484264
 40
25.95322076484264
 40
25.95322076484264
 10
1265.223887729255
 20
-2477.789414130207
 30
0.0
 10
1264.375228248658
 20
-2477.789414378796
 30
0.0
 10
1262.681057940204
 20
-2477.789568004509
 30
0.0
 10
1260.147907063875
 20
-2477.790274526337
 30
0.0
 10
1257.633845941529
 20
-2477.791442385575
 30
0.0
 10
1255.148162556778
 20
-2477.79303336331
 30
0.0
 10
1252.699927752587
 20
-2477.794987248727
 30
0.0
 10
1250.298501921794
 20
-2477.797227134332
 30
0.0
 10
1247.953100741627
 20
-2477.799665991657
 30
0.0
 10
1245.672625677632
 20
-2477.802213878386
 30
0.0
 10
1243.465561290687
 20
-2477.804784714374
 30
0.0
 10
1241.339745823288
 20
-2477.807301368034
 30
0.0
 10
1239.950536219857
 20
-2477.808937515672
 30
0.0
 10
1239.270676704615
 20
-2477.809727909747
 30
0.0
 11
1265.223887729255
 21
-2477.789414130207
 31
0.0
 11
1262.677909298235
 21
-2477.789648310587
 31
0.0
 11
1260.141376926555
 21
-2477.790355124007
 31
0.0
 11
1257.624435226895
 21
-2477.791520803667
 31
0.0
 11
1255.135726033635
 21
-2477.793107363867
 31
0.0
 11
1252.684326829255
 21
-2477.795055244147
 31
0.0
 11
1250.279730818035
 21
-2477.797288079407
 31
0.0
 11
1247.931448494035
 21
-2477.799719230247
 31
0.0
 11
1245.648123202935
 21
-2477.802259649346
 31
0.0
 11
1243.438305519455
 21
-2477.804823604087
 31
0.0
 11
1241.310255223875
 21
-2477.807334071507
 31
0.0
 11
1239.270676704615
 21
-2477.809727909747
 31
0.0
  0
SPLINE
  5
69
330
2
100
AcDbEntity
  8
0
  6
Continuous
 62
     7
100
AcDbSpline
210
0.0
220
0.0
230
1.0
 70
     8
 71
     3
 72
    18
 73
    14
 74
    12
 42
0.0000000001
 43
0.0000000001
 44
0.0000000001
 12
-0.9999993241978913
 22
0.0011625849478163
 32
0.0
 13
-0.9999999999999165
 23
0.0000004088940925
 33
0.0
 40
0.0
 40
0.0
 40
0.0
 40
0.0
 40
2.039393200932961
 40
4.167934095331373
 40
6.377701775375976
 40
8.66103620647439
 40
11.0093149605137
 40
13.41419360319502
 40
15.86554584479691
 40
18.3538495019511
 40
20.87081643986008
 40
23.40853655568548
 40
25.95322406026562
 40
25.95322406026562
 40
25.95322406026562
 40
25.95322406026562
 10
1291.177102048276
 20
-2477.809729662347
 30
0.0
 10
1290.49730477404
 20
-2477.808939339734
 30
0.0
 10
1289.107994372387
 20
-2477.807303073837
 30
0.0
 10
1286.982095270416
 20
-2477.804786285576
 30
0.0
 10
1284.77488243232
 20
-2477.802215228317
 30
0.0
 10
1282.494423565903
 20
-2477.799667286024
 30
0.0
 10
1280.14892755486
 20
-2477.797228221018
 30
0.0
 10
1277.747425380978
 20
-2477.794988148684
 30
0.0
 10
1275.299247971448
 20
-2477.793034172353
 30
0.0
 10
1272.813707523515
 20
-2477.791443106831
 30
0.0
 10
1270.299377543928
 20
-2477.790274874699
 30
0.0
 10
1267.766252775364
 20
-2477.789568209198
 30
0.0
 10
1266.072116897448
 20
-2477.789414477042
 30
0.0
 10
1265.223887729255
 20
-2477.789414130207
 30
0.0
 11
1291.177102048276
 21
-2477.809729662347
 31
0.0
 11
1289.137710252035
 21
-2477.807336037467
 31
0.0
 11
1287.009170838815
 21
-2477.804824962987
 31
0.0
 11
1284.799404646215
 21
-2477.802261018407
 31
0.0
 11
1282.516071628435
 21
-2477.799720515487
 31
0.0
 11
1280.167794132975
 21
-2477.797289263047
 31
0.0
 11
1277.762916527195
 21
-2477.795056049327
 31
0.0
 11
1275.311565059575
 21
-2477.793108075067
 31
0.0
 11
1272.823261908175
 21
-2477.791521588527
 31
0.0
 11
1270.306295240315
 21
-2477.790355652327
 31
0.0
 11
1267.768575223055
 21
-2477.789648358847
 31
0.0
 11
1265.223887729255
 21
-2477.789414130207
 31
0.0
  0
LINE
  5
6A
330
2
100
AcDbEntity
  8
0
  6
Continuous
 62
     7
100
AcDbLine
 10
1300.607629201915
 20
-2477.813006297907
 30
0.0
 11
1291.177101560595
 21
-2477.809729667427
 31
0.0
  0
LINE
  5
6B
330
2
100
AcDbEntity
  8
0
  6
Continuous
 62
     7
100
AcDbLine
 10
1306.859859725115
 20
-2477.805831440527
 30
0.0
 11
1300.607629361935
 21
-2477.813006297907
 31
0.0
  0
SPLINE
  5
6C
330
2
100
AcDbEntity
  8
0
  6
Continuous
 62
     7
100
AcDbSpline
210
0.0
220
0.0
230
1.0
 70
     8
 71
     3
 72
    18
 73
    14
 74
    12
 42
0.0000000001
 43
0.0000000001
 44
0.0000000001
 12
-0.9999999999999834
 22
-0.0000001828119877
 32
0.0
 13
-0.999999107514948
 23
-0.0013360274350412
 33
0.0
 40
0.0
 40
0.0
 40
0.0
 40
0.0
 40
2.244582577123726
 40
4.480758076101622
 40
6.699491947453639
 40
8.89312393378085
 40
11.05361269398584
 40
13.17256639854495
 40
15.24159335143195
 40
17.25308225399796
 40
19.19951764931706
 40
21.07366014303625
 40
22.86961622214823
 40
22.86961622214823
 40
22.86961622214823
 40
22.86961622214823
 10
1265.223888282975
 20
-2482.353176762887
 30
0.0
 10
1264.475694090601
 20
-2482.353176899666
 30
0.0
 10
1262.982108059954
 20
-2482.35333372995
 30
0.0
 10
1260.748944176783
 20
-2482.354054098725
 30
0.0
 10
1258.532764027642
 20
-2482.355244237516
 30
0.0
 10
1256.341813073926
 20
-2482.356864624481
 30
0.0
 10
1254.184122496304
 20
-2482.358853214652
 30
0.0
 10
1252.067967242902
 20
-2482.361131057899
 30
0.0
 10
1250.001478871554
 20
-2482.363609095628
 30
0.0
 10
1247.992496784565
 20
-2482.36619549164
 30
0.0
 10
1246.048476268658
 20
-2482.368802722996
 30
0.0
 10
1244.176300015632
 20
-2482.37135249139
 30
0.0
 10
1242.952934945398
 20
-2482.373008506296
 30
0.0
 10
1242.354283453315
 20
-2482.373808321827
 30
0.0
 11
1265.223888282975
 21
-2482.353176762887
 31
0.0
 11
1262.979305718555
 21
-2482.353415571147
 31
0.0
 11
1260.743130335695
 21
-2482.354136209787
 31
0.0
 11
1258.524396782315
 21
-2482.355324061107
 31
0.0
 11
1256.330765391075
 21
-2482.356939859247
 31
0.0
 11
1254.170277540355
 21
-2482.358922247967
 31
0.0
 11
1252.051325052335
 21
-2482.361192837787
 31
0.0
 11
1249.982299573935
 21
-2482.363662959847
 31
0.0
 11
1247.970812324375
 21
-2482.366241720247
 31
0.0
 11
1246.024378665816
 21
-2482.368841908087
 31
0.0
 11
1244.150237897975
 21
-2482.371385347247
 31
0.0
 11
1242.354283453315
 21
-2482.373808321827
 31
0.0
  0
SPLINE
  5
6D
330
2
100
AcDbEntity
  8
0
  6
Continuous
 62
     7
100
AcDbSpline
210
0.0
220
0.0
230
1.0
 70
     8
 71
     3
 72
    18
 73
    14
 74
    12
 42
0.0000000001
 43
0.0000000001
 44
0.0000000001
 12
-0.9999991075183837
 22
0.0013360248636489
 32
0.0
 13
-0.9999999999999502
 23
0.0000003158671243
 33
0.0
 40
0.0
 40
0.0
 40
0.0
 40
0.0
 40
1.795791667303404
 40
3.670364627956815
 40
5.616754468400278
 40
7.628249939511474
 40
9.697272396719826
 40
11.81647401825315
 40
13.97692049771771
 40
16.17019436949136
 40
18.38895001893875
 40
20.62617244252059
 40
22.86961651037634
 40
22.86961651037634
 40
22.86961651037634
 40
22.86961651037634
 10
1288.093493399655
 20
-2482.373810094747
 30
0.0
 10
1287.494896711458
 20
-2482.373010353974
 30
0.0
 10
1286.271442956258
 20
-2482.37135422259
 30
0.0
 10
1284.399193203264
 20
-2482.368804319529
 30
0.0
 10
1282.455042194
 20
-2482.366196868417
 30
0.0
 10
1280.446074601107
 20
-2482.363610410287
 30
0.0
 10
1278.379502899994
 20
-2482.361132172291
 30
0.0
 10
1276.263280599917
 20
-2482.358854126511
 30
0.0
 10
1274.105640848495
 20
-2482.356865461195
 30
0.0
 10
1271.914816100631
 20
-2482.355244968775
 30
0.0
 10
1269.698399088941
 20
-2482.35405445803
 30
0.0
 10
1267.465258474656
 20
-2482.353333940643
 30
0.0
 10
1265.97170297226
 20
-2482.353176999097
 30
0.0
 10
1265.223888282975
 20
-2482.353176762887
 30
0.0
 11
1288.093493399655
 21
-2482.373810094747
 31
0.0
 11
1286.297703366656
 21
-2482.371387341147
 31
0.0
 11
1284.423132132315
 21
-2482.368843289847
 31
0.0
 11
1282.476744028655
 21
-2482.366243114707
 31
0.0
 11
1280.465250210655
 21
-2482.363664267947
 31
0.0
 11
1278.396229228055
 21
-2482.361194046827
 31
0.0
 11
1276.277028823335
 21
-2482.358923068387
 31
0.0
 11
1274.116583253455
 21
-2482.356940590767
 31
0.0
 11
1271.923309976815
 21
-2482.355324861207
 31
0.0
 11
1269.704554645475
 21
-2482.354136750807
 31
0.0
 11
1267.467332338115
 21
-2482.353415621947
 31
0.0
 11
1265.223888282975
 21
-2482.353176762887
 31
0.0
  0
LINE
  5
6E
330
2
100
AcDbEntity
  8
0
  6
Continuous
 62
     7
100
AcDbLine
 10
1229.840149830375
 20
-2477.813003966187
 30
0.0
 11
1223.587923117175
 21
-2477.805827536547
 31
0.0
  0
LINE
  5
6F
330
2
100
AcDbEntity
  8
0
  6
Continuous
 62
     7
100
AcDbLine
 10
1239.270677194835
 20
-2477.809727914827
 30
0.0
 11
1229.840149987855
 21
-2477.813003966187
 31
0.0
  0
SPLINE
  5
70
330
2
100
AcDbEntity
  8
02___PRT_ALL_AXES
  6
Continuous
 62
     7
100
AcDbSpline
210
0.0
220
0.0
230
1.0
 70
     8
 71
     3
 72
    13
 73
     9
 74
     7
 42
0.0000000001
 43
0.0000000001
 44
0.0000000001
 12
1.0
 22
0.0
 32
0.0
 13
0.0000281317276968
 23
-0.999999999604303
 33
0.0
 40
0.0
 40
0.0
 40
0.0
 40
0.0
 40
3.238104753122869
 40
6.215312703054311
 40
8.691477264081877
 40
10.46693466408423
 40
11.40152424668685
 40
11.47781570611289
 40
11.47781570611289
 40
11.47781570611289
 40
11.47781570611289
 10
1265.223888282975
 20
-2641.411907761707
 30
0.0
 10
1266.303256534016
 20
-2641.411907761707
 30
0.0
 10
1268.38791578265
 20
-2641.413610217096
 30
0.0
 10
1271.233540342047
 20
-2641.517913992078
 30
0.0
 10
1273.782100909494
 20
-2641.482273633319
 30
0.0
 10
1275.191562895624
 20
-2641.876953244691
 30
0.0
 10
1276.579818427688
 20
-2641.5675625981
 30
0.0
 10
1276.614607488652
 20
-2641.919298820722
 30
0.0
 10
1276.614608204055
 20
-2641.944729307188
 30
0.0
 11
1265.223888282975
 21
-2641.411907761707
 31
0.0
 11
1268.461921278575
 21
-2641.433464932207
 31
0.0
 11
1271.438463801475
 21
-2641.496407656207
 31
0.0
 11
1273.912637684715
 21
-2641.595677635467
 31
0.0
 11
1275.683504564615
 21
-2641.723268673147
 31
0.0
 11
1276.606685844995
 21
-2641.868850304767
 31
0.0
 11
1276.614608204055
 21
-2641.944729307188
 31
0.0
  0
SPLINE
  5
72
330
2
100
AcDbEntity
  8
02___PRT_ALL_AXES
  6
Continuous
 62
     7
100
AcDbSpline
210
0.0
220
0.0
230
1.0
 70
     8
 71
     3
 72
    13
 73
     9
 74
     7
 42
0.0000000001
 43
0.0000000001
 44
0.0000000001
 12
-0.0000281317316342
 22
0.9999999996043028
 32
0.0
 13
1.0
 23
0.0
 33
0.0
 40
0.0
 40
0.0
 40
0.0
 40
0.0
 40
0.0762830295236542
 40
1.010864351774808
 40
2.78632052886931
 40
5.262490344041119
 40
8.239705379441234
 40
11.4778132519018
 40
11.4778132519018
 40
11.4778132519018
 40
11.4778132519018
 10
1253.833168361895
 20
-2641.944723279767
 30
0.0
 10
1253.833167646571
 20
-2641.919295603269
 30
0.0
 10
1253.867933639799
 20
-2641.567563329574
 30
0.0
 10
1255.256220592695
 20
-2641.876957056468
 30
0.0
 10
1256.665652846576
 20
-2641.482272390165
 30
0.0
 10
1259.214230234998
 20
-2641.51791495205
 30
0.0
 10
1262.059855146629
 20
-2641.41361002223
 30
0.0
 10
1264.144518992155
 20
-2641.411907761707
 30
0.0
 10
1265.223888282975
 20
-2641.411907761707
 30
0.0
 11
1253.833168361895
 21
-2641.944723279767
 31
0.0
 11
1253.841084980555
 21
-2641.868852153888
 31
0.0
 11
1254.764257833215
 21
-2641.723270108247
 31
0.0
 11
1256.535123443115
 21
-2641.595678460967
 31
0.0
 11
1259.009302563835
 21
-2641.496407961007
 31
0.0
 11
1261.985852168255
 21
-2641.433464975387
 31
0.0
 11
1265.223888282975
 21
-2641.411907761707
 31
0.0
  0
SPLINE
  5
73
330
2
100
AcDbEntity
  8
02___PRT_ALL_AXES
  6
Continuous
 62
     7
100
AcDbSpline
210
0.0
220
0.0
230
1.0
 70
     8
 71
     3
 72
    13
 73
     9
 74
     7
 42
0.0000000001
 43
0.0000000001
 44
0.0000000001
 12
0.0000281317316342
 22
-0.9999999996043028
 32
0.0
 13
-1.0
 23
0.0
 33
0.0
 40
0.0
 40
0.0
 40
0.0
 40
0.0
 40
0.0762830295232019
 40
1.010864351379108
 40
2.78632052865574
 40
5.262490343828003
 40
8.239705376688467
 40
11.47781325168919
 40
11.47781325168919
 40
11.47781325168919
 40
11.47781325168919
 10
1276.614608204055
 20
-2641.944729307188
 30
0.0
 10
1276.61460891938
 20
-2641.970156983685
 30
0.0
 10
1276.579842926184
 20
-2642.321889257322
 30
0.0
 10
1275.191555972664
 20
-2642.0124955253
 30
0.0
 10
1273.782123719718
 20
-2642.407180199276
 30
0.0
 10
1271.233546331732
 20
-2642.371537633965
 30
0.0
 10
1268.387921420209
 20
-2642.475842565098
 30
0.0
 10
1266.303257574642
 20
-2642.477544825247
 30
0.0
 10
1265.223888282975
 20
-2642.477544825247
 30
0.0
 11
1276.614608204055
 21
-2641.944729307188
 31
0.0
 11
1276.606691585395
 21
-2642.020600433067
 31
0.0
 11
1275.683518732735
 21
-2642.166182476167
 31
0.0
 11
1273.912653122835
 21
-2642.293774125987
 31
0.0
 11
1271.438474002115
 21
-2642.393044625947
 31
0.0
 11
1268.461924400235
 21
-2642.455987611568
 31
0.0
 11
1265.223888282975
 21
-2642.477544825247
 31
0.0
  0
SPLINE
  5
74
330
2
100
AcDbEntity
  8
0
  6
Continuous
 62
     7
100
AcDbSpline
210
0.0
220
0.0
230
1.0
 70
     8
 71
     3
 72
    13
 73
     9
 74
     7
 42
0.0000000001
 43
0.0000000001
 44
0.0000000001
 12
0.9999999734170705
 22
0.0002305772294687
 32
0.0
 13
0.0000208909561292
 23
-0.9999999997817841
 33
0.0
 40
0.0
 40
0.0
 40
0.0
 40
0.0
 40
4.201038839270243
 40
8.395306615461596
 40
12.56827876866832
 40
16.72878002341928
 40
20.88738807972736
 40
25.03007410275666
 40
25.03007410275666
 40
25.03007410275666
 40
25.03007410275666
 10
1475.547822345975
 20
-2634.594660425947
 30
0.0
 10
1476.948168588507
 20
-2634.594337537982
 30
0.0
 10
1479.760366915163
 20
-2634.961753590801
 30
0.0
 10
1483.675237957372
 20
-2636.577954017827
 30
0.0
 10
1487.030500601214
 20
-2639.144615621056
 30
0.0
 10
1489.596813619309
 20
-2642.485097908818
 30
0.0
 10
1491.205015956283
 20
-2646.364917538627
 30
0.0
 10
1491.568994480431
 20
-2649.145633091899
 30
0.0
 10
1491.569023328655
 20
-2650.526528432607
 30
0.0
 11
1475.547822345975
 21
-2634.594660425947
 31
0.0
 11
1479.713265737195
 21
-2635.140378928107
 31
0.0
 11
1483.590073998295
 21
-2636.741078739147
 31
0.0
 11
1486.903466949855
 21
-2639.277833307487
 31
0.0
 11
1489.438267343795
 21
-2642.577008606507
 31
0.0
 11
1491.029564595535
 21
-2646.419116624587
 31
0.0
 11
1491.569023328655
 21
-2650.526528432607
 31
0.0
  0
SPLINE
  5
75
330
2
100
AcDbEntity
  8
0
  6
Continuous
 62
     7
100
AcDbSpline
210
0.0
220
0.0
230
1.0
 70
     8
 71
     3
 72
    13
 73
     9
 74
     7
 42
0.0000000001
 43
0.0000000001
 44
0.0000000001
 12
0.000247808108185
 22
-0.9999999692955704
 32
0.0
 13
-0.9999999999436115
 23
-0.000010619651178
 33
0.0
 40
0.0
 40
0.0
 40
0.0
 40
0.0
 40
4.171549216884043
 40
8.326116080971351
 40
12.46318011517319
 40
16.59821300201983
 40
20.75788178177785
 40
24.90908181135243
 40
24.90908181135243
 40
24.90908181135243
 40
24.90908181135243
 10
1491.569023328655
 20
-2929.774504545647
 30
0.0
 10
1491.569367909895
 20
-2931.16502090858
 30
0.0
 10
1491.205287826219
 20
-2933.954205652252
 30
0.0
 10
1489.60052246472
 20
-2937.835724684569
 30
0.0
 10
1487.050038917814
 20
-2941.160775014865
 30
0.0
 10
1483.721033167416
 20
-2943.708683417739
 30
0.0
 10
1479.842915182631
 20
-2945.3071538132
 30
0.0
 10
1477.059021499689
 20
-2945.668225022961
 30
0.0
 10
1475.675288156575
 20
-2945.668239717727
 30
0.0
 11
1491.569023328655
 21
-2929.774504545647
 31
0.0
 11
1491.026823757735
 21
-2933.910667319787
 31
0.0
 11
1489.439057969595
 21
-2937.749863281207
 31
0.0
 11
1486.920225539655
 21
-2941.031750240407
 31
0.0
 11
1483.637309438495
 21
-2943.545901955807
 31
0.0
 11
1479.791616408535
 21
-2945.131300794147
 31
0.0
 11
1475.675288156575
 21
-2945.668239717727
 31
0.0
  0
SPLINE
  5
76
330
2
100
AcDbEntity
  8
0
  6
Continuous
 62
     7
100
AcDbSpline
210
0.0
220
0.0
230
1.0
 70
     8
 71
     3
 72
    13
 73
     9
 74
     7
 42
0.0000000001
 43
0.0000000001
 44
0.0000000001
 12
-0.9999999692955704
 22
-0.000247808108185
 32
0.0
 13
-0.000010619651178
 23
0.9999999999436115
 33
0.0
 40
0.0
 40
0.0
 40
0.0
 40
0.0
 40
4.171549216884494
 40
8.326116081942608
 40
12.46318011459721
 40
16.59821300144449
 40
20.75788178120216
 40
24.9090818107768
 40
24.9090818107768
 40
24.9090818107768
 40
24.9090818107768
 10
1054.772488409375
 20
-2945.668239717727
 30
0.0
 10
1053.381972046442
 20
-2945.668584298967
 30
0.0
 10
1050.592787301977
 20
-2945.304504216236
 30
0.0
 10
1046.71126827197
 20
-2943.699738850267
 30
0.0
 10
1043.38621793927
 20
-2941.14925530731
 30
0.0
 10
1040.838309537437
 20
-2937.820249556262
 30
0.0
 10
1039.23983914178
 20
-2933.942131571766
 30
0.0
 10
1038.878767932061
 20
-2931.158237888761
 30
0.0
 10
1038.878753237295
 20
-2929.774504545647
 30
0.0
 11
1054.772488409375
 21
-2945.668239717727
 31
0.0
 11
1050.636325635235
 21
-2945.126040146807
 31
0.0
 11
1046.797129673815
 21
-2943.538274356127
 31
0.0
 11
1043.515242714615
 21
-2941.019441928727
 31
0.0
 11
1041.001090999215
 21
-2937.736525827567
 31
0.0
 11
1039.415692160875
 21
-2933.890832797607
 31
0.0
 11
1038.878753237295
 21
-2929.774504545647
 31
0.0
  0
SPLINE
  5
77
330
2
100
AcDbEntity
  8
0
  6
Continuous
 62
     7
100
AcDbSpline
210
0.0
220
0.0
230
1.0
 70
     8
 71
     3
 72
    13
 73
     9
 74
     7
 42
0.0000000001
 43
0.0000000001
 44
0.0000000001
 12
-0.0002630280898694
 22
0.9999999654081113
 32
0.0
 13
0.999999999875766
 23
0.000015762873412
 33
0.0
 40
0.0
 40
0.0
 40
0.0
 40
0.0
 40
4.155110382843404
 40
8.313377787644192
 40
12.47537202179162
 40
16.64813964074228
 40
20.84787400350005
 40
25.03006968792983
 40
25.03006968792983
 40
25.03006968792983
 40
25.03006968792983
 10
1038.878753237295
 20
-2650.526528432607
 30
0.0
 10
1038.878388933713
 20
-2649.141491686237
 30
0.0
 10
1039.244605430882
 20
-2646.356626424969
 30
0.0
 10
1040.857285560534
 20
-2642.473860161667
 30
0.0
 10
1043.426668416441
 20
-2639.13519193137
 30
0.0
 10
1046.785896014462
 20
-2636.570123176544
 30
0.0
 10
1050.69833730769
 20
-2634.959305284401
 30
0.0
 10
1053.505888992005
 20
-2634.594682400421
 30
0.0
 10
1054.899954219975
 20
-2634.594660425947
 30
0.0
 11
1038.878753237295
 21
-2650.526528432607
 31
0.0
 11
1039.421443462555
 21
-2646.407010303867
 31
0.0
 11
1041.015570601955
 21
-2642.566444398527
 31
0.0
 11
1043.554000439995
 21
-2639.268176677067
 31
0.0
 11
1046.869411038015
 21
-2636.734396463967
 31
0.0
 11
1050.752876865175
 21
-2635.135502506567
 31
0.0
 11
1054.899954219975
 21
-2634.594660425947
 31
0.0
  0
SPLINE
  5
78
330
2
100
AcDbEntity
  8
0
  6
Continuous
 62
     7
100
AcDbSpline
210
0.0
220
0.0
230
1.0
 70
     8
 71
     3
 72
    13
 73
     9
 74
     7
 42
0.0000000001
 43
0.0000000001
 44
0.0000000001
 12
-0.9999690785434919
 22
-0.0078639657221859
 32
0.0
 13
0.0078013343312163
 23
0.9999695691283074
 33
0.0
 40
0.0
 40
0.0
 40
0.0
 40
0.0
 40
2.623814869990741
 40
5.223529390858763
 40
7.806960049055737
 40
10.38916162457562
 40
12.99220260359562
 40
15.61098071820409
 40
15.61098071820409
 40
15.61098071820409
 40
15.61098071820409
 10
1054.771146618815
 20
-2939.708095432807
 30
0.0
 10
1053.89656870621
 20
-2939.714973296207
 30
0.0
 10
1052.144806091503
 20
-2939.500335079797
 30
0.0
 10
1049.706916425823
 20
-2938.509246103314
 30
0.0
 10
1047.624766697136
 20
-2936.919681950803
 30
0.0
 10
1046.03538313686
 20
-2934.836076131163
 30
0.0
 10
1045.045718604599
 20
-2932.398517762616
 30
0.0
 10
1044.832094156125
 20
-2930.64735894003
 30
0.0
 10
1044.838904143995
 20
-2929.774459465727
 30
0.0
 11
1054.771146618815
 21
-2939.708095432807
 31
0.0
 11
1052.167153721655
 21
-2939.386186340787
 31
0.0
 11
1049.759384526535
 21
-2938.405797084907
 31
0.0
 11
1047.706538347755
 21
-2936.837378603767
 31
0.0
 11
1046.139657290515
 21
-2934.784904796607
 31
0.0
 11
1045.159184118115
 21
-2932.373578461027
 31
0.0
 11
1044.838904143995
 21
-2929.774459465727
 31
0.0
  0
SPLINE
  5
79
330
2
100
AcDbEntity
  8
02___PRT_ALL_AXES
  6
Continuous
 62
     7
100
AcDbSpline
210
0.0
220
0.0
230
1.0
 70
     8
 71
     3
 72
    13
 73
     9
 74
     7
 42
0.0000000001
 43
0.0000000001
 44
0.0000000001
 12
-1.0
 22
0.0
 32
0.0
 13
-0.0000281317276968
 23
0.999999999604303
 33
0.0
 40
0.0
 40
0.0
 40
0.0
 40
0.0
 40
3.238104753121956
 40
6.215312703053854
 40
8.691477261645534
 40
10.46693466399857
 40
11.40152424409198
 40
11.47781570378135
 40
11.47781570378135
 40
11.47781570378135
 40
11.47781570378135
 10
1265.223888282975
 20
-2642.477544825247
 30
0.0
 10
1264.144520031934
 20
-2642.477544825247
 30
0.0
 10
1262.059860784107
 20
-2642.475842369147
 30
0.0
 10
1259.214236222306
 20
-2642.371538597021
 30
0.0
 10
1256.665675663783
 20
-2642.407178947945
 30
0.0
 10
1255.256213659173
 20
-2642.01249934448
 30
0.0
 10
1253.867958155791
 20
-2642.321889986393
 30
0.0
 10
1253.833169077299
 20
-2641.97015376632
 30
0.0
 10
1253.833168361895
 20
-2641.944723279767
 30
0.0
 11
1265.223888282975
 21
-2642.477544825247
 31
0.0
 11
1261.985855287375
 21
-2642.455987654747
 31
0.0
 11
1259.009312764475
 21
-2642.393044930747
 31
0.0
 11
1256.535138883775
 21
-2642.293774948947
 31
0.0
 11
1254.764272001335
 21
-2642.166183913807
 31
0.0
 11
1253.841090723496
 21
-2642.020602282187
 31
0.0
 11
1253.833168361895
 21
-2641.944723279767
 31
0.0
  0
SPLINE
  5
7A
330
2
100
AcDbEntity
  8
0
  6
Continuous
 62
     7
100
AcDbSpline
210
0.0
220
0.0
230
1.0
 70
     8
 71
     3
 72
    13
 73
     9
 74
     7
 42
0.0000000001
 43
0.0000000001
 44
0.0000000001
 12
-0.0032489436313341
 22
0.9999947221687124
 32
0.0
 13
0.9999950337122472
 23
-0.0031515949679364
 33
0.0
 40
0.0
 40
0.0
 40
0.0
 40
0.0
 40
2.599921942005405
 40
5.195803217886692
 40
7.795827182045274
 40
10.40709961000249
 40
13.04147015445902
 40
15.68296070996096
 40
15.68296070996096
 40
15.68296070996096
 40
15.68296070996096
 10
1044.838903582655
 20
-2650.525129692707
 30
0.0
 10
1044.836087916043
 20
-2649.658493619356
 30
0.0
 10
1045.06125176831
 20
-2647.917089569322
 30
0.0
 10
1046.069637178995
 20
-2645.490455960896
 30
0.0
 10
1047.680743665353
 20
-2643.407708240884
 30
0.0
 10
1049.789549251065
 20
-2641.809938903341
 30
0.0
 10
1052.251620055209
 20
-2640.808450441156
 30
0.0
 10
1054.019546348342
 20
-2640.585456052519
 30
0.0
 10
1054.900038827375
 20
-2640.588231021967
 30
0.0
 11
1044.838903582655
 21
-2650.525129692707
 31
0.0
 11
1045.173328235115
 21
-2647.946805768848
 31
0.0
 11
1046.168979718535
 21
-2645.549457708587
 31
0.0
 11
1047.759398935455
 21
-2643.492593267587
 31
0.0
 11
1049.839725902555
 21
-2641.914308311387
 31
0.0
 11
1052.279565353575
 21
-2640.920783465827
 31
0.0
 11
1054.900038827375
 21
-2640.588231021967
 31
0.0
  0
SPLINE
  5
7B
330
2
100
AcDbEntity
  8
0
  6
Continuous
 62
     7
100
AcDbSpline
210
0.0
220
0.0
230
1.0
 70
     8
 71
     3
 72
    13
 73
     9
 74
     7
 42
0.0000000001
 43
0.0000000001
 44
0.0000000001
 12
0.9999948281603431
 22
0.0032161549349486
 32
0.0
 13
-0.0031724179942686
 23
-0.9999949678693736
 33
0.0
 40
0.0
 40
0.0
 40
0.0
 40
0.0
 40
2.645522125677315
 40
5.276332046371354
 40
7.887705496359119
 40
10.48684663651613
 40
13.08305727016385
 40
15.68307074740225
 40
15.68307074740225
 40
15.68307074740225
 40
15.68307074740225
 10
1475.549132559256
 20
-2640.588227460887
 30
0.0
 10
1476.430968707076
 20
-2640.58539132454
 30
0.0
 10
1478.199066828277
 20
-2640.809267384305
 30
0.0
 10
1480.660850462637
 20
-2641.811580915608
 30
0.0
 10
1482.768203554252
 20
-2643.408908956779
 30
0.0
 10
1484.378844147645
 20
-2645.491757864233
 30
0.0
 10
1485.386979904575
 20
-2647.918388786666
 30
0.0
 10
1485.611622050555
 20
-2649.65996523625
 30
0.0
 10
1485.608872607375
 20
-2650.526632034127
 30
0.0
 11
1475.549132559256
 21
-2640.588227460887
 31
0.0
 11
1478.173493909455
 21
-2640.922165810027
 31
0.0
 11
1480.609676801875
 21
-2641.915228624507
 31
0.0
 11
1482.689778874835
 21
-2643.493977072287
 31
0.0
 11
1484.279339056135
 21
-2645.550389748887
 31
0.0
 11
1485.274811832775
 21
-2647.948168638868
 31
0.0
 11
1485.608872607375
 21
-2650.526632034127
 31
0.0
  0
SPLINE
  5
7C
330
2
100
AcDbEntity
  8
0
  6
Continuous
 62
     7
100
AcDbSpline
210
0.0
220
0.0
230
1.0
 70
     8
 71
     3
 72
    13
 73
     9
 74
     7
 42
0.0000000001
 43
0.0000000001
 44
0.0000000001
 12
0.0078639657221859
 22
-0.9999690785434919
 32
0.0
 13
-0.9999695691283074
 23
0.0078013343312163
 33
0.0
 40
0.0
 40
0.0
 40
0.0
 40
0.0
 40
2.623814869679144
 40
5.223529390547586
 40
7.806960048744836
 40
10.38916162628319
 40
12.99220260530277
 40
15.61098071991123
 40
15.61098071991123
 40
15.61098071991123
 40
15.61098071991123
 10
1485.608879043735
 20
-2929.775846336207
 30
0.0
 10
1485.615756907134
 20
-2930.650424248708
 30
0.0
 10
1485.401118694406
 20
-2932.402186863792
 30
0.0
 10
1484.410029716394
 20
-2934.840076529051
 30
0.0
 10
1482.820465564244
 20
-2936.922226258845
 30
0.0
 10
1480.736859742321
 20
-2938.511609817402
 30
0.0
 10
1478.299301373659
 20
-2939.501274350569
 30
0.0
 10
1476.548142550958
 20
-2939.714898798897
 30
0.0
 10
1475.675243076655
 20
-2939.708088811027
 30
0.0
 11
1485.608879043735
 21
-2929.775846336207
 31
0.0
 11
1485.286969954255
 21
-2932.379839233367
 31
0.0
 11
1484.306580698375
 21
-2934.787608428488
 31
0.0
 11
1482.738162217235
 21
-2936.840454607267
 31
0.0
 11
1480.685688407535
 21
-2938.407335664507
 31
0.0
 11
1478.274362071956
 21
-2939.387808836907
 31
0.0
 11
1475.675243076655
 21
-2939.708088811027
 31
0.0
  0
CIRCLE
  5
7D
330
2
100
AcDbEntity
  8
轮廓线.
100
AcDbCircle
 10
1265.223888281705
 20
-2735.323104667615
 30
0.0
 40
34.0
  0
LINE
  5
7E
330
2
100
AcDbEntity
  8
0
  6
Continuous
 62
     7
100
AcDbLine
 10
1658.62180115056
 20
-2348.328204991167
 30
0.0
 11
1658.62180115056
 21
-2342.328204992207
 31
0.0
  0
LINE
  5
7F
330
2
100
AcDbEntity
  8
0
  6
Continuous
 62
     7
100
AcDbLine
 10
1674.82023563704
 20
-2471.546500751187
 30
0.0
 11
1670.72322639902
 21
-2354.223506502547
 31
0.0
  0
LINE
  5
80
330
2
100
AcDbEntity
  8
0
  6
Continuous
 62
     7
100
AcDbLine
 10
1682.8153622528
 20
-2472.242259524767
 30
0.0
 11
1678.64777195706
 21
-2352.898429203507
 31
0.0
  0
LINE
  5
81
330
2
100
AcDbEntity
  8
0
  6
Continuous
 62
     7
100
AcDbLine
 10
1698.95800484426
 20
-2460.790095347607
 30
0.0
 11
1686.86738203038
 21
-2356.407718400307
 31
0.0
  0
LINE
  5
82
330
2
100
AcDbEntity
  8
0
  6
Continuous
 62
     7
100
AcDbLine
 10
1757.36440347446
 20
-2508.731522228087
 30
0.0
 11
1757.40225913408
 21
-2509.136979659488
 31
0.0
  0
LINE
  5
83
330
2
100
AcDbEntity
  8
0
  6
Continuous
 62
     7
100
AcDbLine
 10
1821.82594288234
 20
-2513.328204993047
 30
0.0
 11
1761.4176594167
 21
-2513.328204993047
 31
0.0
  0
LINE
  5
84
330
2
100
AcDbEntity
  8
0
  6
Continuous
 62
     7
100
AcDbLine
 10
1825.82046102232
 20
-2509.537548817707
 30
0.0
 11
1757.42314127672
 21
-2509.537548817707
 31
0.0
  0
LWPOLYLINE
  5
85
330
2
100
AcDbEntity
  8
0
  6
Continuous
 62
     7
100
AcDbPolyline
 90
        5
 70
     0
 43
0.0
 10
1752.52796672368
 20
-2504.400105556927
 10
1754.25010710718
 20
-2504.749952055608
 10
1755.7448356595
 20
-2505.674040822107
 10
1756.82751597826
 20
-2507.058225678827
 10
1757.36440347446
 20
-2508.731522228087
  0
LINE
  5
86
330
2
100
AcDbEntity
  8
0
  6
Continuous
 62
     7
100
AcDbLine
 10
1757.40214864408
 20
-2509.136985486247
 30
0.0
 11
1757.42314127672
 21
-2509.537548817707
 31
0.0
  0
LINE
  5
87
330
2
100
AcDbEntity
  8
0
  6
Continuous
 62
     7
100
AcDbLine
 10
1760.73877683238
 20
-2504.595013066527
 30
0.0
 11
1706.94860675228
 21
-2503.317984043247
 31
0.0
  0
LINE
  5
88
330
2
100
AcDbEntity
  8
0
  6
Continuous
 62
     7
100
AcDbLine
 10
1776.63832903372
 20
-2497.945625895427
 30
0.0
 11
1707.13848074388
 21
-2496.295192366228
 31
0.0
  0
LINE
  5
89
330
2
100
AcDbEntity
  8
0
  6
Continuous
 62
     7
100
AcDbLine
 10
1791.62180114952
 20
-2482.341376598527
 30
0.0
 11
1781.11385138568
 21
-2482.343676746328
 31
0.0
  0
LINE
  5
8A
330
2
100
AcDbEntity
  8
0
  6
Continuous
 62
     7
100
AcDbLine
 10
1831.66422681762
 20
-2477.613817079827
 30
0.0
 11
1982.20680162722
 21
-2460.159605508767
 31
0.0
  0
LINE
  5
8B
330
2
100
AcDbEntity
  8
0
  6
Continuous
 62
     7
100
AcDbLine
 10
1827.2469317457
 20
-2482.318865978067
 30
0.0
 11
1825.82046102232
 21
-2509.537548817707
 31
0.0
  0
LINE
  5
8C
330
2
100
AcDbEntity
  8
0
  6
Continuous
 62
     7
100
AcDbLine
 10
1661.62180115004
 20
-2351.328204993187
 30
0.0
 11
2031.6218011511
 21
-2351.328204993187
 31
0.0
  0
LINE
  5
8D
330
2
100
AcDbEntity
  8
0
  6
Continuous
 62
     7
100
AcDbLine
 10
1990.93792947862
 20
-2451.752454410987
 30
0.0
 11
2005.7094035221
 21
-2356.107159981867
 31
0.0
  0
LINE
  5
8E
330
2
100
AcDbEntity
  8
0
  6
Continuous
 62
     7
100
AcDbLine
 10
2034.62180115058
 20
-2348.328204991167
 30
0.0
 11
2034.62180115058
 21
-2342.328204992207
 31
0.0
  0
ARC
  5
8F
330
2
100
AcDbEntity
  8
0
  6
Continuous
 62
     7
100
AcDbCircle
 10
1707.73017557014
 20
-2470.397260324247
 30
0.0
 40
32.92999999966
100
AcDbArc
 50
181.9999999961972
 51
268.639999999999
  0
ARC
  5
90
330
2
100
AcDbEntity
  8
0
  6
Continuous
 62
     7
100
AcDbCircle
 10
1981.06666374494
 20
-2450.151249744467
 30
0.0
 40
9.999999999959998
100
AcDbArc
 50
276.370826276301
 51
351.2207049576057
  0
ARC
  5
91
330
2
100
AcDbEntity
  8
0
  6
Continuous
 62
     7
100
AcDbCircle
 10
1981.05509643508
 20
-2450.226148080827
 30
0.0
 40
9.999999999959998
100
AcDbArc
 50
276.6134603791952
 51
351.220593500293
  0
ARC
  5
92
330
2
100
AcDbEntity
  8
0
  6
Continuous
 62
     7
100
AcDbCircle
 10
1678.92098029812
 20
-2357.328204992148
 30
0.0
 40
7.999794330579999
100
AcDbArc
 50
6.607517215793803
 51
49.27549451498449
  0
ARC
  5
93
330
2
100
AcDbEntity
  8
0
  6
Continuous
 62
     7
100
AcDbCircle
 10
2013.61520045114
 20
-2357.328204992148
 30
0.0
 40
7.99979377178
100
AcDbArc
 50
131.288638842609
 51
171.2200806139132
  0
ARC
  5
94
330
2
100
AcDbEntity
  8
0
  6
Continuous
 62
     7
100
AcDbCircle
 10
1664.62180114952
 20
-2342.328204992207
 30
0.0
 40
5.999999998959999
100
AcDbArc
 50
90.0
 51
180.0
  0
ARC
  5
95
330
2
100
AcDbEntity
  8
0
  6
Continuous
 62
     7
100
AcDbCircle
 10
2028.62180114908
 20
-2342.328204992207
 30
0.0
 40
5.999999998959999
100
AcDbArc
 50
0.0
 51
90.0
  0
ARC
  5
96
330
2
100
AcDbEntity
  8
0
  6
Continuous
 62
     7
100
AcDbCircle
 10
1832.24007893998
 20
-2482.580545764587
 30
0.0
 40
4.999999941559999
100
AcDbArc
 50
96.61345503309618
 51
176.9999996550992
  0
ARC
  5
97
330
2
100
AcDbEntity
  8
0
  6
Continuous
 62
     7
100
AcDbCircle
 10
1821.82594288234
 20
-2509.328204992047
 30
0.0
 40
4.000000001
100
AcDbArc
 50
270.0
 51
356.9999999903928
  0
ARC
  5
98
330
2
100
AcDbEntity
  8
0
  6
Continuous
 62
     7
100
AcDbCircle
 10
1761.4176594167
 20
-2509.328204992047
 30
0.0
 40
4.000000001
100
AcDbArc
 50
183.0000000051976
 51
270.0
  0
ARC
  5
99
330
2
100
AcDbEntity
  8
0
  6
Continuous
 62
     7
100
AcDbCircle
 10
2031.6218011511
 20
-2348.328204991167
 30
0.0
 40
2.999999999479999
100
AcDbArc
 50
270.0
 51
0.0
  0
ARC
  5
9A
330
2
100
AcDbEntity
  8
0
  6
Continuous
 62
     7
100
AcDbCircle
 10
1661.62180115004
 20
-2348.328204991167
 30
0.0
 40
2.999999999479999
100
AcDbArc
 50
180.0
 51
270.0
  0
ARC
  5
9B
330
2
100
AcDbEntity
  8
0
  6
Continuous
 62
     7
100
AcDbCircle
 10
1667.73187173404
 20
-2354.321144938207
 30
0.0
 40
2.992939945019999
100
AcDbArc
 50
1.869482389614445
 51
90.13051761039397
  0
LINE
  5
9C
330
2
100
AcDbEntity
  8
0
  6
Continuous
 62
     7
100
AcDbLine
 10
1982.17629104816
 20
-2460.089488768127
 30
0.0
 11
1982.2067088461
 21
-2460.159645734747
 31
0.0
  0
SPLINE
  5
9D
330
2
100
AcDbEntity
  8
0
  6
Continuous
 62
     7
100
AcDbSpline
210
0.0
220
0.0
230
1.0
 70
     8
 71
     3
 72
     8
 73
     4
 74
     2
 42
0.0000000001
 43
0.0000000001
 44
0.0000000001
 12
-0.9866199687288606
 22
0.1630369200686215
 32
0.0
 13
-0.9714738174907573
 23
0.2371468362216432
 33
0.0
 40
0.0
 40
0.0
 40
0.0
 40
0.0
 40
0.7549461162259413
 40
0.7549461162259413
 40
0.7549461162259413
 40
0.7549461162259413
 10
1707.26778170448
 20
-2469.528464175127
 30
0.0
 10
1707.019500066619
 20
-2469.487436145258
 30
0.0
 10
1706.77259569483
 20
-2469.436971648554
 30
0.0
 10
1706.52812556632
 20
-2469.377293954227
 30
0.0
 11
1707.26778170448
 21
-2469.528464175127
 31
0.0
 11
1706.52812556632
 21
-2469.377293954227
 31
0.0
  0
SPLINE
  5
9E
330
2
100
AcDbEntity
  8
0
  6
Continuous
 62
     7
100
AcDbSpline
210
0.0
220
0.0
230
1.0
 70
     8
 71
     3
 72
    23
 73
    19
 74
    17
 42
0.0000000001
 43
0.0000000001
 44
0.0000000001
 12
-0.9714738179718766
 22
0.2371468342507348
 32
0.0
 13
-0.1150618643366433
 23
0.9933583277827672
 33
0.0
 40
0.0
 40
0.0
 40
0.0
 40
0.0
 40
0.7573681145367038
 40
1.515608767379117
 40
2.273637989126467
 40
3.032104494225917
 40
3.791734466247996
 40
4.551548638220873
 40
5.310819010531823
 40
6.070560448188751
 40
6.831737866737908
 40
7.594729897828577
 40
8.358919946093159
 40
9.123385167192969
 40
9.887106981150884
 40
10.65070070180253
 40
11.41535532550723
 40
12.18152855660447
 40
12.18152855660447
 40
12.18152855660447
 40
12.18152855660447
 10
1706.52812556632
 20
-2469.377293954227
 30
0.0
 10
1706.28287113504
 20
-2469.317424803986
 30
0.0
 10
1705.796426779033
 20
-2469.178926418942
 30
0.0
 10
1705.084705612928
 20
-2468.916465519758
 30
0.0
 10
1704.394564768023
 20
-2468.600616444447
 30
0.0
 10
1703.729962950139
 20
-2468.233131137519
 30
0.0
 10
1703.094650830382
 20
-2467.815959973476
 30
0.0
 10
1702.492616428464
 20
-2467.351617823689
 30
0.0
 10
1701.927497229647
 20
-2466.842940088378
 30
0.0
 10
1701.402235008007
 20
-2466.292572628047
 30
0.0
 10
1700.919431045026
 20
-2465.702997324252
 30
0.0
 10
1700.481947241843
 20
-2465.077237470249
 30
0.0
 10
1700.092766429366
 20
-2464.419070168924
 30
0.0
 10
1699.754690198315
 20
-2463.732976936642
 30
0.0
 10
1699.469838467733
 20
-2463.023352824503
 30
0.0
 10
1699.23969929353
 20
-2462.294067758125
 30
0.0
 10
1699.065463361726
 20
-2461.548650331467
 30
0.0
 10
1698.987390615178
 20
-2461.043790183039
 30
0.0
 10
1698.95800484172
 20
-2460.790095329827
 30
0.0
 11
1706.52812556632
 21
-2469.377293954227
 31
0.0
 11
1705.79970599446
 21
-2469.169902083007
 31
0.0
 11
1705.08829394002
 21
-2468.907563034407
 31
0.0
 11
1704.3990190727
 21
-2468.592113421467
 31
0.0
 11
1703.73526186834
 21
-2468.225101414827
 31
0.0
 11
1703.10028560972
 21
-2467.808156759767
 31
0.0
 11
1702.49863406982
 21
-2467.344116890287
 31
0.0
 11
1701.93430415962
 21
-2466.836156999427
 31
0.0
 11
1701.40976344594
 21
-2466.286553422487
 31
0.0
 11
1700.92749931268
 21
-2465.697645646787
 31
0.0
 11
1700.4903156379
 21
-2465.072323910387
 31
0.0
 11
1700.10135042904
 21
-2464.414530252647
 31
0.0
 11
1699.76344720594
 21
-2463.728798172247
 31
0.0
 11
1699.47894279146
 21
-2463.020046983708
 31
0.0
 11
1699.24914271766
 21
-2462.291852438067
 31
0.0
 11
1699.07510392934
 21
-2461.547267188608
 31
0.0
 11
1698.95800484172
 21
-2460.790095329827
 31
0.0
  0
SPLINE
  5
9F
330
2
100
AcDbEntity
  8
0
  6
Continuous
 62
     7
100
AcDbSpline
210
0.0
220
0.0
230
1.0
 70
     8
 71
     3
 72
    17
 73
    13
 74
    11
 42
0.0000000001
 43
0.0000000001
 44
0.0000000001
 12
-0.9999939306564892
 22
-0.0034840565702709
 32
0.0
 13
-0.9999989852097652
 23
0.0014246330894821
 33
0.0
 40
0.0
 40
0.0
 40
0.0
 40
0.0
 40
1.206276057792631
 40
2.526066467508708
 40
3.953195323199315
 40
5.480614974790297
 40
7.10308454924781
 40
8.81379819953114
 40
10.60639268599683
 40
12.47560784130619
 40
14.41306797459582
 40
16.41234958865398
 40
16.41234958865398
 40
16.41234958865398
 40
16.41234958865398
 10
1825.92042328874
 20
-2477.634288298727
 30
0.0
 10
1825.51833370991
 20
-2477.635689210069
 30
0.0
 10
1824.676315305417
 20
-2477.638240098
 30
0.0
 10
1823.358586812054
 20
-2477.641226593656
 30
0.0
 10
1821.933808904159
 20
-2477.643506495017
 30
0.0
 10
1820.40813694235
 20
-2477.645072925338
 30
0.0
 10
1818.787936140691
 20
-2477.645916074307
 30
0.0
 10
1817.079343522703
 20
-2477.646030706723
 30
0.0
 10
1815.288502481823
 20
-2477.64543554751
 30
0.0
 10
1813.422079634117
 20
-2477.644142893788
 30
0.0
 10
1811.486761641148
 20
-2477.642171771654
 30
0.0
 10
1810.174515489222
 20
-2477.640461156935
 30
0.0
 10
1809.50808896082
 20
-2477.639511742687
 30
0.0
 11
1825.92042328874
 21
-2477.634288298727
 31
0.0
 11
1824.7141528768
 21
-2477.637978946667
 31
0.0
 11
1823.39436593548
 21
-2477.641004686107
 31
0.0
 11
1821.96723895992
 21
-2477.643321229607
 31
0.0
 11
1820.43982014024
 21
-2477.644915392027
 31
0.0
 11
1818.81735079692
 21
-2477.645781432967
 31
0.0
 11
1817.10663715206
 21
-2477.645917653167
 31
0.0
 11
1815.3140427591
 21
-2477.645338657627
 31
0.0
 11
1813.44482804186
 21
-2477.644058934507
 31
0.0
 11
1811.50736889672
 21
-2477.642102151528
 31
0.0
 11
1809.50808896082
 21
-2477.639511742687
 31
0.0
  0
SPLINE
  5
A2
330
2
100
AcDbEntity
  8
0
  6
Continuous
 62
     7
100
AcDbSpline
210
0.0
220
0.0
230
1.0
 70
     8
 71
     3
 72
    15
 73
    11
 74
     9
 42
0.0000000001
 43
0.0000000001
 44
0.0000000001
 12
-0.9999989884496958
 22
0.001422357052556
 32
0.0
 13
-0.9999999999998063
 23
0.0000006225641087
 33
0.0
 40
0.0
 40
0.0
 40
0.0
 40
0.0
 40
2.09971806259697
 40
4.252767774875216
 40
6.452074486476639
 40
8.690919227820995
 40
10.96166263186198
 40
13.25625004750058
 40
15.56710895560759
 40
17.88628648113198
 40
17.88628648113198
 40
17.88628648113198
 40
17.88628648113198
 10
1809.50808154148
 20
-2477.639507549147
 30
0.0
 10
1808.808176228604
 20
-2477.638512032882
 30
0.0
 10
1807.390588340558
 20
-2477.63653905981
 30
0.0
 10
1805.23989849913
 20
-2477.633862497197
 30
0.0
 10
1803.04283261293
 20
-2477.631578410831
 30
0.0
 10
1800.806535030183
 20
-2477.629778267365
 30
0.0
 10
1798.538476852958
 20
-2477.628493971448
 30
0.0
 10
1796.246413732082
 20
-2477.627700132127
 30
0.0
 10
1793.938205804377
 20
-2477.627319626917
 30
0.0
 10
1792.394860324694
 20
-2477.627266414066
 30
0.0
 10
1791.62180114952
 20
-2477.627265932787
 30
0.0
 11
1809.50808154148
 21
-2477.639507549147
 31
0.0
 11
1807.40836547168
 21
-2477.636614692347
 31
0.0
 11
1805.255317402879
 21
-2477.633954433507
 31
0.0
 11
1803.05601187008
 21
-2477.631677353987
 31
0.0
 11
1800.817167854
 21
-2477.629875269708
 31
0.0
 11
1798.54642481866
 21
-2477.628581264168
 31
0.0
 11
1796.25183754602
 21
-2477.627771174347
 31
0.0
 11
1793.9409786727
 21
-2477.627370204867
 31
0.0
 11
1791.62180114952
 21
-2477.627265932787
 31
0.0
  0
SPLINE
  5
A4
330
2
100
AcDbEntity
  8
0
  6
Continuous
 62
     7
100
AcDbSpline
210
0.0
220
0.0
230
1.0
 70
     8
 71
     3
 72
    15
 73
    11
 74
     9
 42
0.0000000001
 43
0.0000000001
 44
0.0000000001
 12
-0.9904958291431118
 22
0.1375427658951913
 32
0.0
 13
-0.9866430969901966
 23
0.1628968973356881
 33
0.0
 40
0.0
 40
0.0
 40
0.0
 40
0.0
 40
3.046342336776473
 40
6.2305533595745
 40
9.5653105893526
 40
13.07228316082627
 40
16.77287296052944
 40
20.68856009920485
 40
24.84324621079601
 40
29.26668631138046
 40
29.26668631138046
 40
29.26668631138046
 40
29.26668631138046
 10
1735.37550443736
 20
-2478.332474428388
 30
0.0
 10
1734.369707977787
 20
-2478.192806978099
 30
0.0
 10
1732.313160812423
 20
-2477.903046066499
 30
0.0
 10
1729.158171233905
 20
-2477.442353100677
 30
0.0
 10
1725.85310321342
 20
-2476.946971160945
 30
0.0
 10
1722.379686030572
 20
-2476.413711883746
 30
0.0
 10
1718.716638181776
 20
-2475.839667073658
 30
0.0
 10
1714.841980565895
 20
-2475.22150269525
 30
0.0
 10
1710.730996512725
 20
-2474.555343917633
 30
0.0
 10
1707.90937169193
 20
-2474.092231329972
 30
0.0
 10
1706.4545861452
 20
-2473.852043107327
 30
0.0
 11
1735.37550443736
 21
-2478.332474428388
 31
0.0
 11
1732.35902218484
 21
-2477.906990641307
 31
0.0
 11
1729.2081145395
 21
-2477.447664125367
 31
0.0
 11
1725.91016352048
 21
-2476.953574196607
 31
0.0
 11
1722.44374941954
 21
-2476.421756654707
 31
0.0
 11
1718.7877312782
 21
-2475.849134426827
 31
0.0
 11
1714.92089760726
 21
-2475.232528288947
 31
0.0
 11
1710.81964716614
 21
-2474.568328390527
 31
0.0
 11
1706.4545861452
 21
-2473.852043107327
 31
0.0
  0
SPLINE
  5
A5
330
2
100
AcDbEntity
  8
0
  6
Continuous
 62
     7
100
AcDbSpline
210
0.0
220
0.0
230
1.0
 70
     8
 71
     3
 72
    25
 73
    21
 74
    19
 42
0.0000000001
 43
0.0000000001
 44
0.0000000001
 12
-0.9995782440802885
 22
0.0290402128326727
 32
0.0
 13
-0.9905133931742106
 23
0.1374162215406599
 33
0.0
 40
0.0
 40
0.0
 40
0.0
 40
0.0
 40
2.399051637426905
 40
4.746058644056773
 40
7.048987507614843
 40
9.317666120128837
 40
11.563590250317
 40
13.80519670400013
 40
16.0623396092111
 40
18.34578658032221
 40
20.66366142589667
 40
23.02369934023579
 40
25.43374041437953
 40
27.90201275269334
 40
30.4372424110417
 40
33.04814077279853
 40
35.74400491362302
 40
38.53492773387952
 40
41.430312259229
 40
44.43888088265074
 40
44.43888088265074
 40
44.43888088265074
 40
44.43888088265074
 10
1779.64102195898
 20
-2481.996062125328
 30
0.0
 10
1778.841675351248
 20
-2481.972839135278
 30
0.0
 10
1777.260446246819
 20
-2481.922536303854
 30
0.0
 10
1774.912402611548
 20
-2481.835037543904
 30
0.0
 10
1772.608283340023
 20
-2481.736715886143
 30
0.0
 10
1770.338381508826
 20
-2481.627632691711
 30
0.0
 10
1768.089510931103
 20
-2481.507430242001
 30
0.0
 10
1765.845166634709
 20
-2481.375209490865
 30
0.0
 10
1763.589099495868
 20
-2481.229874210669
 30
0.0
 10
1761.308510551659
 20
-2481.070273272535
 30
0.0
 10
1758.994654597126
 20
-2480.895253906282
 30
0.0
 10
1756.639782730743
 20
-2480.703518693497
 30
0.0
 10
1754.236138117383
 20
-2480.493548805503
 30
0.0
 10
1751.775667000241
 20
-2480.263559961244
 30
0.0
 10
1749.250061223521
 20
-2480.01152155298
 30
0.0
 10
1746.650695394483
 20
-2479.735154534262
 30
0.0
 10
1743.968542255646
 20
-2479.431844403205
 30
0.0
 10
1741.194374472791
 20
-2479.098848248244
 30
0.0
 10
1738.319322006351
 20
-2478.732386226995
 30
0.0
 10
1736.368846942621
 20
-2478.470283139213
 30
0.0
 10
1735.37550443736
 20
-2478.332474428388
 30
0.0
 11
1779.64102195898
 21
-2481.996062125328
 31
0.0
 11
1777.2431832393
 21
-2481.919784779787
 31
0.0
 11
1774.89780505478
 21
-2481.832360179427
 31
0.0
 11
1772.5969711195
 21
-2481.734153494967
 31
0.0
 11
1770.33090898158
 21
-2481.625226758287
 31
0.0
 11
1768.08818816096
 21
-2481.505316294527
 31
0.0
 11
1765.85046219954
 21
-2481.373475425367
 31
0.0
 11
1763.59798824374
 21
-2481.228371417887
 31
0.0
 11
1761.32011285792
 21
-2481.068954365627
 31
0.0
 11
1759.00884109998
 21
-2480.894121128808
 31
0.0
 11
1756.65658828862
 21
-2480.702586096587
 31
0.0
 11
1754.25569175692
 21
-2480.492839051007
 31
0.0
 11
1751.79813365706
 21
-2480.263107638487
 31
0.0
 11
1749.2754350728
 21
-2480.011351261127
 31
0.0
 11
1746.67917076826
 21
-2479.735304315128
 31
0.0
 11
1744.00037792926
 21
-2479.432397742887
 31
0.0
 11
1741.22935807126
 21
-2479.099682947307
 31
0.0
 11
1738.3571634372
 21
-2478.733965113848
 31
0.0
 11
1735.37550443736
 21
-2478.332474428388
 31
0.0
  0
SPLINE
  5
A6
330
2
100
AcDbEntity
  8
0
  6
Continuous
 62
     7
100
AcDbSpline
210
0.0
220
0.0
230
1.0
 70
     8
 71
     3
 72
    10
 73
     6
 74
     4
 42
0.0000000001
 43
0.0000000001
 44
0.0000000001
 12
0.1607073404562463
 22
0.9870021026945588
 32
0.0
 13
0.2148160161972888
 23
0.9766545342059934
 33
0.0
 40
0.0
 40
0.0
 40
0.0
 40
0.0
 40
5.535823619850672
 40
10.94793105209258
 40
16.23153984474747
 40
16.23153984474747
 40
16.23153984474747
 40
16.23153984474747
 10
1776.63832903372
 20
-2497.945625895427
 30
0.0
 10
1776.934878197447
 20
-2496.124336044447
 30
0.0
 10
1777.546245128247
 20
-2492.526434575562
 30
0.0
 10
1778.539270048283
 20
-2487.207577726139
 30
0.0
 10
1779.262687361653
 20
-2483.716148953433
 30
0.0
 10
1779.64102195898
 20
-2481.996062125328
 30
0.0
 11
1776.63832903372
 21
-2497.945625895427
 31
0.0
 11
1777.56808912746
 21
-2492.488438953587
 31
0.0
 11
1778.56481556682
 21
-2487.168904832707
 31
0.0
 11
1779.64102195898
 21
-2481.996062125328
 31
0.0
  0
SPLINE
  5
A7
330
2
100
AcDbEntity
  8
0
  6
Continuous
 62
     7
100
AcDbSpline
210
0.0
220
0.0
230
1.0
 70
     8
 71
     3
 72
    15
 73
    11
 74
     9
 42
0.0000000001
 43
0.0000000001
 44
0.0000000001
 12
-0.999715029159104
 22
0.0238717505309517
 32
0.0
 13
-0.0350318131894184
 23
0.999386197655672
 33
0.0
 40
0.0
 40
0.0
 40
0.0
 40
0.0
 40
4.683307219687239
 40
9.381527925861423
 40
14.08330924630107
 40
18.78978172583119
 40
23.50103316984565
 40
28.2161702964019
 40
32.93430684797803
 40
37.64188219018174
 40
37.64188219018174
 40
37.64188219018174
 40
37.64188219018174
 10
1707.13848074388
 20
-2496.295192366228
 30
0.0
 10
1705.577823205983
 20
-2496.257926119025
 30
0.0
 10
1702.450579857403
 20
-2495.888501660941
 30
0.0
 10
1697.949283782243
 20
-2494.464606577037
 30
0.0
 10
1693.786570456059
 20
-2492.217516710992
 30
0.0
 10
1690.117169946058
 20
-2489.225578800454
 30
0.0
 10
1687.072745891716
 20
-2485.593687314541
 30
0.0
 10
1684.764523357802
 20
-2481.449756343865
 30
0.0
 10
1683.278142114534
 20
-2476.948148799609
 30
0.0
 10
1682.870333886121
 20
-2473.810488131908
 30
0.0
 10
1682.8153622528
 20
-2472.242259524767
 30
0.0
 11
1707.13848074388
 21
-2496.295192366228
 31
0.0
 11
1702.48763060948
 21
-2495.744774759927
 31
0.0
 11
1698.00801618036
 21
-2494.328324135887
 31
0.0
 11
1693.87069008368
 21
-2492.094654430007
 31
0.0
 11
1690.2230004093
 21
-2489.120559065027
 31
0.0
 11
1687.19655748074
 21
-2485.509945077227
 31
0.0
 11
1684.90188702056
 21
-2481.390842553448
 31
0.0
 11
1683.42309695808
 21
-2476.910441626027
 31
0.0
 11
1682.8153622528
 21
-2472.242259524767
 31
0.0
  0
SPLINE
  5
A8
330
2
100
AcDbEntity
  8
0
  6
Continuous
 62
     7
100
AcDbSpline
210
0.0
220
0.0
230
1.0
 70
     8
 71
     3
 72
    10
 73
     6
 74
     4
 42
0.0000000001
 43
0.0000000001
 44
0.0000000001
 12
-0.9803860930010429
 22
0.1970865511650923
 32
0.0
 13
-0.9982884673090737
 23
0.0584819291550863
 33
0.0
 40
0.0
 40
0.0
 40
0.0
 40
0.0
 40
0.0914359727138477
 40
0.1826977305712699
 40
0.2744561009923943
 40
0.2744561009923943
 40
0.2744561009923943
 40
0.2744561009923943
 10
1678.92051444434
 20
-2352.927134777287
 30
0.0
 10
1678.890633592324
 20
-2352.921127843782
 30
0.0
 10
1678.830422102709
 20
-2352.911370705296
 30
0.0
 10
1678.739144309552
 20
-2352.904667233502
 30
0.0
 10
1678.678305731383
 20
-2352.900217939013
 30
0.0
 10
1678.64777195706
 20
-2352.898429203507
 30
0.0
 11
1678.92051444434
 21
-2352.927134777287
 31
0.0
 11
1678.8302270303
 21
-2352.912687633207
 31
0.0
 11
1678.73931685906
 21
-2352.904684558027
 31
0.0
 11
1678.64777195706
 21
-2352.898429203507
 31
0.0
  0
SPLINE
  5
A9
330
2
100
AcDbEntity
  8
0
  6
Continuous
 62
     7
100
AcDbSpline
210
0.0
220
0.0
230
1.0
 70
     8
 71
     3
 72
    23
 73
    19
 74
    17
 42
0.0000000001
 43
0.0000000001
 44
0.0000000001
 12
-0.1150630431525198
 22
0.993358191238428
 32
0.0
 13
-0.9780095905808277
 23
0.2085599212023295
 33
0.0
 40
0.0
 40
0.0
 40
0.0
 40
0.0
 40
0.2715492753220214
 40
0.5434173713468225
 40
0.8167819896067042
 40
1.092736557071032
 40
1.372256886420377
 40
1.656236389898759
 40
1.945479070304619
 40
2.240710652950222
 40
2.542579904454332
 40
2.851660100273524
 40
3.168449698824528
 40
3.493369022796413
 40
3.826763168311206
 40
4.168879315338448
 40
4.519898791456567
 40
4.87989388126361
 40
4.87989388126361
 40
4.87989388126361
 40
4.87989388126361
 10
1681.90474693408
 20
-2356.373704295107
 30
0.0
 10
1681.894331838751
 20
-2356.283789062786
 30
0.0
 10
1681.868648118942
 20
-2356.104370570507
 30
0.0
 10
1681.814758795915
 20
-2355.837344316237
 30
0.0
 10
1681.744501443991
 20
-2355.572602391001
 30
0.0
 10
1681.656721309128
 20
-2355.310431241017
 30
0.0
 10
1681.550202604598
 20
-2355.051441776726
 30
0.0
 10
1681.423731178317
 20
-2354.796605250835
 30
0.0
 10
1681.276154834845
 20
-2354.547244337416
 30
0.0
 10
1681.106446664867
 20
-2354.305031964296
 30
0.0
 10
1680.913767707144
 20
-2354.071975858421
 30
0.0
 10
1680.697530661029
 20
-2353.850395291903
 30
0.0
 10
1680.457461719529
 20
-2353.642888404974
 30
0.0
 10
1680.193656510101
 20
-2353.452287951499
 30
0.0
 10
1679.906640245975
 20
-2353.281615602587
 30
0.0
 10
1679.59739599887
 20
-2353.13400673488
 30
0.0
 10
1679.267468316493
 20
-2353.012667466249
 30
0.0
 10
1679.037873994471
 20
-2352.952161626475
 30
0.0
 10
1678.92051444434
 20
-2352.927134777287
 30
0.0
 11
1681.90474693408
 21
-2356.373704295107
 31
0.0
 11
1681.86612375504
 21
-2356.104915792807
 31
0.0
 11
1681.81220349204
 21
-2355.838448408547
 31
0.0
 11
1681.74195446058
 21
-2355.574264215047
 31
0.0
 11
1681.65422233988
 21
-2355.312627064968
 31
0.0
 11
1681.54779832108
 21
-2355.054159382767
 31
0.0
 11
1681.42147033142
 21
-2354.799825748687
 31
0.0
 11
1681.27408930792
 21
-2354.550947943167
 31
0.0
 11
1681.10462912106
 21
-2354.309194075647
 31
0.0
 11
1680.91225044816
 21
-2354.076566710067
 31
0.0
 11
1680.69636415654
 21
-2353.855379738167
 31
0.0
 11
1680.45669218224
 21
-2353.648225219787
 31
0.0
 11
1680.19332692792
 21
-2353.457932524428
 31
0.0
 11
1679.90677981496
 21
-2353.287514191147
 31
0.0
 11
1679.5980466402
 21
-2353.140112410767
 31
0.0
 11
1679.2686117263
 21
-2353.018921197727
 31
0.0
 11
1678.92051444434
 21
-2352.927134777287
 31
0.0
  0
LINE
  5
AA
330
2
100
AcDbEntity
  8
0
  6
Continuous
 62
     7
100
AcDbLine
 10
1693.99121502932
 20
-2460.756073690987
 30
0.0
 11
1681.90474693408
 21
-2356.373704295107
 31
0.0
  0
SPLINE
  5
AB
330
2
100
AcDbEntity
  8
0
  6
Continuous
 62
     7
100
AcDbSpline
210
0.0
220
0.0
230
1.0
 70
     8
 71
     3
 72
    24
 73
    20
 74
    18
 42
0.0000000001
 43
0.0000000001
 44
0.0000000001
 12
-0.9866433747023421
 22
0.1628952152642106
 32
0.0
 13
-0.1150646336870167
 23
0.993358007001742
 33
0.0
 40
0.0
 40
0.0
 40
0.0
 40
0.0
 40
1.13235327656961
 40
2.268268600116838
 40
3.405440039633032
 40
4.542235029616588
 40
5.679620917382115
 40
6.818681752660648
 40
7.957951830551666
 40
9.096339513440085
 40
10.23536622147524
 40
11.37648198506779
 40
12.52026075099535
 40
13.66578579919241
 40
14.81168206968988
 40
15.95642479866077
 40
17.10091525409035
 40
18.24694435119362
 40
19.39517819955738
 40
19.39517819955738
 40
19.39517819955738
 40
19.39517819955738
 10
1706.4545861452
 20
-2473.852043107327
 30
0.0
 10
1706.082176525817
 20
-2473.790558130413
 30
0.0
 10
1705.340502530927
 20
-2473.639296766147
 30
0.0
 10
1704.247694313877
 20
-2473.328340009951
 30
0.0
 10
1703.180115626924
 20
-2472.935013756274
 30
0.0
 10
1702.145000733291
 20
-2472.461675398925
 30
0.0
 10
1701.148175034813
 20
-2471.910954128533
 30
0.0
 10
1700.195291256586
 20
-2471.285770670821
 30
0.0
 10
1699.292320798902
 20
-2470.589891729341
 30
0.0
 10
1698.444720344321
 20
-2469.827563635321
 30
0.0
 10
1697.65690189336
 20
-2469.002749537211
 30
0.0
 10
1696.932767567777
 20
-2468.119166128128
 30
0.0
 10
1696.276610223758
 20
-2467.181340508026
 30
0.0
 10
1695.692905251723
 20
-2466.194929328876
 30
0.0
 10
1695.185858481594
 20
-2465.166647919052
 30
0.0
 10
1694.758657523784
 20
-2464.103093037512
 30
0.0
 10
1694.413538773304
 20
-2463.010077340249
 30
0.0
 10
1694.152290750806
 20
-2461.892911023346
 30
0.0
 10
1694.035255398369
 20
-2461.136276120048
 30
0.0
 10
1693.99121502932
 20
-2460.756073690987
 30
0.0
 11
1706.4545861452
 21
-2473.852043107327
 31
0.0
 11
1705.34510265932
 21
-2473.625613565267
 31
0.0
 11
1704.25253464634
 21
-2473.314810155887
 31
0.0
 11
1703.18548630292
 21
-2472.921660418947
 31
0.0
 11
1702.15165001144
 21
-2472.448918024327
 31
0.0
 11
1701.15609509628
 21
-2471.898902507647
 31
0.0
 11
1700.2037154618
 21
-2471.274056431967
 31
0.0
 11
1699.30132104612
 21
-2470.578628053967
 31
0.0
 11
1698.45490614764
 21
-2469.817373604927
 31
0.0
 11
1697.66817290018
 21
-2468.993703380287
 31
0.0
 11
1696.94485205574
 21
-2468.111120725847
 31
0.0
 11
1696.2891489704
 21
-2467.173953009127
 31
0.0
 11
1695.70577145288
 21
-2466.188103980067
 31
0.0
 11
1695.19898704354
 21
-2465.160364798567
 31
0.0
 11
1694.77230665992
 21
-2464.098112584747
 31
0.0
 11
1694.42769928462
 21
-2463.006735399967
 31
0.0
 11
1694.1667466874
 21
-2461.890811373247
 31
0.0
 11
1693.99121502932
 21
-2460.756073690987
 31
0.0
  0
LINE
  5
AC
330
2
100
AcDbEntity
  8
0
  6
Continuous
 62
     7
100
AcDbLine
 10
1791.62180114952
 20
-2477.627265932787
 30
0.0
 11
1786.24517905036
 21
-2477.628233649927
 31
0.0
  0
LINE
  5
AE
330
2
100
AcDbEntity
  8
0
  6
Continuous
 62
     7
100
AcDbLine
 10
1786.24517926626
 20
-2477.628233319727
 30
0.0
 11
1779.78402538138
 21
-2477.628702838727
 31
0.0
  0
SPLINE
  5
AF
330
2
100
AcDbEntity
  8
0
  6
Continuous
 62
     7
100
AcDbSpline
210
0.0
220
0.0
230
1.0
 70
     8
 71
     3
 72
     9
 73
     5
 74
     3
 42
0.0000000001
 43
0.0000000001
 44
0.0000000001
 12
-0.0973937740688685
 22
-0.9952459257754448
 32
0.0
 13
-0.211565190511322
 23
-0.9773638883056342
 33
0.0
 40
0.0
 40
0.0
 40
0.0
 40
0.0
 40
0.2030622164099345
 40
1.620584007196266
 40
1.620584007196266
 40
1.620584007196266
 40
1.620584007196266
 10
1679.18618552844
 20
-2351.328870264907
 30
0.0
 10
1679.179593196564
 20
-2351.396235879427
 30
0.0
 10
1679.122326907356
 20
-2351.933431090458
 30
0.0
 10
1679.020480533581
 20
-2352.465323240887
 30
0.0
 10
1678.92051444434
 20
-2352.927134777287
 30
0.0
 11
1679.18618552844
 21
-2351.328870264907
 31
0.0
 11
1679.16454211732
 21
-2351.530775753907
 31
0.0
 11
1678.92051444434
 21
-2352.927134777287
 31
0.0
  0
SPLINE
  5
B0
330
2
100
AcDbEntity
  8
0
  6
Continuous
 62
     7
100
AcDbSpline
210
0.0
220
0.0
230
1.0
 70
     8
 71
     3
 72
    25
 73
    21
 74
    19
 42
0.0000000001
 43
0.0000000001
 44
0.0000000001
 12
-0.9995695123726651
 22
0.029339221787102
 32
0.0
 13
-0.9904587881042164
 23
0.137809248844651
 33
0.0
 40
0.0
 40
0.0
 40
0.0
 40
0.0
 40
2.371962022200141
 40
4.692225549363718
 40
6.96860510528244
 40
9.210757636522904
 40
11.42999100297276
 40
13.64461617956423
 40
15.87450229738366
 40
18.130307015713
 40
20.41999079330432
 40
22.751147434198
 40
25.13146277483408
 40
27.5690489815716
 40
30.07256161434465
 40
32.65065519973268
 40
35.31255387078624
 40
38.06822743692481
 40
40.92695689211079
 40
43.8972388961578
 40
43.8972388961578
 40
43.8972388961578
 40
43.8972388961578
 10
1779.78402538138
 20
-2477.628702838727
 30
0.0
 10
1778.993711740747
 20
-2477.605505665447
 30
0.0
 10
1777.430432574084
 20
-2477.555318307274
 30
0.0
 10
1775.109191146623
 20
-2477.468106359161
 30
0.0
 10
1772.831685081936
 20
-2477.370194447856
 30
0.0
 10
1770.588377898431
 20
-2477.261629736115
 30
0.0
 10
1768.366245120629
 20
-2477.142049165776
 30
0.0
 10
1766.148881192102
 20
-2477.010556547587
 30
0.0
 10
1763.9201094221
 20
-2476.866073433477
 30
0.0
 10
1761.667216582553
 20
-2476.707452788336
 30
0.0
 10
1759.381595220652
 20
-2476.53355139213
 30
0.0
 10
1757.055648377972
 20
-2476.343090331522
 30
0.0
 10
1754.68175500233
 20
-2476.134572635245
 30
0.0
 10
1752.251973112918
 20
-2475.906238988177
 30
0.0
 10
1749.758072306715
 20
-2475.656095359935
 30
0.0
 10
1747.191491506426
 20
-2475.381890095503
 30
0.0
 10
1744.543277823153
 20
-2475.081090654577
 30
0.0
 10
1741.804322412476
 20
-2474.750869325222
 30
0.0
 10
1738.965824407946
 20
-2474.388102291315
 30
0.0
 10
1737.040345260625
 20
-2474.127567168379
 30
0.0
 10
1736.05969795594
 20
-2473.991123057767
 30
0.0
 11
1779.78402538138
 21
-2477.628702838727
 31
0.0
 11
1777.41328503778
 21
-2477.552584128887
 31
0.0
 11
1775.09465831868
 21
-2477.465446462167
 31
0.0
 11
1772.82038068284
 21
-2477.367645042328
 31
0.0
 11
1770.58085063562
 21
-2477.259233138247
 31
0.0
 11
1768.36482560616
 21
-2477.139944397907
 31
0.0
 11
1766.15408465808
 21
-2477.008837062967
 31
0.0
 11
1763.92886934474
 21
-2476.864584133287
 31
0.0
 11
1761.67863563846
 21
-2476.706144257127
 31
0.0
 11
1759.39555130446
 21
-2476.532426885487
 31
0.0
 11
1757.07217204978
 21
-2476.342163585548
 31
0.0
 11
1754.70098797834
 21
-2476.133867593707
 31
0.0
 11
1752.27409516894
 21
-2475.905793467687
 31
0.0
 11
1749.78308232014
 21
-2475.655932527227
 31
0.0
 11
1747.21957733032
 21
-2475.382055360987
 31
0.0
 11
1744.5746853557
 21
-2475.081637356287
 31
0.0
 11
1741.83882371288
 21
-2474.751792128247
 31
0.0
 11
1739.00315732682
 21
-2474.389396978007
 31
0.0
 11
1736.05969795594
 21
-2473.991123057767
 31
0.0
  0
SPLINE
  5
B1
330
2
100
AcDbEntity
  8
0
  6
Continuous
 62
     7
100
AcDbSpline
210
0.0
220
0.0
230
1.0
 70
     8
 71
     3
 72
     8
 73
     4
 74
     2
 42
0.0000000001
 43
0.0000000001
 44
0.0000000001
 12
0.6051953124849876
 22
-0.7960770275207034
 32
0.0
 13
0.5503660961921814
 23
-0.8349234456895905
 33
0.0
 40
0.0
 40
0.0
 40
0.0
 40
0.0
 40
0.3234547076919046
 40
0.3234547076919046
 40
0.3234547076919046
 40
0.3234547076919046
 10
1674.42522073492
 20
-2351.310908728567
 30
0.0
 10
1674.490471825885
 20
-2351.396740349313
 30
0.0
 10
1674.552738520271
 20
-2351.484910160444
 30
0.0
 10
1674.61207802186
 20
-2351.574930133467
 30
0.0
 11
1674.42522073492
 21
-2351.310908728567
 31
0.0
 11
1674.61207802186
 21
-2351.574930133467
 31
0.0
  0
LINE
  5
B2
330
2
100
AcDbEntity
  8
0
  6
Continuous
 62
     7
100
AcDbLine
 10
1674.61207802186
 20
-2351.574930133467
 30
0.0
 11
1674.7375511034
 21
-2351.775283608807
 31
0.0
  0
SPLINE
  5
B3
330
2
100
AcDbEntity
  8
0
  6
Continuous
 62
     7
100
AcDbSpline
210
0.0
220
0.0
230
1.0
 70
     8
 71
     3
 72
     8
 73
     4
 74
     2
 42
0.0000000001
 43
0.0000000001
 44
0.0000000001
 12
0.5110133832226691
 22
-0.8595727555985718
 32
0.0
 13
0.3515372973177383
 23
-0.9361738773297084
 33
0.0
 40
0.0
 40
0.0
 40
0.0
 40
0.0
 40
0.939400335098669
 40
0.939400335098669
 40
0.939400335098669
 40
0.939400335098669
 10
1674.7375511034
 20
-2351.775283608807
 30
0.0
 10
1674.897566484547
 20
-2352.044444587024
 30
0.0
 10
1675.033494299353
 20
-2352.329260633809
 30
0.0
 10
1675.14357238432
 20
-2352.622407985167
 30
0.0
 11
1674.7375511034
 21
-2351.775283608807
 31
0.0
 11
1675.14357238432
 21
-2352.622407985167
 31
0.0
  0
SPLINE
  5
B4
330
2
100
AcDbEntity
  8
0
  6
Continuous
 62
     7
100
AcDbSpline
210
0.0
220
0.0
230
1.0
 70
     8
 71
     3
 72
     8
 73
     4
 74
     2
 42
0.0000000001
 43
0.0000000001
 44
0.0000000001
 12
0.0231872586705493
 22
-0.9997311393746548
 32
0.0
 13
-0.20738934351166
 23
-0.9782584833252421
 33
0.0
 40
0.0
 40
0.0
 40
0.0
 40
0.0
 40
1.215239303954504
 40
1.215239303954504
 40
1.215239303954504
 40
1.215239303954504
 10
1676.01416957378
 20
-2351.364619266307
 30
0.0
 10
1676.023562263142
 20
-2351.769590124292
 30
0.0
 10
1675.978483472632
 20
-2352.177676772333
 30
0.0
 10
1675.89447424548
 20
-2352.573949491787
 30
0.0
 11
1676.01416957378
 21
-2351.364619266307
 31
0.0
 11
1675.89447424548
 21
-2352.573949491787
 31
0.0
  0
LINE
  5
B5
330
2
100
AcDbEntity
  8
0
  6
Continuous
 62
     7
100
AcDbLine
 10
1736.0597322434
 20
-2473.990916786907
 30
0.0
 11
1707.33988809824
 21
-2469.207540524367
 31
0.0
  0
SPLINE
  5
B7
330
2
100
AcDbEntity
  8
0
  6
Continuous
 62
     7
100
AcDbSpline
210
0.0
220
0.0
230
1.0
 70
     8
 71
     3
 72
    15
 73
    11
 74
     9
 42
0.0000000001
 43
0.0000000001
 44
0.0000000001
 12
-0.99046889945757
 22
0.1377365572653473
 32
0.0
 13
-0.9866385500869814
 23
0.1629244348839653
 33
0.0
 40
0.0
 40
0.0
 40
0.0
 40
0.0
 40
3.02287123458457
 40
6.185957312157771
 40
9.501829917945149
 40
12.9919689512206
 40
16.67759563694665
 40
20.58007955473717
 40
24.72319180422416
 40
29.1365504398664
 40
29.1365504398664
 40
29.1365504398664
 40
29.1365504398664
 10
1736.05958283552
 20
-2473.992458005567
 30
0.0
 10
1735.06156285388
 20
-2473.853671379931
 30
0.0
 10
1733.019925839674
 20
-2473.564639283612
 30
0.0
 10
1729.885885239672
 20
-2473.106944514445
 30
0.0
 10
1726.599633591685
 20
-2472.613845286893
 30
0.0
 10
1723.142961199627
 20
-2472.082849300789
 30
0.0
 10
1719.494777446607
 20
-2471.510839107806
 30
0.0
 10
1715.633239428823
 20
-2470.894522976011
 30
0.0
 10
1711.533743786557
 20
-2470.230107939972
 30
0.0
 10
1708.719286082175
 20
-2469.767896735698
 30
0.0
 10
1707.26782282708
 20
-2469.528215415147
 30
0.0
 11
1736.05958283552
 21
-2473.992458005567
 31
0.0
 11
1733.06651065048
 21
-2473.569055837387
 31
0.0
 11
1729.9365755921
 21
-2473.112306382587
 31
0.0
 11
1726.65736146474
 21
-2472.620609479267
 31
0.0
 11
1723.20763791208
 21
-2472.091007853687
 31
0.0
 11
1719.56644666006
 21
-2471.520420145487
 31
0.0
 11
1715.71268775342
 21
-2470.905665708247
 31
0.0
 11
1711.62289176234
 21
-2470.243134302807
 31
0.0
 11
1707.26782282708
 21
-2469.528215415147
 31
0.0
  0
LINE
  5
B8
330
2
100
AcDbEntity
  8
0
  6
Continuous
 62
     7
100
AcDbLine
 10
1707.26782282708
 20
-2469.528215415147
 30
0.0
 11
1707.34022172216
 21
-2469.206953741187
 31
0.0
  0
SPLINE
  5
B9
330
2
100
AcDbEntity
  8
0
  6
Continuous
 62
     7
100
AcDbSpline
210
0.0
220
0.0
230
1.0
 70
     8
 71
     3
 72
     9
 73
     5
 74
     3
 42
0.0000000001
 43
0.0000000001
 44
0.0000000001
 12
-0.0526359510192635
 22
-0.9986137675098905
 32
0.0
 13
-0.0770807383801136
 23
-0.9970248541389409
 33
0.0
 40
0.0
 40
0.0
 40
0.0
 40
0.0
 40
0.1742712341652862
 40
1.57296610758985
 40
1.57296610758985
 40
1.57296610758985
 40
1.57296610758985
 10
1678.74467964234
 20
-2351.328457006907
 30
0.0
 10
1678.741621998291
 20
-2351.38646689148
 30
0.0
 10
1678.713072026724
 20
-2351.91000680812
 30
0.0
 10
1678.683721370391
 20
-2352.43358550146
 30
0.0
 10
1678.64778389252
 20
-2352.898430018847
 30
0.0
 11
1678.74467964234
 21
-2351.328457006907
 31
0.0
 11
1678.7352859832
 21
-2351.502474885947
 31
0.0
 11
1678.64778389252
 21
-2352.898430018847
 31
0.0
  0
SPLINE
  5
BA
330
2
100
AcDbEntity
  8
0
  6
Continuous
 62
     7
100
AcDbSpline
210
0.0
220
0.0
230
1.0
 70
     8
 71
     3
 72
    12
 73
     8
 74
     6
 42
0.0000000001
 43
0.0000000001
 44
0.0000000001
 12
-0.1150608239158908
 22
0.9933584482953756
 32
0.0
 13
-0.9935523402739894
 23
-0.1133743671915255
 33
0.0
 40
0.0
 40
0.0
 40
0.0
 40
0.0
 40
0.3033668503463778
 40
1.020698341812374
 40
2.116605594147157
 40
3.492717927385628
 40
5.01998813193792
 40
5.01998813193792
 40
5.01998813193792
 40
5.01998813193792
 10
1686.86738203038
 20
-2356.407718400307
 30
0.0
 10
1686.85574681713
 20
-2356.307267725732
 30
0.0
 10
1686.416968348452
 20
-2356.201049562655
 30
0.0
 10
1685.801258569014
 20
-2356.148920371057
 30
0.0
 10
1684.692849167189
 20
-2356.148333757561
 30
0.0
 10
1683.378684799955
 20
-2356.224026287488
 30
0.0
 10
1682.410554562735
 20
-2356.315986530783
 30
0.0
 10
1681.90474693408
 20
-2356.373704295107
 30
0.0
 11
1686.86738203038
 21
-2356.407718400307
 31
0.0
 11
1686.60745541282
 21
-2356.251290783267
 31
0.0
 11
1685.89531104336
 21
-2356.165181168847
 31
0.0
 11
1684.7994295318
 21
-2356.157669954507
 31
0.0
 11
1683.42519208724
 21
-2356.229479422268
 31
0.0
 11
1681.90474693408
 21
-2356.373704295107
 31
0.0
  0
SPLINE
  5
BB
330
2
100
AcDbEntity
  8
0
  6
Continuous
 62
     7
100
AcDbSpline
210
0.0
220
0.0
230
1.0
 70
     8
 71
     3
 72
    15
 73
    11
 74
     9
 42
0.0000000001
 43
0.0000000001
 44
0.0000000001
 12
-0.9999976037641541
 22
0.0021891701508914
 32
0.0
 13
-0.9999999999999813
 23
0.0000001937371471
 33
0.0
 40
0.0
 40
0.0
 40
0.0
 40
0.0
 40
1.857197565578614
 40
3.762790934673013
 40
5.710437293007798
 40
7.694185118876728
 40
9.707216854678776
 40
11.7422881764889
 40
13.79254007723923
 40
15.85065149536903
 40
15.85065149536903
 40
15.85065149536903
 40
15.85065149536903
 10
1807.47243927038
 20
-2482.358813754407
 30
0.0
 10
1806.853374898615
 20
-2482.357458513916
 30
0.0
 10
1805.599114119709
 20
-2482.354774495531
 30
0.0
 10
1803.695638518183
 20
-2482.351115472079
 30
0.0
 10
1801.74997856943
 20
-2482.347934059022
 30
0.0
 10
1799.768504904099
 20
-2482.3453533364
 30
0.0
 10
1797.757888822276
 20
-2482.343431002294
 30
0.0
 10
1795.725104196201
 20
-2482.342164688373
 30
0.0
 10
1793.677292734431
 20
-2482.341495026328
 30
0.0
 10
1792.307838288896
 20
-2482.341376731438
 30
0.0
 10
1791.62180114952
 20
-2482.341376598527
 30
0.0
 11
1807.47243927038
 21
-2482.358813754407
 31
0.0
 11
1805.61524588038
 21
-2482.354875514887
 31
0.0
 11
1803.70965599332
 21
-2482.351232621487
 31
0.0
 11
1801.7620122178
 21
-2482.348060743147
 31
0.0
 11
1799.778266071
 21
-2482.345479717067
 31
0.0
 11
1797.7652352609
 21
-2482.343549190068
 31
0.0
 11
1795.73016434248
 21
-2482.342267841347
 31
0.0
 11
1793.6799125578
 21
-2482.341577951947
 31
0.0
 11
1791.62180114952
 21
-2482.341376598527
 31
0.0
  0
SPLINE
  5
BC
330
2
100
AcDbEntity
  8
0
  6
Continuous
 62
     7
100
AcDbSpline
210
0.0
220
0.0
230
1.0
 70
     8
 71
     3
 72
    17
 73
    13
 74
    11
 42
0.0000000001
 43
0.0000000001
 44
0.0000000001
 12
-0.9999849280309533
 22
-0.0054903288544037
 32
0.0
 13
-0.9999976106802723
 23
0.002186008633757
 33
0.0
 40
0.0
 40
0.0
 40
0.0
 40
0.0
 40
1.082445579716823
 40
2.262333665087226
 40
3.534545817683139
 40
4.893247136246798
 40
6.334205115343946
 40
7.851691411321856
 40
9.440405088626953
 40
11.09599810835526
 40
12.81133513484945
 40
14.58108198177707
 40
14.58108198177707
 40
14.58108198177707
 40
14.58108198177707
 10
1822.0534894783
 20
-2482.351472379707
 30
0.0
 10
1821.692679723257
 20
-2482.353453373774
 30
0.0
 10
1820.938576555178
 20
-2482.357001339379
 30
0.0
 10
1819.760401354745
 20
-2482.361054745548
 30
0.0
 10
1818.490137629377
 20
-2482.364102733988
 30
0.0
 10
1817.13284857993
 20
-2482.366172607989
 30
0.0
 10
1815.693800359625
 20
-2482.367286669377
 30
0.0
 10
1814.178080951916
 20
-2482.367445924082
 30
0.0
 10
1812.590816722489
 20
-2482.366682749363
 30
0.0
 10
1810.937602931546
 20
-2482.364998595262
 30
0.0
 10
1809.224045871356
 20
-2482.362401933685
 30
0.0
 10
1808.062353476526
 20
-2482.360103315036
 30
0.0
 10
1807.47243927038
 20
-2482.358813754407
 30
0.0
 11
1822.0534894783
 21
-2482.351472379707
 31
0.0
 11
1820.97105618724
 21
-2482.356630233247
 31
0.0
 11
1819.79117530088
 21
-2482.360751883627
 31
0.0
 11
1818.5189669309
 21
-2482.363854232007
 31
0.0
 11
1817.16026725308
 21
-2482.365965761947
 31
0.0
 11
1815.7193097286
 21
-2482.367110387547
 31
0.0
 11
1814.2018234443
 21
-2482.367298649807
 31
0.0
 11
1812.61310994152
 21
-2482.366553975147
 31
0.0
 11
1810.95751776376
 21
-2482.364884270587
 31
0.0
 11
1809.24218268542
 21
-2482.362299028107
 31
0.0
 11
1807.47243927038
 21
-2482.358813754407
 31
0.0
  0
LINE
  5
BD
330
2
100
AcDbEntity
  8
0
  6
Continuous
 62
     7
100
AcDbLine
 10
1827.2469317457
 20
-2482.318865978067
 30
0.0
 11
1822.0534894783
 21
-2482.351472379707
 31
0.0
  0
SPLINE
  5
BE
330
2
100
AcDbEntity
  8
0
  6
Continuous
 62
     7
100
AcDbSpline
210
0.0
220
0.0
230
1.0
 70
     8
 71
     3
 72
    11
 73
     7
 74
     5
 42
0.0000000001
 43
0.0000000001
 44
0.0000000001
 12
1.0
 22
0.0
 32
0.0
 13
0.0627881095020724
 23
-0.9980268800514123
 33
0.0
 40
0.0
 40
0.0
 40
0.0
 40
0.0
 40
1.054332271427874
 40
2.126811971081464
 40
3.230215248028229
 40
4.360626231352313
 40
4.360626231352313
 40
4.360626231352313
 40
4.360626231352313
 10
1668.62180115052
 20
-2351.328204993187
 30
0.0
 10
1668.973245240996
 20
-2351.328204993187
 30
0.0
 10
1669.690196203673
 20
-2351.475057115801
 30
0.0
 10
1670.598226756145
 20
-2352.102076755867
 30
0.0
 10
1671.224471861628
 20
-2353.038205634609
 30
0.0
 10
1671.400249583786
 20
-2353.780141880319
 30
0.0
 10
1671.42390837332
 20
-2354.156202062607
 30
0.0
 11
1668.62180115052
 21
-2351.328204993187
 31
0.0
 11
1669.6548113832
 21
-2351.539170387868
 31
0.0
 11
1670.54106212022
 21
-2352.143134242167
 31
0.0
 11
1671.15901019344
 21
-2353.057267148467
 31
0.0
 11
1671.42390837332
 21
-2354.156202062607
 31
0.0
  0
SPLINE
  5
C1
330
2
100
AcDbEntity
  8
0
  6
Continuous
 62
     7
100
AcDbSpline
210
0.0
220
0.0
230
1.0
 70
     8
 71
     3
 72
    11
 73
     7
 74
     5
 42
0.0000000001
 43
0.0000000001
 44
0.0000000001
 12
0.1150307183098921
 22
-0.9933619349688765
 32
0.0
 13
0.9884622473478874
 23
-0.1514674406199692
 33
0.0
 40
0.0
 40
0.0
 40
0.0
 40
0.0
 40
3.243717774155842
 40
6.487523355929861
 40
9.73146856304117
 40
12.97554797060738
 40
12.97554797060738
 40
12.97554797060738
 40
12.97554797060738
 10
1698.92145705604
 20
-2460.474566070107
 30
0.0
 10
1699.045832784559
 20
-2461.54862799165
 30
0.0
 10
1699.651029760877
 20
-2463.671958350679
 30
0.0
 10
1701.527015547594
 20
-2466.386625268242
 30
0.0
 10
1704.171189545005
 20
-2468.360916947171
 30
0.0
 10
1706.271013147267
 20
-2469.04370148301
 30
0.0
 10
1707.33989648786
 20
-2469.207492284687
 30
0.0
 11
1698.92145705604
 21
-2460.474566070107
 31
0.0
 11
1699.81237635878
 21
-2463.593535097587
 31
0.0
 11
1701.65500018686
 21
-2466.263181531207
 31
0.0
 11
1704.25540046992
 21
-2468.202536804127
 31
0.0
 11
1707.33989648786
 21
-2469.207492284687
 31
0.0
  0
SPLINE
  5
C2
330
2
100
AcDbEntity
  8
0
  6
Continuous
 62
     7
100
AcDbSpline
210
0.0
220
0.0
230
1.0
 70
     8
 71
     3
 72
    11
 73
     7
 74
     5
 42
0.0000000001
 43
0.0000000001
 44
0.0000000001
 12
-0.9999715558603577
 22
0.0075423782864325
 32
0.0
 13
0.0348692573651449
 23
-0.9993918825419802
 33
0.0
 40
0.0
 40
0.0
 40
0.0
 40
0.0
 40
0.2473719131419497
 40
0.4436908302887036
 40
0.5866291275711224
 40
0.7106989402468038
 40
0.7106989402468038
 40
0.7106989402468038
 40
0.7106989402468038
 10
1671.42390837332
 20
-2354.156202062607
 30
0.0
 10
1671.341453414366
 20
-2354.155580138425
 30
0.0
 10
1671.196582627588
 20
-2354.156309320295
 30
0.0
 10
1670.990682165276
 20
-2354.159445595017
 30
0.0
 10
1670.862240795347
 20
-2354.177025418638
 30
0.0
 10
1670.721784322403
 20
-2354.182174959095
 30
0.0
 10
1670.72322639648
 20
-2354.223506413647
 30
0.0
 11
1671.42390837332
 21
-2354.156202062607
 31
0.0
 11
1671.17653745582
 21
-2354.156903907787
 31
0.0
 11
1670.98032717514
 21
-2354.163434067447
 31
0.0
 11
1670.8379703326
 21
-2354.176313749587
 31
0.0
 11
1670.72322639648
 21
-2354.223506413647
 31
0.0
  0
SPLINE
  5
C3
330
2
100
AcDbEntity
  8
0
  6
Continuous
 62
     7
100
AcDbSpline
210
0.0
220
0.0
230
1.0
 70
     8
 71
     3
 72
    15
 73
    11
 74
     9
 42
0.0000000001
 43
0.0000000001
 44
0.0000000001
 12
-0.8637098797921522
 22
-0.5039893288051109
 32
0.0
 13
-0.9999717416427193
 23
0.0075177068329882
 33
0.0
 40
0.0
 40
0.0
 40
0.0
 40
0.0
 40
0.7428300955230796
 40
1.434328830872662
 40
2.048948013600257
 40
2.582023971069983
 40
3.041460594477754
 40
3.436479345114091
 40
3.773359820347902
 40
4.056589542279912
 40
4.056589542279912
 40
4.056589542279912
 40
4.056589542279912
 10
1675.14357238432
 20
-2352.622407985167
 30
0.0
 10
1674.929709153483
 20
-2352.74720079892
 30
0.0
 10
1674.512575553758
 20
-2352.981008363286
 30
0.0
 10
1673.908975713001
 20
-2353.300705793563
 30
0.0
 10
1673.359425491274
 20
-2353.572696172539
 30
0.0
 10
1672.869949502068
 20
-2353.790904169119
 30
0.0
 10
1672.43755537227
 20
-2353.955873300313
 30
0.0
 10
1672.05703334122
 20
-2354.071015664046
 30
0.0
 10
1671.725167500147
 20
-2354.139501953042
 30
0.0
 10
1671.518315612762
 20
-2354.156911808612
 30
0.0
 10
1671.42390837332
 20
-2354.156202062607
 30
0.0
 11
1675.14357238432
 21
-2352.622407985167
 31
0.0
 11
1674.49619746114
 21
-2352.986691198687
 31
0.0
 11
1673.88478669768
 21
-2353.309719648387
 31
0.0
 11
1673.33316275902
 21
-2353.580769035167
 31
0.0
 11
1672.8454991852
 21
-2353.796069325927
 31
0.0
 11
1672.41555911544
 21
-2353.958037061427
 31
0.0
 11
1672.0368619658
 21
-2354.070412691387
 31
0.0
 11
1671.70641043214
 21
-2354.135912603567
 31
0.0
 11
1671.42390837332
 21
-2354.156202062607
 31
0.0
  0
SPLINE
  5
C4
330
2
100
AcDbEntity
  8
0
  6
Continuous
 62
     7
100
AcDbSpline
210
0.0
220
0.0
230
1.0
 70
     8
 71
     3
 72
    12
 73
     8
 74
     6
 42
0.0000000001
 43
0.0000000001
 44
0.0000000001
 12
-0.9262347978108342
 22
0.3769470776174332
 32
0.0
 13
-0.8640171960559733
 23
-0.5034622974161759
 33
0.0
 40
0.0
 40
0.0
 40
0.0
 40
0.0
 40
0.1447018051042229
 40
0.2940947836987494
 40
0.4488518080434362
 40
0.6100524090607519
 40
0.778943880904579
 40
0.778943880904579
 40
0.778943880904579
 40
0.778943880904579
 10
1675.89447424548
 20
-2352.573949491787
 30
0.0
 10
1675.849798296416
 20
-2352.555767850934
 30
0.0
 10
1675.756011525078
 20
-2352.525626071086
 30
0.0
 10
1675.607174257003
 20
-2352.504256585645
 30
0.0
 10
1675.451251920359
 20
-2352.510456208453
 30
0.0
 10
1675.292986906187
 20
-2352.547768876437
 30
0.0
 10
1675.1922140963
 20
-2352.594064489025
 30
0.0
 10
1675.14357238432
 20
-2352.622407985167
 30
0.0
 11
1675.89447424548
 21
-2352.573949491787
 31
0.0
 11
1675.75660364238
 21
-2352.530014207547
 31
0.0
 11
1675.60869842384
 21
-2352.508983078667
 31
0.0
 11
1675.4540660788
 21
-2352.515193912067
 31
0.0
 11
1675.29716110432
 21
-2352.552159609027
 31
0.0
 11
1675.14357238432
 21
-2352.622407985167
 31
0.0
  0
SPLINE
  5
C5
330
2
100
AcDbEntity
  8
0
  6
Continuous
 62
     7
100
AcDbSpline
210
0.0
220
0.0
230
1.0
 70
     8
 71
     3
 72
    14
 73
    10
 74
     8
 42
0.0000000001
 43
0.0000000001
 44
0.0000000001
 12
-0.9914238044919207
 22
0.1306860355461361
 32
0.0
 13
-0.9261717360170052
 23
0.3771019960212978
 33
0.0
 40
0.0
 40
0.0
 40
0.0
 40
0.0
 40
0.4409212485328181
 40
0.910365486098232
 40
1.357924848255031
 40
1.751079651410447
 40
2.10783029030234
 40
2.448769153881187
 40
2.785752218883573
 40
2.785752218883573
 40
2.785752218883573
 40
2.785752218883573
 10
1678.64777194944
 20
-2352.898428979987
 30
0.0
 10
1678.502058675539
 20
-2352.879221563334
 30
0.0
 10
1678.199289514892
 20
-2352.854014984527
 30
0.0
 10
1677.746800499329
 20
-2352.841569581499
 30
0.0
 10
1677.310168153449
 20
-2352.832521408352
 30
0.0
 10
1676.911503432787
 20
-2352.809369247399
 30
0.0
 10
1676.550387896249
 20
-2352.763570961771
 30
0.0
 10
1676.213084589638
 20
-2352.689054825281
 30
0.0
 10
1675.998508975587
 20
-2352.616308487267
 30
0.0
 10
1675.89447424548
 20
-2352.573949491787
 30
0.0
 11
1678.64777194944
 21
-2352.898428979987
 31
0.0
 11
1678.20863876116
 21
-2352.858760474107
 31
0.0
 11
1677.73949697402
 21
-2352.841911861627
 31
0.0
 11
1677.292118613
 21
-2352.829184538848
 31
0.0
 11
1676.89977147542
 21
-2352.803996786327
 31
0.0
 11
1676.54607331566
 21
-2352.757428233287
 31
0.0
 11
1676.21342054688
 21
-2352.682719170107
 31
0.0
 11
1675.89447424548
 21
-2352.573949491787
 31
0.0
  0
SPLINE
  5
C6
330
2
100
AcDbEntity
  8
0
  6
Continuous
 62
     7
100
AcDbSpline
210
0.0
220
0.0
230
1.0
 70
     8
 71
     3
 72
    18
 73
    14
 74
    12
 42
0.0000000001
 43
0.0000000001
 44
0.0000000001
 12
0.9997178723302758
 22
-0.0237523839524878
 32
0.0
 13
0.240865320626951
 23
0.9705585491454268
 33
0.0
 40
0.0
 40
0.0
 40
0.0
 40
0.0
 40
2.160896001223883
 40
4.400258277705919
 40
6.513960249426119
 40
8.464251333598543
 40
10.25940720443982
 40
11.90285932660038
 40
13.39961387567571
 40
14.74932441652005
 40
15.94727325734318
 40
16.98788594907832
 40
17.87264640450002
 40
17.87264640450002
 40
17.87264640450002
 40
17.87264640450002
 10
1760.73903182044
 20
-2504.595019111727
 30
0.0
 10
1761.45912727133
 20
-2504.612127922228
 30
0.0
 10
1762.928835752467
 20
-2504.523591729267
 30
0.0
 10
1765.071246150712
 20
-2504.15563387711
 30
0.0
 10
1767.10969983752
 20
-2503.639340276517
 30
0.0
 10
1768.971414100369
 20
-2503.04586785011
 30
0.0
 10
1770.652045289051
 20
-2502.409328740137
 30
0.0
 10
1772.157637676265
 20
-2501.744152924252
 30
0.0
 10
1773.487806195717
 20
-2501.055605324395
 30
0.0
 10
1774.634183595019
 20
-2500.342817158995
 30
0.0
 10
1775.576461070506
 20
-2499.599937459004
 30
0.0
 10
1776.277884341283
 20
-2498.821550646046
 30
0.0
 10
1776.567171147916
 20
-2498.231860274479
 30
0.0
 10
1776.63820718484
 20
-2497.945622999827
 30
0.0
 11
1760.73903182044
 21
-2504.595019111727
 31
0.0
 11
1762.89720516728
 21
-2504.486578652967
 31
0.0
 11
1765.1062353136
 21
-2504.119251526307
 31
0.0
 11
1767.15633756086
 21
-2503.604647988587
 31
0.0
 11
1769.01474051664
 21
-2503.013062181667
 31
0.0
 11
1770.69297768594
 21
-2502.375798810528
 31
0.0
 11
1772.1948159421
 21
-2501.708403327947
 31
0.0
 11
1773.52128726934
 21
-2501.015043393867
 31
0.0
 11
1774.6622926175
 21
-2500.294054254187
 31
0.0
 11
1775.5934017789
 21
-2499.540318786807
 31
0.0
 11
1776.2710821736
 21
-2498.750620074107
 31
0.0
 11
1776.63820718484
 21
-2497.945622999827
 31
0.0
  0
SPLINE
  5
C7
330
2
100
AcDbEntity
  8
0
  6
Continuous
 62
     7
100
AcDbSpline
210
0.0
220
0.0
230
1.0
 70
     8
 71
     3
 72
    10
 73
     6
 74
     4
 42
0.0000000001
 43
0.0000000001
 44
0.0000000001
 12
-0.9687266544090531
 22
0.2481303468692277
 32
0.0
 13
-0.9773196085009347
 23
0.2117696456992357
 33
0.0
 40
0.0
 40
0.0
 40
0.0
 40
0.0
 40
0.4963685456090848
 40
1.00266675658198
 40
1.513392102397955
 40
1.513392102397955
 40
1.513392102397955
 40
1.513392102397955
 10
1781.11386296554
 20
-2482.343634315628
 30
0.0
 10
1780.953581152026
 20
-2482.302579615828
 30
0.0
 10
1780.629272668976
 20
-2482.221735623781
 30
0.0
 10
1780.138274094159
 20
-2482.105906980461
 30
0.0
 10
1779.807383085995
 20
-2482.032121914171
 30
0.0
 10
1779.64100245432
 20
-2481.996069872327
 30
0.0
 11
1781.11386296554
 21
-2482.343634315628
 31
0.0
 11
1780.6322411424
 21
-2482.223542048827
 31
0.0
 11
1780.13947939996
 21
-2482.107250417047
 31
0.0
 11
1779.64100245432
 21
-2481.996069872327
 31
0.0
  0
SPLINE
  5
C8
330
2
100
AcDbEntity
  8
0
  6
Continuous
 62
     7
100
AcDbSpline
210
0.0
220
0.0
230
1.0
 70
     8
 71
     3
 72
    11
 73
     7
 74
     5
 42
0.0000000001
 43
0.0000000001
 44
0.0000000001
 12
-0.0906312475924099
 22
-0.9958845198916607
 32
0.0
 13
-0.0239367331283967
 23
-0.999713475355384
 33
0.0
 40
0.0
 40
0.0
 40
0.0
 40
0.0
 40
0.4367469163150723
 40
1.390781669510919
 40
2.753589343680086
 40
4.369741860981569
 40
4.369741860981569
 40
4.369741860981569
 40
4.369741860981569
 10
1779.7839444265
 20
-2477.628695543848
 30
0.0
 10
1779.77075012053
 20
-2477.773678708203
 30
0.0
 10
1779.764129774846
 20
-2478.237759082071
 30
0.0
 10
1779.724993076082
 20
-2479.15448282052
 30
0.0
 10
1779.688979667404
 20
-2480.465161418861
 30
0.0
 10
1779.653897591487
 20
-2481.457506722402
 30
0.0
 10
1779.64100245432
 20
-2481.996069872327
 30
0.0
 11
1779.7839444265
 21
-2477.628695543848
 31
0.0
 11
1779.76529568046
 21
-2478.065044135207
 31
0.0
 11
1779.7327893218
 21
-2479.018524940967
 31
0.0
 11
1779.68966610604
 21
-2480.380650172008
 31
0.0
 11
1779.64100245432
 21
-2481.996069872327
 31
0.0
  0
LINE
  5
C9
330
2
100
AcDbEntity
  8
0
  6
Continuous
 62
     7
100
AcDbLine
 10
1831.66422681762
 20
-2477.613817079827
 30
0.0
 11
1825.92039773126
 21
-2477.634281915707
 31
0.0
  0
SPLINE
  5
CA
330
2
100
AcDbEntity
  8
0
  6
Continuous
 62
     7
100
AcDbSpline
210
0.0
220
0.0
230
1.0
 70
     8
 71
     3
 72
    12
 73
     8
 74
     6
 42
0.0000000001
 43
0.0000000001
 44
0.0000000001
 12
0.9938742861065133
 22
0.110516530058939
 32
0.0
 13
0.993742201296607
 23
0.111697973849904
 33
0.0
 40
0.0
 40
0.0
 40
0.0
 40
0.0
 40
21.26452519333628
 40
43.72855399603159
 40
88.56931448943687
 40
133.3696175091896
 40
157.237797244827
 40
157.237797244827
 40
157.237797244827
 40
157.237797244827
 10
1825.9203936825
 20
-2477.634245509887
 30
0.0
 10
1832.965148614474
 20
-2476.850884997314
 30
0.0
 10
1847.450671934022
 20
-2475.227660784199
 30
0.0
 10
1876.789504960147
 20
-2471.934255530584
 30
0.0
 10
1913.924081723569
 20
-2467.760779641484
 30
0.0
 10
1951.523758897147
 20
-2463.534845965603
 30
0.0
 10
1974.270018153822
 20
-2460.978160956172
 30
0.0
 10
1982.1762906443
 20
-2460.089485184187
 30
0.0
 11
1825.9203936825
 21
-2477.634245509887
 31
0.0
 11
1847.05324920436
 21
-2475.271524792107
 31
0.0
 11
1869.37711335004
 21
-2472.765994977167
 31
0.0
 11
1913.9374789002
 21
-2467.759237177647
 31
0.0
 11
1958.45746894564
 21
-2462.755474891567
 31
0.0
 11
1982.1762906443
 21
-2460.089485184187
 31
0.0
  0
LINE
  5
CB
330
2
100
AcDbEntity
  8
0
  6
Continuous
 62
     7
100
AcDbLine
 10
1305.349568399755
 20
-2477.627265932787
 30
0.0
 11
1471.479197386975
 21
-2461.219401341927
 31
0.0
  0
LINE
  5
CC
330
2
100
AcDbEntity
  8
0
  6
Continuous
 62
     7
100
AcDbLine
 10
1225.098243512835
 20
-2477.627265932787
 30
0.0
 11
1058.968614525615
 21
-2461.219401341927
 31
0.0
  0
LINE
  5
CD
330
2
100
AcDbEntity
  8
0
  6
Continuous
 62
     7
100
AcDbLine
 10
1050.067748260835
 20
-2452.788264257067
 30
0.0
 11
1035.136303584795
 21
-2356.107159981867
 31
0.0
  0
LINE
  5
CE
330
2
100
AcDbEntity
  8
0
  6
Continuous
 62
     7
100
AcDbLine
 10
1495.311508330335
 20
-2356.107159981867
 30
0.0
 11
1480.379158256055
 21
-2452.794126711687
 31
0.0
  0
ARC
  5
CF
330
2
100
AcDbEntity
  8
0
  6
Continuous
 62
     7
100
AcDbCircle
 10
1470.506653937095
 20
-2451.200941881807
 30
0.0
 40
9.999999999959998
100
AcDbArc
 50
275.499794676083
 51
351.2201270964012
  0
ARC
  5
D0
330
2
100
AcDbEntity
  8
0
  6
Continuous
 62
     7
100
AcDbCircle
 10
1059.951486700075
 20
-2451.267820358667
 30
0.0
 40
9.999999999959998
100
AcDbArc
 50
188.7794066288905
 51
264.3594506967728
  0
ARC
  5
D1
330
2
100
AcDbEntity
  8
0
  6
Continuous
 62
     7
100
AcDbCircle
 10
1027.230504839655
 20
-2357.328204992147
 30
0.0
 40
7.999794569339999
100
AcDbArc
 50
8.779917399291967
 51
48.71135189539404
  0
ARC
  5
D2
330
2
100
AcDbEntity
  8
0
  6
Continuous
 62
     7
100
AcDbCircle
 10
1503.217290354655
 20
-2357.328204992147
 30
0.0
 40
7.999787226199999
100
AcDbArc
 50
131.2885658080861
 51
171.2200643222024
  0
SPLINE
  5
D4
330
2
100
AcDbEntity
  8
0
  6
Continuous
 62
     7
100
AcDbSpline
210
0.0
220
0.0
230
1.0
 70
     8
 71
     3
 72
    13
 73
     9
 74
     7
 42
0.0000000001
 43
0.0000000001
 44
0.0000000001
 12
0.9999656200721995
 22
0.008292084998458
 32
0.0
 13
0.9999999688725177
 23
0.0002495094457815
 33
0.0
 40
0.0
 40
0.0
 40
0.0
 40
0.0
 40
15.05292412362052
 40
28.62001501644094
 40
40.87411997929218
 40
51.99850622992975
 40
62.12338172583485
 40
71.46978922371073
 40
71.46978922371073
 40
71.46978922371073
 40
71.46978922371073
 10
1069.876198876265
 20
-2924.553627130375
 30
0.0
 10
1074.893667744657
 20
-2924.512020421606
 30
0.0
 10
1084.43338385018
 20
-2924.437514189195
 30
0.0
 10
1098.057784873809
 20
-2924.345843715958
 30
0.0
 10
1110.372792245397
 20
-2924.277476331293
 30
0.0
 10
1121.540483284414
 20
-2924.229903455542
 30
0.0
 10
1131.739001596591
 20
-2924.200818614344
 30
0.0
 10
1138.229428236123
 20
-2924.19270073506
 30
0.0
 10
1141.344897305105
 20
-2924.191923396076
 30
0.0
 11
1069.876198876265
 21
-2924.553627130375
 31
0.0
 11
1084.928667313305
 21
-2924.436500603136
 31
0.0
 11
1098.495454319885
 21
-2924.345695250075
 31
0.0
 11
1110.749373131785
 21
-2924.278151250036
 31
0.0
 11
1121.873660375165
 21
-2924.231217465316
 31
0.0
 11
1131.998496239245
 21
-2924.202888451615
 31
0.0
 11
1141.344897305105
 21
-2924.191923396076
 31
0.0
  0
SPLINE
  5
D5
330
2
100
AcDbEntity
  8
0
  6
Continuous
 62
     7
100
AcDbSpline
210
0.0
220
0.0
230
1.0
 70
     8
 71
     3
 72
    14
 73
    10
 74
     8
 42
0.0000000001
 43
0.0000000001
 44
0.0000000001
 12
0.9999999681238177
 22
0.0002524923037342
 32
0.0
 13
1.0
 23
0.0000000028910471
 33
0.0
 40
0.0
 40
0.0
 40
0.0
 40
0.0
 40
17.22015493854584
 40
34.59684771679301
 40
52.13122528256413
 40
69.82470197951767
 40
87.67902493729692
 40
105.6962804394641
 40
123.8789924194642
 40
123.8789924194642
 40
123.8789924194642
 40
123.8789924194642
 10
1141.344897305105
 20
-2924.191923396076
 30
0.0
 10
1147.084948768316
 20
-2924.190474077212
 30
0.0
 10
1158.617231013924
 20
-2924.187721433147
 30
0.0
 10
1175.994305732942
 20
-2924.184097294373
 30
0.0
 10
1193.529154479019
 20
-2924.181014479766
 30
0.0
 10
1211.223213381673
 20
-2924.178527752192
 30
0.0
 10
1229.078231677316
 20
-2924.176690436202
 30
0.0
 10
1247.096328459458
 20
-2924.1755531717
 30
0.0
 10
1259.162984288372
 20
-2924.175294081857
 30
0.0
 10
1265.223888281705
 20
-2924.175294064335
 30
0.0
 11
1141.344897305105
 21
-2924.191923396076
 31
0.0
 11
1158.565051754745
 21
-2924.187819975275
 31
0.0
 11
1175.941744156485
 21
-2924.184202669835
 31
0.0
 11
1193.476121452405
 21
-2924.181126412335
 31
0.0
 11
1211.169597975465
 21
-2924.178645777216
 31
0.0
 11
1229.023920839265
 21
-2924.176813873336
 31
0.0
 11
1247.041176305825
 21
-2924.175681140015
 31
0.0
 11
1265.223888281705
 21
-2924.175294064335
 31
0.0
  0
SPLINE
  5
D6
330
2
100
AcDbEntity
  8
0
  6
Continuous
 62
     7
100
AcDbSpline
210
0.0
220
0.0
230
1.0
 70
     8
 71
     3
 72
    14
 73
    10
 74
     8
 42
0.0000000001
 43
0.0000000001
 44
0.0000000001
 12
1.0
 22
-0.0000000038547294
 32
0.0
 13
0.9999999681238023
 23
-0.0002524923652459
 33
0.0
 40
0.0
 40
0.0
 40
0.0
 40
0.0
 40
18.18251518587975
 40
36.19960565916564
 40
54.05384822086324
 40
71.74732201459398
 40
89.28177468308403
 40
106.6586220000124
 40
123.8789924194641
 40
123.8789924194641
 40
123.8789924194641
 40
123.8789924194641
 10
1265.223888281705
 20
-2924.175294064335
 30
0.0
 10
1271.284726676999
 20
-2924.175294087698
 30
0.0
 10
1283.351261898245
 20
-2924.175553169985
 30
0.0
 10
1301.369211274028
 20
-2924.176690408078
 30
0.0
 10
1319.22414679361
 20
-2924.178527703651
 30
0.0
 10
1336.918202964072
 20
-2924.181014411021
 30
0.0
 10
1354.453127289542
 20
-2924.184097228668
 30
0.0
 10
1371.830350382661
 20
-2924.187721382783
 30
0.0
 10
1383.362755968128
 20
-2924.190474058723
 30
0.0
 10
1389.102879258306
 20
-2924.191923396076
 30
0.0
 11
1265.223888281705
 21
-2924.175294064335
 31
0.0
 11
1283.406403463465
 21
-2924.175681134935
 31
0.0
 11
1301.423493901145
 21
-2924.176813842855
 31
0.0
 11
1319.277736368865
 21
-2924.178645723876
 31
0.0
 11
1336.971209988705
 21
-2924.181126341215
 31
0.0
 11
1354.505662387345
 21
-2924.184202598715
 31
0.0
 11
1371.882509327766
 21
-2924.187819924475
 31
0.0
 11
1389.102879258306
 21
-2924.191923396076
 31
0.0
  0
SPLINE
  5
D7
330
2
100
AcDbEntity
  8
0
  6
Continuous
 62
     7
100
AcDbSpline
210
0.0
220
0.0
230
1.0
 70
     8
 71
     3
 72
    15
 73
    11
 74
     9
 42
0.0000000001
 43
0.0000000001
 44
0.0000000001
 12
-0.0100946463821976
 22
0.9999490477591438
 32
0.0
 13
-0.0002575802658156
 23
0.9999999668262027
 33
0.0
 40
0.0
 40
0.0
 40
0.0
 40
0.0
 40
14.68872684365297
 40
27.91774198699793
 40
39.91672954206043
 40
50.83113762918955
 40
60.76142126609562
 40
69.80312430098354
 40
78.00427397688578
 40
85.40306809123659
 40
85.40306809123659
 40
85.40306809123659
 40
85.40306809123659
 10
1470.454410743385
 20
-2914.670794074135
 30
0.0
 10
1470.404984908955
 20
-2909.774801267434
 30
0.0
 10
1470.316551228611
 20
-2900.469304652636
 30
0.0
 10
1470.206320069367
 20
-2887.16418175381
 30
0.0
 10
1470.120723513588
 20
-2875.117012792481
 30
0.0
 10
1470.055828217867
 20
-2864.169309447937
 30
0.0
 10
1470.008828547673
 20
-2854.207286276466
 30
0.0
 10
1469.977177167491
 20
-2845.149627139899
 30
0.0
 10
1469.958674671711
 20
-2836.935763663247
 30
0.0
 10
1469.953639839423
 20
-2831.735783050923
 30
0.0
 10
1469.953004578305
 20
-2829.269518427955
 30
0.0
 11
1470.454410743385
 21
-2914.670794074135
 31
0.0
 11
1470.315066046205
 21
-2899.982728192515
 31
0.0
 11
1470.205651045325
 21
-2886.754165533615
 31
0.0
 11
1470.120620709925
 21
-2874.755479264336
 31
0.0
 11
1470.056188347045
 21
-2863.841261364596
 31
0.0
 11
1470.009550810145
 21
-2853.911087244795
 31
0.0
 11
1469.978160679885
 21
-2844.869438698716
 31
0.0
 11
1469.959918026505
 21
-2836.668309312335
 31
0.0
 11
1469.953004578305
 21
-2829.269518427955
 31
0.0
  0
SPLINE
  5
D8
330
2
100
AcDbEntity
  8
0
  6
Continuous
 62
     7
100
AcDbSpline
210
0.0
220
0.0
230
1.0
 70
     8
 71
     3
 72
    12
 73
     8
 74
     6
 42
0.0000000001
 43
0.0000000001
 44
0.0000000001
 12
-0.0002584104547234
 22
0.999999966612018
 32
0.0
 13
-0.0000000048395673
 23
1.0
 33
0.0
 40
0.0
 40
0.0
 40
0.0
 40
0.0
 40
18.0300717382965
 40
36.43743912936111
 40
55.22399771293457
 40
74.39239406034367
 40
93.94641492157186
 40
93.94641492157186
 40
93.94641492157186
 40
93.94641492157186
 10
1469.953004578305
 20
-2829.269518427955
 30
0.0
 10
1469.951451525293
 20
-2823.259494715852
 30
0.0
 10
1469.948542449842
 20
-2811.113682017334
 30
0.0
 10
1469.944924083671
 20
-2792.705683129146
 30
0.0
 10
1469.942147020044
 20
-2773.91824255179
 30
0.0
 10
1469.940361193402
 20
-2754.748584027675
 30
0.0
 10
1469.939939543269
 20
-2741.841111621358
 30
0.0
 10
1469.939939511725
 20
-2735.323104667615
 30
0.0
 11
1469.953004578305
 21
-2829.269518427955
 31
0.0
 11
1469.948700294305
 21
-2811.239447203436
 31
0.0
 11
1469.945096963946
 21
-2792.832080165056
 31
0.0
 11
1469.942335244805
 21
-2774.045521784475
 31
0.0
 11
1469.940564499045
 21
-2754.877125518856
 31
0.0
 11
1469.939939511725
 21
-2735.323104667615
 31
0.0
  0
LINE
  5
D9
330
2
100
AcDbEntity
  8
0
  6
Continuous
 62
     7
100
AcDbLine
 10
1469.939939511725
 20
-2735.323104667615
 30
0.0
 11
1469.941085861985
 21
-2709.601253027856
 31
0.0
  0
SPLINE
  5
DA
330
2
100
AcDbEntity
  8
0
  6
Continuous
 62
     7
100
AcDbSpline
210
0.0
220
0.0
230
1.0
 70
     8
 71
     3
 72
    11
 73
     7
 74
     5
 42
0.0000000001
 43
0.0000000001
 44
0.0000000001
 12
0.0000914989543691
 22
0.9999999958139706
 32
0.0
 13
0.0068188824407112
 23
0.9999767511508753
 33
0.0
 40
0.0
 40
0.0
 40
0.0
 40
0.0
 40
11.34546269663228
 40
23.00276068001652
 40
34.95894058983215
 40
47.30222492590737
 40
47.30222492590737
 40
47.30222492590737
 40
47.30222492590737
 10
1469.941085861985
 20
-2709.601253027856
 30
0.0
 10
1469.941431894643
 20
-2705.819432144809
 30
0.0
 10
1469.94897500669
 20
-2698.151844454667
 30
0.0
 10
1469.980195198792
 20
-2686.49890086602
 30
0.0
 10
1470.032237478247
 20
-2674.513421147452
 30
0.0
 10
1470.080850133679
 20
-2666.413741220882
 30
0.0
 10
1470.108905935285
 20
-2662.299408764575
 30
0.0
 11
1469.941085861985
 21
-2709.601253027856
 31
0.0
 11
1469.952035126345
 21
-2698.255795614675
 31
0.0
 11
1469.983118231565
 21
-2686.598539071475
 31
0.0
 11
1470.034931640765
 21
-2674.642471431715
 31
0.0
 11
1470.108905935285
 21
-2662.299408764575
 31
0.0
  0
SPLINE
  5
DB
330
2
100
AcDbEntity
  8
0
  6
Continuous
 62
     7
100
AcDbSpline
210
0.0
220
0.0
230
1.0
 70
     8
 71
     3
 72
    13
 73
     9
 74
     7
 42
0.0000000001
 43
0.0000000001
 44
0.0000000001
 12
0.9999999689727101
 22
-0.0002491075652048
 32
0.0
 13
0.9999656202042309
 23
-0.0082920690763869
 33
0.0
 40
0.0
 40
0.0
 40
0.0
 40
0.0
 40
9.282090767276654
 40
19.44012657315723
 40
30.58276642521493
 40
42.84201385232736
 40
56.41362683984104
 40
71.46978922856243
 40
71.46978922856243
 40
71.46978922856243
 40
71.46978922856243
 10
1389.102879258306
 20
-2924.191923396076
 30
0.0
 10
1392.196909418065
 20
-2924.192694142419
 30
0.0
 10
1398.676950587202
 20
-2924.200756410423
 30
0.0
 10
1408.871168211177
 20
-2924.229762928267
 30
0.0
 10
1420.057711347569
 20
-2924.277385584496
 30
0.0
 10
1432.382024683788
 20
-2924.345795881503
 30
0.0
 10
1446.010726640007
 20
-2924.437482467606
 30
0.0
 10
1455.55302943604
 20
-2924.512011550858
 30
0.0
 10
1460.571577689685
 20
-2924.553627130375
 30
0.0
 11
1389.102879258306
 21
-2924.191923396076
 31
0.0
 11
1398.384963701465
 21
-2924.202758616975
 31
0.0
 11
1408.542959946265
 21
-2924.231108646635
 31
0.0
 11
1419.685500757405
 21
-2924.278088905735
 31
0.0
 11
1431.944562020285
 21
-2924.345649486896
 31
0.0
 11
1445.515871082845
 21
-2924.436475756855
 31
0.0
 11
1460.571577689685
 21
-2924.553627130375
 31
0.0
  0
SPLINE
  5
DC
330
2
100
AcDbEntity
  8
0
  6
Continuous
 62
     7
100
AcDbSpline
210
0.0
220
0.0
230
1.0
 70
     8
 71
     3
 72
    16
 73
    12
 74
    10
 42
0.0000000001
 43
0.0000000001
 44
0.0000000001
 12
-0.9999970604960902
 22
0.0024246647560217
 32
0.0
 13
-0.9999477884513629
 23
0.0102186286373614
 33
0.0
 40
0.0
 40
0.0
 40
0.0
 40
0.0
 40
9.441487715917881
 40
19.93365392187884
 40
31.76568286109587
 40
45.09383347537417
 40
60.08921566326411
 40
76.93943909452388
 40
95.85571355446164
 40
116.9164202617809
 40
140.3215609975558
 40
140.3215609975558
 40
140.3215609975558
 40
140.3215609975558
 10
1210.538376715685
 20
-2653.504641025215
 30
0.0
 10
1207.391223394809
 20
-2653.497010211046
 30
0.0
 10
1200.746709303968
 20
-2653.473445014233
 30
0.0
 10
1190.15828302079
 20
-2653.419507612122
 30
0.0
 10
1178.274402710405
 20
-2653.344376218687
 30
0.0
 10
1164.889571275356
 20
-2653.24655342132
 30
0.0
 10
1149.832145023909
 20
-2653.124608568991
 30
0.0
 10
1132.912165742657
 20
-2652.976479339353
 30
0.0
 10
1113.97058133783
 20
-2652.80045673201
 30
0.0
 10
1092.844206254293
 20
-2652.594961260187
 30
0.0
 10
1078.023009923409
 20
-2652.44554709709
 30
0.0
 10
1070.221703684365
 20
-2652.365824283295
 30
0.0
 11
1210.538376715685
 21
-2653.504641025215
 31
0.0
 11
1201.096944115225
 21
-2653.472380510615
 31
0.0
 11
1190.604909841525
 21
-2653.419764039775
 31
0.0
 11
1178.773112712685
 21
-2653.345699740356
 31
0.0
 11
1165.445313163105
 21
-2653.248963174875
 31
0.0
 11
1150.450418291385
 21
-2653.128071707235
 31
0.0
 11
1133.600835970805
 21
-2652.981084274516
 31
0.0
 11
1114.685373608765
 21
-2652.805804287256
 31
0.0
 11
1093.625658992185
 21
-2652.601384914536
 31
0.0
 11
1070.221703684365
 21
-2652.365824283295
 31
0.0
  0
SPLINE
  5
DD
330
2
100
AcDbEntity
  8
0
  6
Continuous
 62
     7
100
AcDbSpline
210
0.0
220
0.0
230
1.0
 70
     8
 71
     3
 72
    16
 73
    12
 74
    10
 42
0.0000000001
 43
0.0000000001
 44
0.0000000001
 12
-0.9999477885366372
 22
-0.0102186202928024
 32
0.0
 13
-0.9999970564811416
 23
-0.00242632006387
 33
0.0
 40
0.0
 40
0.0
 40
0.0
 40
0.0
 40
23.43983808463526
 40
44.51485540480383
 40
63.39721705125483
 40
80.23210771169015
 40
95.21820125962969
 40
108.541406749235
 40
120.3724595653534
 40
130.8679052380016
 40
140.3215609936554
 40
140.3215609936554
 40
140.3215609936554
 40
140.3215609936554
 10
1460.226072879045
 20
-2652.365824283295
 30
0.0
 10
1452.413201460249
 20
-2652.445665218333
 30
0.0
 10
1437.575669942393
 20
-2652.595241226395
 30
0.0
 10
1416.444263225583
 20
-2652.800769889514
 30
0.0
 10
1397.514323157438
 20
-2652.976667776848
 30
0.0
 10
1380.613854495334
 20
-2653.124621121609
 30
0.0
 10
1365.566283470464
 20
-2653.246490620138
 30
0.0
 10
1352.186521915527
 20
-2653.344283212836
 30
0.0
 10
1340.303522304435
 20
-2653.419427642926
 30
0.0
 10
1329.710272381698
 20
-2653.473409075613
 30
0.0
 10
1323.060609159812
 20
-2653.496995160336
 30
0.0
 10
1319.909399850265
 20
-2653.504641025215
 30
0.0
 11
1460.226072879045
 21
-2652.365824283295
 31
0.0
 11
1436.787421920525
 21
-2652.601728243795
 31
0.0
 11
1415.713397203025
 21
-2652.806269808296
 31
0.0
 11
1396.831846058405
 21
-2652.981220431215
 31
0.0
 11
1379.997595891565
 21
-2653.128070249275
 31
0.0
 11
1365.011989390905
 21
-2653.248890922036
 31
0.0
 11
1351.689134903825
 21
-2653.345600974996
 31
0.0
 11
1339.858313990965
 21
-2653.419677054936
 31
0.0
 11
1329.363000381685
 21
-2653.472327889435
 31
0.0
 11
1319.909399850265
 21
-2653.504641025215
 31
0.0
  0
SPLINE
  5
DE
330
2
100
AcDbEntity
  8
0
  6
Continuous
 62
     7
100
AcDbSpline
210
0.0
220
0.0
230
1.0
 70
     8
 71
     3
 72
    12
 73
     8
 74
     6
 42
0.0000000001
 43
0.0000000001
 44
0.0000000001
 12
-0.9999970429555148
 22
-0.0024318882018762
 32
0.0
 13
-0.9999970447434364
 23
0.0024311528939517
 33
0.0
 40
0.0
 40
0.0
 40
0.0
 40
0.0
 40
20.33160348249646
 40
42.59662313783481
 40
66.59606635338079
 40
89.07459505527578
 40
109.3711592152644
 40
109.3711592152644
 40
109.3711592152644
 40
109.3711592152644
 10
1319.909399850265
 20
-2653.504641025215
 30
0.0
 10
1313.132218729919
 20
-2653.52112242076
 30
0.0
 10
1298.933379515539
 20
-2653.553024705855
 30
0.0
 10
1276.734708322589
 20
-2653.584496660938
 30
0.0
 10
1253.82036829062
 20
-2653.584647441142
 30
0.0
 10
1231.562207023647
 20
-2653.5531405945
 30
0.0
 10
1217.303878108497
 20
-2653.521089042114
 30
0.0
 10
1210.538376715685
 20
-2653.504641025215
 30
0.0
 11
1319.909399850265
 21
-2653.504641025215
 31
0.0
 11
1299.577844529205
 21
-2653.548894794975
 31
0.0
 11
1277.312844738745
 21
-2653.578636742095
 31
0.0
 11
1253.313401523606
 21
-2653.578776378595
 31
0.0
 11
1230.834892764685
 21
-2653.548833481915
 31
0.0
 11
1210.538376715685
 21
-2653.504641025215
 31
0.0
  0
SPLINE
  5
DF
330
2
100
AcDbEntity
  8
0
  6
Continuous
 62
     7
100
AcDbSpline
210
0.0
220
0.0
230
1.0
 70
     8
 71
     3
 72
    13
 73
     9
 74
     7
 42
0.0000000001
 43
0.0000000001
 44
0.0000000001
 12
0.0232897879820621
 22
-0.9997287561012491
 32
0.0
 13
0.9997287561282714
 23
-0.0232897868221127
 33
0.0
 40
0.0
 40
0.0
 40
0.0
 40
0.0
 40
2.550736134754385
 40
5.114395061377097
 40
7.685460910500006
 40
10.25652354565202
 40
12.82019632748344
 40
15.37092539136052
 40
15.37092539136052
 40
15.37092539136052
 40
15.37092539136052
 10
1059.993365820025
 20
-2914.670794074135
 30
0.0
 10
1060.013167854617
 20
-2915.520808828516
 30
0.0
 10
1060.275140138889
 20
-2917.227763504442
 30
0.0
 10
1061.300555176128
 20
-2919.604048291171
 30
0.0
 10
1062.890998480696
 20
-2921.655989237671
 30
0.0
 10
1064.942923188571
 20
-2923.246477600912
 30
0.0
 10
1067.319238082322
 20
-2924.271823799393
 30
0.0
 10
1069.026186478182
 20
-2924.533825151663
 30
0.0
 10
1069.876198876265
 20
-2924.553627130375
 30
0.0
 11
1059.993365820025
 21
-2914.670794074135
 31
0.0
 11
1060.379048787545
 21
-2917.192203100396
 31
0.0
 11
1061.392971237725
 21
-2919.546838604476
 31
0.0
 11
1062.967986106485
 21
-2921.579006846455
 31
0.0
 11
1065.000136245885
 21
-2923.154039825415
 31
0.0
 11
1067.354798308205
 21
-2924.167935630995
 31
0.0
 11
1069.876198876265
 21
-2924.553627130375
 31
0.0
  0
SPLINE
  5
E0
330
2
100
AcDbEntity
  8
0
  6
Continuous
 62
     7
100
AcDbSpline
210
0.0
220
0.0
230
1.0
 70
     8
 71
     3
 72
    13
 73
     9
 74
     7
 42
0.0000000001
 43
0.0000000001
 44
0.0000000001
 12
-0.9998442400232047
 22
-0.0176492405621324
 32
0.0
 13
-0.0174694111694877
 23
-0.9998473981930398
 33
0.0
 40
0.0
 40
0.0
 40
0.0
 40
0.0
 40
2.558003021451222
 40
5.127579288251805
 40
7.705774171895045
 40
10.28726712248954
 40
12.86601630704042
 40
15.43659375440271
 40
15.43659375440271
 40
15.43659375440271
 40
15.43659375440271
 10
1070.221703684365
 20
-2652.365824283295
 30
0.0
 10
1069.369168822045
 20
-2652.38087322019
 30
0.0
 10
1067.656176485259
 20
-2652.635828601927
 30
0.0
 10
1065.271461337709
 20
-2653.660615388739
 30
0.0
 10
1063.215076973711
 20
-2655.25919867268
 30
0.0
 10
1061.62545198994
 20
-2657.326259415417
 30
0.0
 10
1060.607175215511
 20
-2659.722496270047
 30
0.0
 10
1060.353839455455
 20
-2661.442680373709
 30
0.0
 10
1060.338870630665
 20
-2662.299408764575
 30
0.0
 11
1070.221703684365
 21
-2652.365824283295
 31
0.0
 11
1067.691439161465
 21
-2652.741511522775
 31
0.0
 11
1065.329819922305
 21
-2653.754169787016
 31
0.0
 11
1063.294065515285
 21
-2655.336191548036
 31
0.0
 11
1061.720070644485
 21
-2657.382321065115
 31
0.0
 11
1060.712665217085
 21
-2659.756153759655
 31
0.0
 11
1060.338870630665
 21
-2662.299408764575
 31
0.0
  0
SPLINE
  5
E1
330
2
100
AcDbEntity
  8
0
  6
Continuous
 62
     7
100
AcDbSpline
210
0.0
220
0.0
230
1.0
 70
     8
 71
     3
 72
    13
 73
     9
 74
     7
 42
0.0000000001
 43
0.0000000001
 44
0.0000000001
 12
-0.0174694125037922
 22
0.9998473981697269
 32
0.0
 13
-0.9998442400351796
 23
0.0176492398837466
 33
0.0
 40
0.0
 40
0.0
 40
0.0
 40
0.0
 40
2.570578570615912
 40
5.149325566678457
 40
7.730818257924473
 40
10.30901628406407
 40
12.87859926740198
 40
15.43659708320622
 40
15.43659708320622
 40
15.43659708320622
 40
15.43659708320622
 10
1470.108905935285
 20
-2662.299408764575
 30
0.0
 10
1470.09393710281
 20
-2661.442679999368
 30
0.0
 10
1469.840610082941
 20
-2659.722492614148
 30
0.0
 10
1468.822307439354
 20
-2657.326270593426
 30
0.0
 10
1467.232723923305
 20
-2655.259178519143
 30
0.0
 10
1465.176315976202
 20
-2653.660611621311
 30
0.0
 10
1462.791597233191
 20
-2652.635839326122
 30
0.0
 10
1461.07860600643
 20
-2652.380873188986
 30
0.0
 10
1460.226072879045
 20
-2652.365824283295
 30
0.0
 11
1470.108905935285
 21
-2662.299408764575
 31
0.0
 11
1469.735113302125
 21
-2659.756152337255
 31
0.0
 11
1468.727700435065
 21
-2657.382325177375
 31
0.0
 11
1467.153725698845
 21
-2655.336180499036
 31
0.0
 11
1465.117961441705
 21
-2653.754166291975
 31
0.0
 11
1462.756331473585
 21
-2652.741516005876
 31
0.0
 11
1460.226072879045
 21
-2652.365824283295
 31
0.0
  0
SPLINE
  5
E2
330
2
100
AcDbEntity
  8
0
  6
Continuous
 62
     7
100
AcDbSpline
210
0.0
220
0.0
230
1.0
 70
     8
 71
     3
 72
    13
 73
     9
 74
     7
 42
0.0000000001
 43
0.0000000001
 44
0.0000000001
 12
0.9997287561049505
 22
0.023289787823169
 32
0.0
 13
0.0232897871625393
 23
0.9997287561203405
 33
0.0
 40
0.0
 40
0.0
 40
0.0
 40
0.0
 40
2.550733627127432
 40
5.114399812671948
 40
7.685464151380093
 40
10.25652912966051
 40
12.82019489295093
 40
15.37092593063722
 40
15.37092593063722
 40
15.37092593063722
 40
15.37092593063722
 10
1460.571577689685
 20
-2924.553627130375
 30
0.0
 10
1461.421591608419
 20
-2924.533825115386
 30
0.0
 10
1463.12854395176
 20
-2924.271840152491
 30
0.0
 10
1465.50484397186
 20
-2923.246459248752
 30
0.0
 10
1467.556779752007
 20
-2921.655995508019
 30
0.0
 10
1469.147237386086
 20
-2919.604055775674
 30
0.0
 10
1470.172619484794
 20
-2917.227758078218
 30
0.0
 10
1470.43460874906
 20
-2915.52080712997
 30
0.0
 10
1470.454410743385
 20
-2914.670794074135
 30
0.0
 11
1460.571577689685
 21
-2924.553627130375
 31
0.0
 11
1463.092983718745
 21
-2924.167941152955
 31
0.0
 11
1465.447633147105
 21
-2923.154032685475
 31
0.0
 11
1467.479792745465
 21
-2921.579009129916
 31
0.0
 11
1469.054812252265
 21
-2919.546845584395
 31
0.0
 11
1470.068721616365
 21
-2917.192197001855
 31
0.0
 11
1470.454410743385
 21
-2914.670794074135
 31
0.0
  0
SPLINE
  5
E3
330
2
100
AcDbEntity
  8
0
  6
Continuous
 62
     7
100
AcDbSpline
210
0.0
220
0.0
230
1.0
 70
     8
 71
     3
 72
    11
 73
     7
 74
     5
 42
0.0000000001
 43
0.0000000001
 44
0.0000000001
 12
0.0068187895443723
 22
-0.999976751784335
 32
0.0
 13
0.0000915604914317
 23
-0.9999999958083382
 33
0.0
 40
0.0
 40
0.0
 40
0.0
 40
0.0
 40
12.33974783616226
 40
24.29742900965026
 40
35.95432005698277
 40
47.30222492595626
 40
47.30222492595626
 40
47.30222492595626
 40
47.30222492595626
 10
1060.338870630665
 20
-2662.299408764575
 30
0.0
 10
1060.36691801184
 20
-2666.41256241759
 30
0.0
 10
1060.415527395159
 20
-2674.511563934648
 30
0.0
 10
1060.467573475434
 20
-2686.496229573292
 30
0.0
 10
1060.49879942747
 20
-2698.150351985108
 30
0.0
 10
1060.50634436405
 20
-2705.818618087386
 30
0.0
 10
1060.506690703965
 20
-2709.601253027856
 30
0.0
 11
1060.338870630665
 21
-2662.299408764575
 31
0.0
 11
1060.412825936145
 21
-2674.638934982095
 31
0.0
 11
1060.464651793885
 21
-2686.596503845676
 31
0.0
 11
1060.495737172405
 21
-2698.253353445315
 31
0.0
 11
1060.506690703965
 21
-2709.601253027856
 31
0.0
  0
LINE
  5
E4
330
2
100
AcDbEntity
  8
0
  6
Continuous
 62
     7
100
AcDbLine
 10
1060.506690703965
 20
-2709.601253027856
 30
0.0
 11
1060.507837054225
 21
-2735.323104667615
 31
0.0
  0
SPLINE
  5
E5
330
2
100
AcDbEntity
  8
0
  6
Continuous
 62
     7
100
AcDbSpline
210
0.0
220
0.0
230
1.0
 70
     8
 71
     3
 72
    12
 73
     8
 74
     6
 42
0.0000000001
 43
0.0000000001
 44
0.0000000001
 12
-0.000000006867319
 22
-1.0
 32
0.0
 13
-0.0002584102384299
 23
-0.9999999666120739
 33
0.0
 40
0.0
 40
0.0
 40
0.0
 40
0.0
 40
19.5650950377252
 40
38.73897507505041
 40
57.52551694554973
 40
75.9273737659928
 40
93.94641492156869
 40
93.94641492156869
 40
93.94641492156869
 40
93.94641492156869
 10
1060.507837054225
 20
-2735.323104667615
 30
0.0
 10
1060.507837009438
 20
-2741.844803013524
 30
0.0
 10
1060.507414952215
 20
-2754.757794708651
 30
0.0
 10
1060.505627811199
 20
-2773.932966950454
 30
0.0
 10
1060.50284989205
 20
-2792.720392996421
 30
0.0
 10
1060.499231985904
 20
-2811.122872595781
 30
0.0
 10
1060.496324089219
 20
-2823.263171576636
 30
0.0
 10
1060.494771987645
 20
-2829.269518427955
 30
0.0
 11
1060.507837054225
 21
-2735.323104667615
 31
0.0
 11
1060.507211363325
 21
-2754.888199695336
 31
0.0
 11
1060.505439322165
 21
-2774.062079650776
 31
0.0
 11
1060.502676749585
 21
-2792.848621318155
 31
0.0
 11
1060.499073863725
 21
-2811.250477785895
 31
0.0
 11
1060.494771987645
 21
-2829.269518427955
 31
0.0
  0
SPLINE
  5
E6
330
2
100
AcDbEntity
  8
0
  6
Continuous
 62
     7
100
AcDbSpline
210
0.0
220
0.0
230
1.0
 70
     8
 71
     3
 72
    15
 73
    11
 74
     9
 42
0.0000000001
 43
0.0000000001
 44
0.0000000001
 12
-0.0002577185927099
 22
-0.9999999667905628
 32
0.0
 13
-0.0100946960808837
 23
-0.9999490472574263
 33
0.0
 40
0.0
 40
0.0
 40
0.0
 40
0.0
 40
7.36191637185159
 40
15.52576019151306
 40
24.53254381309274
 40
34.43466794688009
 40
45.33730915652276
 40
57.34527968948678
 40
70.61907882171432
 40
85.40306808461537
 40
85.40306808461537
 40
85.40306808461537
 40
85.40306808461537
 10
1060.494771987645
 20
-2829.269518427955
 30
0.0
 10
1060.494139553403
 20
-2831.723490470411
 30
0.0
 10
1060.48914821598
 20
-2836.898743220895
 30
0.0
 10
1060.470798926913
 20
-2845.076239259228
 30
0.0
 10
1060.439373237882
 20
-2854.100437364445
 30
0.0
 10
1060.392649539232
 20
-2864.037512947975
 30
0.0
 10
1060.327979628218
 20
-2874.974902981582
 30
0.0
 10
1060.24245615974
 20
-2887.036072855041
 30
0.0
 10
1060.131953448276
 20
-2900.390871706725
 30
0.0
 10
1060.043112446183
 20
-2909.743048748102
 30
0.0
 10
1059.993365820025
 20
-2914.670794074135
 30
0.0
 11
1060.494771987645
 21
-2829.269518427955
 31
0.0
 11
1060.487917292185
 21
-2836.631431608596
 31
0.0
 11
1060.469826998165
 21
-2844.795255385055
 31
0.0
 11
1060.438668523525
 21
-2853.801985110955
 31
0.0
 11
1060.392315611405
 21
-2863.704000752655
 31
0.0
 11
1060.328120819805
 21
-2874.606452971076
 31
0.0
 11
1060.243198083886
 21
-2886.614123205116
 31
0.0
 11
1060.133554460145
 21
-2899.887469493015
 31
0.0
 11
1059.993365820025
 21
-2914.670794074135
 31
0.0
  0
LINE
  5
E7
330
2
100
AcDbEntity
  8
0
  6
Continuous
 62
     7
100
AcDbLine
 10
1059.993365821295
 20
-2914.670794077488
 30
0.0
 11
1045.009095426675
 21
-2929.654967891148
 31
0.0
  0
LINE
  5
E8
330
2
100
AcDbEntity
  8
0
  6
Continuous
 62
     7
100
AcDbLine
 10
1069.876198877535
 20
-2924.553627133728
 30
0.0
 11
1054.890695676135
 21
-2939.537897528348
 31
0.0
  0
LINE
  5
E9
330
2
100
AcDbEntity
  8
0
  6
Continuous
 62
     7
100
AcDbLine
 10
1060.338870631934
 20
-2662.299408767928
 30
0.0
 11
1045.009095426675
 21
-2650.800802854848
 31
0.0
  0
LINE
  5
EA
330
2
100
AcDbEntity
  8
0
  6
Continuous
 62
     7
100
AcDbLine
 10
1070.221703685635
 20
-2652.365824286648
 30
0.0
 11
1054.984893514155
 21
-2640.938120314568
 31
0.0
  0
LINE
  5
EB
330
2
100
AcDbEntity
  8
0
  6
Continuous
 62
     7
100
AcDbLine
 10
1460.226072880315
 20
-2652.365824286648
 30
0.0
 11
1475.464212873875
 21
-2640.938120314568
 31
0.0
  0
LINE
  5
EC
330
2
100
AcDbEntity
  8
0
  6
Continuous
 62
     7
100
AcDbLine
 10
1470.108905936555
 20
-2662.299408767928
 30
0.0
 11
1485.438681141815
 21
-2650.802181579548
 31
0.0
  0
LINE
  5
ED
330
2
100
AcDbEntity
  8
0
  6
Continuous
 62
     7
100
AcDbLine
 10
1460.571577690954
 20
-2924.553627133728
 30
0.0
 11
1475.555751504615
 21
-2939.537897528348
 31
0.0
  0
LINE
  5
EE
330
2
100
AcDbEntity
  8
0
  6
Continuous
 62
     7
100
AcDbLine
 10
1470.454410744655
 20
-2914.670794077488
 30
0.0
 11
1485.438681141815
 21
-2929.656297278888
 31
0.0
  0
MTEXT
  5
EF
330
2
100
AcDbEntity
  8
尺寸标注
100
AcDbMText
 10
1285.272643437238
 20
-1929.626508937077
 30
0.0
 40
75.0
 41
801.6353349369019
 71
     2
 72
     5
  1
SCALE\P1:1
 73
     1
 44
1.0
  0
ENDSEC
  0
SECTION
  2
OBJECTS
  0
DICTIONARY
  5
9
330
0
100
AcDbDictionary
281
     1
  3
ACAD_COLOR
350
31
  3
ACAD_GROUP
350
2C
  3
ACAD_LAYOUT
350
F
  3
ACAD_MATERIAL
350
B
  3
ACAD_MLEADERSTYLE
350
12F
  3
ACAD_MLINESTYLE
350
2D
  3
ACAD_PLOTSETTINGS
350
2E
  3
ACAD_PLOTSTYLENAME
350
8
  3
ACAD_SCALELIST
350
10D
  3
ACAD_TABLESTYLE
350
32
  3
ACAD_VISUALSTYLE
350
26
  3
ACDB_RECOMPOSE_DATA
350
13C
  3
ACDBHEADERROUNDTRIPXREC
350
136
  3
AcDbVariableDictionary
350
F3
  0
DICTIONARY
  5
27
330
23
100
AcDbDictionary
280
     1
281
     1
  0
DICTIONARY
  5
16
330
15
100
AcDbDictionary
280
     1
281
     1
  3
ACAD_LAYERFILTERS
360
17
  3
ACAD_LAYERSTATES
360
18
  3
ACLYDICTIONARY
360
19
  0
DICTIONARY
  5
3
330
2
100
AcDbDictionary
280
     1
281
     1
  3
ACAD_SORTENTS
360
F1
  0
DICTIONARY
  5
31
102
{ACAD_REACTORS
330
9
102
}
330
9
100
AcDbDictionary
281
     1
  0
DICTIONARY
  5
2C
102
{ACAD_REACTORS
330
9
102
}
330
9
100
AcDbDictionary
281
     1
  0
DICTIONARY
  5
F
102
{ACAD_REACTORS
330
9
102
}
330
9
100
AcDbDictionary
281
     1
  3
Model
350
E
  3
布局1
350
14
  0
DICTIONARY
  5
B
102
{ACAD_REACTORS
330
9
102
}
330
9
100
AcDbDictionary
281
     1
  3
ByBlock
350
30
  3
ByLayer
350
2F
  3
Global
350
A
  0
DICTIONARY
  5
12F
102
{ACAD_REACTORS
330
9
102
}
330
9
100
AcDbDictionary
281
     1
  3
Standard
350
130
  0
DICTIONARY
  5
2D
102
{ACAD_REACTORS
330
9
102
}
330
9
100
AcDbDictionary
281
     1
  3
Standard
350
35
  0
DICTIONARY
  5
2E
102
{ACAD_REACTORS
330
9
102
}
330
9
100
AcDbDictionary
281
     1
  0
ACDBDICTIONARYWDFLT
  5
8
102
{ACAD_REACTORS
330
9
102
}
330
9
100
AcDbDictionary
281
     1
  3
Normal
350
7
100
AcDbDictionaryWithDefault
340
7
  0
DICTIONARY
  5
10D
102
{ACAD_REACTORS
330
9
102
}
330
9
100
AcDbDictionary
281
     1
  3
A0
350
10E
  3
A1
350
10F
  3
A2
350
110
  3
A3
350
111
  3
A4
350
112
  3
A5
350
113
  3
A6
350
114
  3
A7
350
115
  3
A8
350
116
  3
A9
350
117
  3
B0
350
118
  3
B1
350
119
  3
B2
350
11A
  3
B3
350
11B
  3
B4
350
11C
  3
B5
350
11D
  3
B6
350
11E
  3
B7
350
11F
  3
B8
350
120
  3
B9
350
121
  3
C0
350
122
  3
C1
350
123
  3
C2
350
124
  3
C3
350
125
  3
C4
350
126
  3
C5
350
127
  3
C6
350
128
  3
C7
350
129
  3
C8
350
12A
  3
C9
350
12B
  3
D0
350
12C
  3
D1
350
12D
  3
D2
350
12E
  0
DICTIONARY
  5
32
102
{ACAD_REACTORS
330
9
102
}
330
9
100
AcDbDictionary
281
     1
  3
Standard
350
36
  0
DICTIONARY
  5
26
102
{ACAD_REACTORS
330
9
102
}
330
9
100
AcDbDictionary
281
     1
  3
2dWireframe
350
25
  3
3D Hidden
350
FB
  3
3dWireframe
350
38
  3
Basic
350
FA
  3
Brighten
350
FE
  3
ColorChange
350
102
  3
Conceptual
350
FC
  3
Dim
350
FD
  3
Facepattern
350
101
  3
Flat
350
F6
  3
FlatWithEdges
350
F7
  3
Gouraud
350
F8
  3
GouraudWithEdges
350
F9
  3
Linepattern
350
100
  3
Realistic
350
37
  3
Thicken
350
FF
  0
XRECORD
  5
13C
102
{ACAD_REACTORS
330
9
102
}
330
9
100
AcDbXrecord
280
     1
 90
        1
330
36
  0
DICTIONARY
  5
136
102
{ACAD_REACTORS
330
9
102
}
330
9
100
AcDbDictionary
281
     1
  0
DICTIONARY
  5
F3
102
{ACAD_REACTORS
330
9
102
}
330
9
100
AcDbDictionary
281
     1
  3
CMLEADERSTYLE
350
134
  3
CTABLESTYLE
350
F4
  0
DICTIONARY
  5
17
102
{ACAD_REACTORS
330
16
102
}
330
16
100
AcDbDictionary
281
     1
  0
DICTIONARY
  5
18
102
{ACAD_REACTORS
330
16
102
}
330
16
100
AcDbDictionary
281
     1
  0
DICTIONARY
  5
19
102
{ACAD_REACTORS
330
16
102
}
330
16
100
AcDbDictionary
281
     1
1001
ACAD
1000
<All
  0
SORTENTSTABLE
  5
F1
102
{ACAD_REACTORS
330
3
102
}
330
3
100
AcDbSortentsTable
330
2
  0
LAYOUT
  5
E
102
{ACAD_REACTORS
330
F
102
}
330
F
100
AcDbPlotSettings
  1

  2
none_device
  4
ISO_A4_(210.00_x_297.00_MM)
  6

 40
7.5
 41
20.0
 42
7.5
 43
20.0
 44
210.0
 45
297.0
 46
11.54999923706054
 47
-13.65000009536743
 48
0.0
 49
0.0
140
0.0
141
0.0
142
1.0
143
8.704084754739808
 70
 11952
 72
     1
 73
     0
 74
     0
  7
acad.ctb
 75
     0
147
0.1148885871608098
 76
     0
 77
     2
 78
   300
148
0.0
149
0.0
100
AcDbLayout
  1
Model
 70
     1
 71
     0
 10
0.0
 20
0.0
 11
12.0
 21
9.0
 12
0.0
 22
0.0
 32
0.0
 14
0.0
 24
0.0
 34
0.0
 15
0.0
 25
0.0
 35
0.0
146
0.0
 13
0.0
 23
0.0
 33
0.0
 16
1.0
 26
0.0
 36
0.0
 17
0.0
 27
1.0
 37
0.0
 76
     0
330
2
331
24
1001
ACAD_PSEXT
1000
None
1000
None
1000
Not applicable
1000
The layout will not be plotted unless a new plotter configuration name is selected.
1070
     0
  0
LAYOUT
  5
14
102
{ACAD_REACTORS
330
F
102
}
330
F
100
AcDbPlotSettings
  1

  2
C:\Documents and Settings\basas\Application Data\Autodesk\AutoCAD 2005\R16.1\enu\plotters\Default Windows System Printer.pc3
  4

  6

 40
0.0
 41
0.0
 42
0.0
 43
0.0
 44
0.0
 45
0.0
 46
0.0
 47
0.0
 48
0.0
 49
0.0
140
0.0
141
0.0
142
1.0
143
1.0
 70
   688
 72
     0
 73
     0
 74
     5
  7
acad.ctb
 75
    16
147
1.0
 76
     0
 77
     2
 78
   300
148
0.0
149
0.0
100
AcDbLayout
  1
布局1
 70
     1
 71
     1
 10
0.0
 20
0.0
 11
12.0
 21
9.0
 12
0.0
 22
0.0
 32
0.0
 14
0.0
 24
0.0
 34
0.0
 15
0.0
 25
0.0
 35
0.0
146
0.0
 13
0.0
 23
0.0
 33
0.0
 16
1.0
 26
0.0
 36
0.0
 17
0.0
 27
1.0
 37
0.0
 76
     0
330
11
  0
MATERIAL
  5
30
102
{ACAD_REACTORS
330
B
102
}
330
B
100
AcDbMaterial
  1
ByBlock
  2

  0
MATERIAL
  5
2F
102
{ACAD_REACTORS
330
B
102
}
330
B
100
AcDbMaterial
  1
ByLayer
  2

  0
MATERIAL
  5
A
102
{ACAD_REACTORS
330
B
102
}
330
B
100
AcDbMaterial
  1
Global
  2

  0
MLEADERSTYLE
  5
130
102
{ACAD_REACTORS
330
12F
102
}
330
12F
100
AcDbMLeaderStyle
170
     2
171
     1
172
     0
 90
        2
 40
0.0
 41
0.0
173
     1
 91
-1056964608
340
1F
 92
       -2
290
     1
 42
0.09
291
     1
 43
8.0
  3
Standard
341
0
 44
0.18
300

342
1C
174
     1
178
     1
175
     1
176
     0
 93
-1056964608
 45
0.18
292
     0
297
     0
 46
0.18
343
0
 94
-1056964608
 47
1.0
 49
1.0
140
1.0
293
     1
141
0.0
294
     1
177
     0
142
1.0
295
     0
296
     0
143
3.75
1001
ACAD_MLEADERVER
1070
     2
  0
MLINESTYLE
  5
35
102
{ACAD_REACTORS
330
2D
102
}
330
2D
100
AcDbMlineStyle
  2
STANDARD
 70
     0
  3

 62
   256
 51
90.0
 52
90.0
 71
     2
 49
0.5
 62
   256
  6
BYLAYER
 49
-0.5
 62
   256
  6
BYLAYER
  0
ACDBPLACEHOLDER
  5
7
102
{ACAD_REACTORS
330
8
102
}
330
8
  0
SCALE
  5
10E
102
{ACAD_REACTORS
330
10D
102
}
330
10D
100
AcDbScale
 70
     0
300
1:1
140
1.0
141
1.0
290
     1
  0
SCALE
  5
10F
102
{ACAD_REACTORS
330
10D
102
}
330
10D
100
AcDbScale
 70
     0
300
1:2
140
1.0
141
2.0
290
     0
  0
SCALE
  5
110
102
{ACAD_REACTORS
330
10D
102
}
330
10D
100
AcDbScale
 70
     0
300
1:4
140
1.0
141
4.0
290
     0
  0
SCALE
  5
111
102
{ACAD_REACTORS
330
10D
102
}
330
10D
100
AcDbScale
 70
     0
300
1:5
140
1.0
141
5.0
290
     0
  0
SCALE
  5
112
102
{ACAD_REACTORS
330
10D
102
}
330
10D
100
AcDbScale
 70
     0
300
1:8
140
1.0
141
8.0
290
     0
  0
SCALE
  5
113
102
{ACAD_REACTORS
330
10D
102
}
330
10D
100
AcDbScale
 70
     0
300
1:10
140
1.0
141
10.0
290
     0
  0
SCALE
  5
114
102
{ACAD_REACTORS
330
10D
102
}
330
10D
100
AcDbScale
 70
     0
300
1:16
140
1.0
141
16.0
290
     0
  0
SCALE
  5
115
102
{ACAD_REACTORS
330
10D
102
}
330
10D
100
AcDbScale
 70
     0
300
1:20
140
1.0
141
20.0
290
     0
  0
SCALE
  5
116
102
{ACAD_REACTORS
330
10D
102
}
330
10D
100
AcDbScale
 70
     0
300
1:30
140
1.0
141
30.0
290
     0
  0
SCALE
  5
117
102
{ACAD_REACTORS
330
10D
102
}
330
10D
100
AcDbScale
 70
     0
300
1:40
140
1.0
141
40.0
290
     0
  0
SCALE
  5
118
102
{ACAD_REACTORS
330
10D
102
}
330
10D
100
AcDbScale
 70
     0
300
1:50
140
1.0
141
50.0
290
     0
  0
SCALE
  5
119
102
{ACAD_REACTORS
330
10D
102
}
330
10D
100
AcDbScale
 70
     0
300
1:100
140
1.0
141
100.0
290
     0
  0
SCALE
  5
11A
102
{ACAD_REACTORS
330
10D
102
}
330
10D
100
AcDbScale
 70
     0
300
2:1
140
2.0
141
1.0
290
     0
  0
SCALE
  5
11B
102
{ACAD_REACTORS
330
10D
102
}
330
10D
100
AcDbScale
 70
     0
300
4:1
140
4.0
141
1.0
290
     0
  0
SCALE
  5
11C
102
{ACAD_REACTORS
330
10D
102
}
330
10D
100
AcDbScale
 70
     0
300
8:1
140
8.0
141
1.0
290
     0
  0
SCALE
  5
11D
102
{ACAD_REACTORS
330
10D
102
}
330
10D
100
AcDbScale
 70
     0
300
10:1
140
10.0
141
1.0
290
     0
  0
SCALE
  5
11E
102
{ACAD_REACTORS
330
10D
102
}
330
10D
100
AcDbScale
 70
     0
300
100:1
140
100.0
141
1.0
290
     0
  0
SCALE
  5
11F
102
{ACAD_REACTORS
330
10D
102
}
330
10D
100
AcDbScale
 70
     0
300
1/128" = 1'-0"
140
0.0078125
141
12.0
290
     0
  0
SCALE
  5
120
102
{ACAD_REACTORS
330
10D
102
}
330
10D
100
AcDbScale
 70
     0
300
1/64" = 1'-0"
140
0.015625
141
12.0
290
     0
  0
SCALE
  5
121
102
{ACAD_REACTORS
330
10D
102
}
330
10D
100
AcDbScale
 70
     0
300
1/32" = 1'-0"
140
0.03125
141
12.0
290
     0
  0
SCALE
  5
122
102
{ACAD_REACTORS
330
10D
102
}
330
10D
100
AcDbScale
 70
     0
300
1/16" = 1'-0"
140
0.0625
141
12.0
290
     0
  0
SCALE
  5
123
102
{ACAD_REACTORS
330
10D
102
}
330
10D
100
AcDbScale
 70
     0
300
3/32" = 1'-0"
140
0.09375
141
12.0
290
     0
  0
SCALE
  5
124
102
{ACAD_REACTORS
330
10D
102
}
330
10D
100
AcDbScale
 70
     0
300
1/8" = 1'-0"
140
0.125
141
12.0
290
     0
  0
SCALE
  5
125
102
{ACAD_REACTORS
330
10D
102
}
330
10D
100
AcDbScale
 70
     0
300
3/16" = 1'-0"
140
0.1875
141
12.0
290
     0
  0
SCALE
  5
126
102
{ACAD_REACTORS
330
10D
102
}
330
10D
100
AcDbScale
 70
     0
300
1/4" = 1'-0"
140
0.25
141
12.0
290
     0
  0
SCALE
  5
127
102
{ACAD_REACTORS
330
10D
102
}
330
10D
100
AcDbScale
 70
     0
300
3/8" = 1'-0"
140
0.375
141
12.0
290
     0
  0
SCALE
  5
128
102
{ACAD_REACTORS
330
10D
102
}
330
10D
100
AcDbScale
 70
     0
300
1/2" = 1'-0"
140
0.5
141
12.0
290
     0
  0
SCALE
  5
129
102
{ACAD_REACTORS
330
10D
102
}
330
10D
100
AcDbScale
 70
     0
300
3/4" = 1'-0"
140
0.75
141
12.0
290
     0
  0
SCALE
  5
12A
102
{ACAD_REACTORS
330
10D
102
}
330
10D
100
AcDbScale
 70
     0
300
1" = 1'-0"
140
1.0
141
12.0
290
     0
  0
SCALE
  5
12B
102
{ACAD_REACTORS
330
10D
102
}
330
10D
100
AcDbScale
 70
     0
300
1-1/2" = 1'-0"
140
1.5
141
12.0
290
     0
  0
SCALE
  5
12C
102
{ACAD_REACTORS
330
10D
102
}
330
10D
100
AcDbScale
 70
     0
300
3" = 1'-0"
140
3.0
141
12.0
290
     0
  0
SCALE
  5
12D
102
{ACAD_REACTORS
330
10D
102
}
330
10D
100
AcDbScale
 70
     0
300
6" = 1'-0"
140
6.0
141
12.0
290
     0
  0
SCALE
  5
12E
102
{ACAD_REACTORS
330
10D
102
}
330
10D
100
AcDbScale
 70
     0
300
1'-0" = 1'-0"
140
12.0
141
12.0
290
     0
  0
TABLESTYLE
  5
36
102
{ACAD_XDICTIONARY
360
139
102
}
102
{ACAD_REACTORS
330
32
102
}
330
32
100
AcDbTableStyle
  3
Standard
 70
     0
 71
     0
 40
1.5
 41
1.5
280
     0
281
     0
  7
Standard
140
4.5
170
     2
 62
     0
 63
   257
283
     0
274
    -2
284
     1
 64
     0
275
    -2
285
     1
 65
     0
276
    -2
286
     1
 66
     0
277
    -2
287
     1
 67
     0
278
    -2
288
     1
 68
     0
279
    -2
289
     1
 69
     0
  7
Standard
140
6.0
170
     5
 62
     0
 63
   257
283
     0
274
    -2
284
     1
 64
     0
275
    -2
285
     1
 65
     0
276
    -2
286
     1
 66
     0
277
    -2
287
     1
 67
     0
278
    -2
288
     1
 68
     0
279
    -2
289
     1
 69
     0
  7
Standard
140
4.5
170
     5
 62
     0
 63
   257
283
     0
274
    -2
284
     1
 64
     0
275
    -2
285
     1
 65
     0
276
    -2
286
     1
 66
     0
277
    -2
287
     1
 67
     0
278
    -2
288
     1
 68
     0
279
    -2
289
     1
 69
     0
  0
VISUALSTYLE
  5
25
102
{ACAD_XDICTIONARY
360
137
102
}
102
{ACAD_REACTORS
330
26
102
}
330
26
100
AcDbVisualStyle
  2
2dWireframe
 70
     4
 71
     0
 72
     2
 73
     1
 90
        0
 40
-0.6
 41
-30.0
 62
     5
 63
     7
421
 16777215
 74
     1
 91
        4
 64
     7
 65
   257
 75
     1
175
     1
 42
1.0
 92
        0
 66
   257
 43
1.0
 76
     1
 77
     6
 78
     2
 67
     7
 79
     5
170
     0
171
     0
290
     0
174
     0
 93
        1
 44
0.0
173
     0
291
     0
 45
0.0
1001
ACAD
1000
AcDbSavedByObjectVersion
1070
     0
  0
VISUALSTYLE
  5
FB
102
{ACAD_XDICTIONARY
360
14B
102
}
102
{ACAD_REACTORS
330
26
102
}
330
26
100
AcDbVisualStyle
  2
3D Hidden
 70
     6
 71
     1
 72
     2
 73
     2
 90
        0
 40
-0.6
 41
-30.0
 62
     5
 63
     7
421
 16777215
 74
     2
 91
        2
 64
     7
 65
   257
 75
     2
175
     1
 42
40.0
 92
        0
 66
   257
 43
1.0
 76
     1
 77
     6
 78
     2
 67
     7
 79
     3
170
     0
171
     0
290
     0
174
     0
 93
        1
 44
0.0
173
     0
291
     0
 45
0.0
1001
ACAD
1000
AcDbSavedByObjectVersion
1070
     0
  0
VISUALSTYLE
  5
38
102
{ACAD_XDICTIONARY
360
13F
102
}
102
{ACAD_REACTORS
330
26
102
}
330
26
100
AcDbVisualStyle
  2
3dWireframe
 70
     5
 71
     0
 72
     2
 73
     1
 90
        0
 40
-0.6
 41
-30.0
 62
     5
 63
     7
421
 16777215
 74
     1
 91
        4
 64
     7
 65
   257
 75
     1
175
     1
 42
1.0
 92
        0
 66
   257
 43
1.0
 76
     1
 77
     6
 78
     2
 67
     7
 79
     5
170
     0
171
     0
290
     0
174
     0
 93
        1
 44
0.0
173
     0
291
     0
 45
0.0
1001
ACAD
1000
AcDbSavedByObjectVersion
1070
     0
  0
VISUALSTYLE
  5
FA
102
{ACAD_XDICTIONARY
360
149
102
}
102
{ACAD_REACTORS
330
26
102
}
330
26
100
AcDbVisualStyle
  2
Basic
 70
     7
 71
     1
 72
     0
 73
     1
 90
        0
 40
-0.6
 41
-30.0
 62
     5
 63
     7
421
 16777215
 74
     0
 91
        4
 64
     7
 65
   257
 75
     1
175
     1
 42
1.0
 92
        8
 66
     7
 43
1.0
 76
     1
 77
     6
 78
     2
 67
     7
 79
     5
170
     0
171
     0
290
     0
174
     0
 93
        1
 44
0.0
173
     0
291
     1
 45
0.0
1001
ACAD
1000
AcDbSavedByObjectVersion
1070
     0
  0
VISUALSTYLE
  5
FE
102
{ACAD_XDICTIONARY
360
151
102
}
102
{ACAD_REACTORS
330
26
102
}
330
26
100
AcDbVisualStyle
  2
Brighten
 70
    12
 71
     2
 72
     2
 73
     0
 90
        0
 40
-0.6
 41
-30.0
 62
     5
 63
     7
421
 16777215
 74
     1
 91
        4
 64
     7
 65
   257
 75
     1
175
     1
 42
1.0
 92
        8
 66
     7
 43
1.0
 76
     1
 77
     6
 78
     2
 67
     7
 79
     5
170
     0
171
     0
290
     0
174
     0
 93
        1
 44
50.0
173
     0
291
     1
 45
0.0
1001
ACAD
1000
AcDbSavedByObjectVersion
1070
     0
  0
VISUALSTYLE
  5
102
102
{ACAD_XDICTIONARY
360
159
102
}
102
{ACAD_REACTORS
330
26
102
}
330
26
100
AcDbVisualStyle
  2
ColorChange
 70
    16
 71
     2
 72
     2
 73
     3
 90
        0
 40
-0.6
 41
-30.0
 62
     5
 63
     8
421
  8421504
 74
     1
 91
        4
 64
     7
 65
   257
 75
     1
175
     1
 42
1.0
 92
        8
 66
     8
424
  8421504
 43
1.0
 76
     1
 77
     6
 78
     2
 67
     7
 79
     5
170
     0
171
     0
290
     0
174
     0
 93
        1
 44
0.0
173
     0
291
     1
 45
0.0
1001
ACAD
1000
AcDbSavedByObjectVersion
1070
     0
  0
VISUALSTYLE
  5
FC
102
{ACAD_XDICTIONARY
360
14D
102
}
102
{ACAD_REACTORS
330
26
102
}
330
26
100
AcDbVisualStyle
  2
Conceptual
 70
     9
 71
     3
 72
     2
 73
     0
 90
        0
 40
-0.6
 41
-30.0
 62
     5
 63
     7
421
 16777215
 74
     2
 91
        2
 64
     7
 65
   257
 75
     1
175
     1
 42
40.0
 92
        8
 66
     7
 43
1.0
 76
     1
 77
     6
 78
     2
 67
     7
 79
     3
170
     0
171
     0
290
     0
174
     0
 93
        1
 44
0.0
173
     0
291
     0
 45
0.0
1001
ACAD
1000
AcDbSavedByObjectVersion
1070
     0
  0
VISUALSTYLE
  5
FD
102
{ACAD_XDICTIONARY
360
14F
102
}
102
{ACAD_REACTORS
330
26
102
}
330
26
100
AcDbVisualStyle
  2
Dim
 70
    11
 71
     2
 72
     2
 73
     0
 90
        0
 40
-0.6
 41
-30.0
 62
     5
 63
     7
421
 16777215
 74
     1
 91
        4
 64
     7
 65
   257
 75
     1
175
     1
 42
1.0
 92
        8
 66
     7
 43
1.0
 76
     1
 77
     6
 78
     2
 67
     7
 79
     5
170
     0
171
     0
290
     0
174
     0
 93
        1
 44
-50.0
173
     0
291
     1
 45
0.0
1001
ACAD
1000
AcDbSavedByObjectVersion
1070
     0
  0
VISUALSTYLE
  5
101
102
{ACAD_XDICTIONARY
360
157
102
}
102
{ACAD_REACTORS
330
26
102
}
330
26
100
AcDbVisualStyle
  2
Facepattern
 70
    15
 71
     2
 72
     2
 73
     0
 90
        0
 40
-0.6
 41
-30.0
 62
     5
 63
     7
421
 16777215
 74
     1
 91
        4
 64
     7
 65
   257
 75
     1
175
     1
 42
1.0
 92
        8
 66
     7
 43
1.0
 76
     1
 77
     6
 78
     2
 67
     7
 79
     5
170
     0
171
     0
290
     0
174
     0
 93
        1
 44
0.0
173
     0
291
     1
 45
0.0
1001
ACAD
1000
AcDbSavedByObjectVersion
1070
     0
  0
VISUALSTYLE
  5
F6
102
{ACAD_XDICTIONARY
360
141
102
}
102
{ACAD_REACTORS
330
26
102
}
330
26
100
AcDbVisualStyle
  2
Flat
 70
     0
 71
     2
 72
     1
 73
     1
 90
        2
 40
-0.6
 41
30.0
 62
     5
 63
     7
421
 16777215
 74
     0
 91
        4
 64
     7
 65
   257
 75
     1
175
     1
 42
1.0
 92
        8
 66
     7
 43
1.0
 76
     1
 77
     6
 78
     2
 67
     7
 79
     5
170
     0
171
     0
290
     0
174
     0
 93
       13
 44
0.0
173
     0
291
     1
 45
0.0
1001
ACAD
1000
AcDbSavedByObjectVersion
1070
     0
  0
VISUALSTYLE
  5
F7
102
{ACAD_XDICTIONARY
360
143
102
}
102
{ACAD_REACTORS
330
26
102
}
330
26
100
AcDbVisualStyle
  2
FlatWithEdges
 70
     1
 71
     2
 72
     1
 73
     1
 90
        2
 40
-0.6
 41
30.0
 62
     5
 63
     7
421
 16777215
 74
     1
 91
        4
 64
     7
 65
   257
 75
     1
175
     1
 42
1.0
 92
        0
 66
   257
 43
1.0
 76
     1
 77
     6
 78
     2
 67
     7
 79
     5
170
     0
171
     0
290
     0
174
     0
 93
       13
 44
0.0
173
     0
291
     1
 45
0.0
1001
ACAD
1000
AcDbSavedByObjectVersion
1070
     0
  0
VISUALSTYLE
  5
F8
102
{ACAD_XDICTIONARY
360
145
102
}
102
{ACAD_REACTORS
330
26
102
}
330
26
100
AcDbVisualStyle
  2
Gouraud
 70
     2
 71
     2
 72
     2
 73
     1
 90
        2
 40
-0.6
 41
30.0
 62
     5
 63
     7
421
 16777215
 74
     0
 91
        4
 64
     7
 65
   257
 75
     1
175
     1
 42
1.0
 92
        0
 66
     7
 43
1.0
 76
     1
 77
     6
 78
     2
 67
     7
 79
     5
170
     0
171
     0
290
     0
174
     0
 93
       13
 44
0.0
173
     0
291
     1
 45
0.0
1001
ACAD
1000
AcDbSavedByObjectVersion
1070
     0
  0
VISUALSTYLE
  5
F9
102
{ACAD_XDICTIONARY
360
147
102
}
102
{ACAD_REACTORS
330
26
102
}
330
26
100
AcDbVisualStyle
  2
GouraudWithEdges
 70
     3
 71
     2
 72
     2
 73
     1
 90
        2
 40
-0.6
 41
30.0
 62
     5
 63
     7
421
 16777215
 74
     1
 91
        4
 64
     7
 65
   257
 75
     1
175
     1
 42
1.0
 92
        0
 66
   257
 43
1.0
 76
     1
 77
     6
 78
     2
 67
     7
 79
     5
170
     0
171
     0
290
     0
174
     0
 93
       13
 44
0.0
173
     0
291
     1
 45
0.0
1001
ACAD
1000
AcDbSavedByObjectVersion
1070
     0
  0
VISUALSTYLE
  5
100
102
{ACAD_XDICTIONARY
360
155
102
}
102
{ACAD_REACTORS
330
26
102
}
330
26
100
AcDbVisualStyle
  2
Linepattern
 70
    14
 71
     2
 72
     2
 73
     0
 90
        0
 40
-0.6
 41
-30.0
 62
     5
 63
     7
421
 16777215
 74
     1
 91
        4
 64
     7
 65
   257
 75
     7
175
     7
 42
1.0
 92
        8
 66
     7
 43
1.0
 76
     1
 77
     6
 78
     2
 67
     7
 79
     5
170
     0
171
     0
290
     0
174
     0
 93
        1
 44
0.0
173
     0
291
     1
 45
0.0
1001
ACAD
1000
AcDbSavedByObjectVersion
1070
     0
  0
VISUALSTYLE
  5
37
102
{ACAD_XDICTIONARY
360
13D
102
}
102
{ACAD_REACTORS
330
26
102
}
330
26
100
AcDbVisualStyle
  2
Realistic
 70
     8
 71
     2
 72
     2
 73
     1
 90
        0
 40
-0.6
 41
-30.0
 62
     5
 63
     7
421
 16777215
 74
     1
 91
        0
 64
     7
 65
   257
 75
     1
175
     1
 42
1.0
 92
        8
 66
     8
424
  7895160
 43
1.0
 76
     1
 77
     6
 78
     2
 67
     7
 79
     5
170
     0
171
     0
290
     0
174
     0
 93
       13
 44
0.0
173
     0
291
     0
 45
0.0
1001
ACAD
1000
AcDbSavedByObjectVersion
1070
     0
  0
VISUALSTYLE
  5
FF
102
{ACAD_XDICTIONARY
360
153
102
}
102
{ACAD_REACTORS
330
26
102
}
330
26
100
AcDbVisualStyle
  2
Thicken
 70
    13
 71
     2
 72
     2
 73
     0
 90
        0
 40
-0.6
 41
-30.0
 62
     5
 63
     7
421
 16777215
 74
     1
 91
        4
 64
     7
 65
   257
 75
     1
175
     1
 42
1.0
 92
       12
 66
     7
 43
1.0
 76
     1
 77
     6
 78
     2
 67
     7
 79
     5
170
     0
171
     0
290
     0
174
     0
 93
        1
 44
0.0
173
     0
291
     1
 45
0.0
1001
ACAD
1000
AcDbSavedByObjectVersion
1070
     0
  0
DICTIONARYVAR
  5
134
102
{ACAD_REACTORS
330
F3
102
}
330
F3
100
DictionaryVariables
280
     0
  1
STANDARD
  0
DICTIONARYVAR
  5
F4
102
{ACAD_REACTORS
330
F3
102
}
330
F3
100
DictionaryVariables
280
     0
  1
STANDARD
  0
DICTIONARY
  5
139
330
36
100
AcDbDictionary
280
     1
281
     1
  3
ACAD_ROUNDTRIP_2008_TABLESTYLE_CELLSTYLEMAP
360
13B
  3
ACAD_XREC_ROUNDTRIP
360
13A
  0
DICTIONARY
  5
137
330
25
100
AcDbDictionary
280
     1
281
     1
  3
ACAD_XREC_ROUNDTRIP
360
138
  0
DICTIONARY
  5
14B
330
FB
100
AcDbDictionary
280
     1
281
     1
  3
ACAD_XREC_ROUNDTRIP
360
14C
  0
DICTIONARY
  5
13F
330
38
100
AcDbDictionary
280
     1
281
     1
  3
ACAD_XREC_ROUNDTRIP
360
140
  0
DICTIONARY
  5
149
330
FA
100
AcDbDictionary
280
     1
281
     1
  3
ACAD_XREC_ROUNDTRIP
360
14A
  0
DICTIONARY
  5
151
330
FE
100
AcDbDictionary
280
     1
281
     1
  3
ACAD_XREC_ROUNDTRIP
360
152
  0
DICTIONARY
  5
159
330
102
100
AcDbDictionary
280
     1
281
     1
  3
ACAD_XREC_ROUNDTRIP
360
15A
  0
DICTIONARY
  5
14D
330
FC
100
AcDbDictionary
280
     1
281
     1
  3
ACAD_XREC_ROUNDTRIP
360
14E
  0
DICTIONARY
  5
14F
330
FD
100
AcDbDictionary
280
     1
281
     1
  3
ACAD_XREC_ROUNDTRIP
360
150
  0
DICTIONARY
  5
157
330
101
100
AcDbDictionary
280
     1
281
     1
  3
ACAD_XREC_ROUNDTRIP
360
158
  0
DICTIONARY
  5
141
330
F6
100
AcDbDictionary
280
     1
281
     1
  3
ACAD_XREC_ROUNDTRIP
360
142
  0
DICTIONARY
  5
143
330
F7
100
AcDbDictionary
280
     1
281
     1
  3
ACAD_XREC_ROUNDTRIP
360
144
  0
DICTIONARY
  5
145
330
F8
100
AcDbDictionary
280
     1
281
     1
  3
ACAD_XREC_ROUNDTRIP
360
146
  0
DICTIONARY
  5
147
330
F9
100
AcDbDictionary
280
     1
281
     1
  3
ACAD_XREC_ROUNDTRIP
360
148
  0
DICTIONARY
  5
155
330
100
100
AcDbDictionary
280
     1
281
     1
  3
ACAD_XREC_ROUNDTRIP
360
156
  0
DICTIONARY
  5
13D
330
37
100
AcDbDictionary
280
     1
281
     1
  3
ACAD_XREC_ROUNDTRIP
360
13E
  0
DICTIONARY
  5
153
330
FF
100
AcDbDictionary
280
     1
281
     1
  3
ACAD_XREC_ROUNDTRIP
360
154
  0
CELLSTYLEMAP
  5
13B
102
{ACAD_REACTORS
330
139
102
}
330
139
100
AcDbCellStyleMap
 90
        3
300
CELLSTYLE
  1
TABLEFORMAT_BEGIN
 90
        5
170
     1
 91
        0
 92
        0
 62
   257
 93
        1
300
CONTENTFORMAT
  1
CONTENTFORMAT_BEGIN
 90
        0
 91
        0
 92
      512
 93
        0
300

 40
0.0
140
1.0
 94
        5
 62
     0
340
1C
144
6.0
309
CONTENTFORMAT_END
171
     1
301
MARGIN
  1
CELLMARGIN_BEGIN
 40
1.5
 40
1.5
 40
1.5
 40
1.5
 40
4.5
 40
4.5
309
CELLMARGIN_END
 94
        6
 95
        1
302
GRIDFORMAT
  1
GRIDFORMAT_BEGIN
 90
        0
 91
        1
 62
     0
 92
       -2
340
0
 93
        0
 40
0.045
309
GRIDFORMAT_END
 95
        2
302
GRIDFORMAT
  1
GRIDFORMAT_BEGIN
 90
        0
 91
        1
 62
     0
 92
       -2
340
0
 93
        0
 40
0.045
309
GRIDFORMAT_END
 95
        4
302
GRIDFORMAT
  1
GRIDFORMAT_BEGIN
 90
        0
 91
        1
 62
     0
 92
       -2
340
0
 93
        0
 40
0.045
309
GRIDFORMAT_END
 95
        8
302
GRIDFORMAT
  1
GRIDFORMAT_BEGIN
 90
        0
 91
        1
 62
     0
 92
       -2
340
0
 93
        0
 40
0.045
309
GRIDFORMAT_END
 95
       16
302
GRIDFORMAT
  1
GRIDFORMAT_BEGIN
 90
        0
 91
        1
 62
     0
 92
       -2
340
0
 93
        0
 40
0.045
309
GRIDFORMAT_END
 95
       32
302
GRIDFORMAT
  1
GRIDFORMAT_BEGIN
 90
        0
 91
        1
 62
     0
 92
       -2
340
0
 93
        0
 40
0.045
309
GRIDFORMAT_END
309
TABLEFORMAT_END
  1
CELLSTYLE_BEGIN
 90
        1
 91
        1
300
_TITLE
309
CELLSTYLE_END
300
CELLSTYLE
  1
TABLEFORMAT_BEGIN
 90
        5
170
     1
 91
        0
 92
        0
 62
   257
 93
        1
300
CONTENTFORMAT
  1
CONTENTFORMAT_BEGIN
 90
        0
 91
        0
 92
      512
 93
        0
300

 40
0.0
140
1.0
 94
        5
 62
     0
340
1C
144
4.5
309
CONTENTFORMAT_END
171
     1
301
MARGIN
  1
CELLMARGIN_BEGIN
 40
1.5
 40
1.5
 40
1.5
 40
1.5
 40
4.5
 40
4.5
309
CELLMARGIN_END
 94
        6
 95
        1
302
GRIDFORMAT
  1
GRIDFORMAT_BEGIN
 90
        0
 91
        1
 62
     0
 92
       -2
340
0
 93
        0
 40
0.045
309
GRIDFORMAT_END
 95
        2
302
GRIDFORMAT
  1
GRIDFORMAT_BEGIN
 90
        0
 91
        1
 62
     0
 92
       -2
340
0
 93
        0
 40
0.045
309
GRIDFORMAT_END
 95
        4
302
GRIDFORMAT
  1
GRIDFORMAT_BEGIN
 90
        0
 91
        1
 62
     0
 92
       -2
340
0
 93
        0
 40
0.045
309
GRIDFORMAT_END
 95
        8
302
GRIDFORMAT
  1
GRIDFORMAT_BEGIN
 90
        0
 91
        1
 62
     0
 92
       -2
340
0
 93
        0
 40
0.045
309
GRIDFORMAT_END
 95
       16
302
GRIDFORMAT
  1
GRIDFORMAT_BEGIN
 90
        0
 91
        1
 62
     0
 92
       -2
340
0
 93
        0
 40
0.045
309
GRIDFORMAT_END
 95
       32
302
GRIDFORMAT
  1
GRIDFORMAT_BEGIN
 90
        0
 91
        1
 62
     0
 92
       -2
340
0
 93
        0
 40
0.045
309
GRIDFORMAT_END
309
TABLEFORMAT_END
  1
CELLSTYLE_BEGIN
 90
        2
 91
        1
300
_HEADER
309
CELLSTYLE_END
300
CELLSTYLE
  1
TABLEFORMAT_BEGIN
 90
        5
170
     1
 91
        0
 92
        0
 62
   257
 93
        1
300
CONTENTFORMAT
  1
CONTENTFORMAT_BEGIN
 90
        0
 91
        0
 92
      512
 93
        0
300

 40
0.0
140
1.0
 94
        2
 62
     0
340
1C
144
4.5
309
CONTENTFORMAT_END
171
     1
301
MARGIN
  1
CELLMARGIN_BEGIN
 40
1.5
 40
1.5
 40
1.5
 40
1.5
 40
4.5
 40
4.5
309
CELLMARGIN_END
 94
        6
 95
        1
302
GRIDFORMAT
  1
GRIDFORMAT_BEGIN
 90
        0
 91
        1
 62
     0
 92
       -2
340
0
 93
        0
 40
0.045
309
GRIDFORMAT_END
 95
        2
302
GRIDFORMAT
  1
GRIDFORMAT_BEGIN
 90
        0
 91
        1
 62
     0
 92
       -2
340
0
 93
        0
 40
0.045
309
GRIDFORMAT_END
 95
        4
302
GRIDFORMAT
  1
GRIDFORMAT_BEGIN
 90
        0
 91
        1
 62
     0
 92
       -2
340
0
 93
        0
 40
0.045
309
GRIDFORMAT_END
 95
        8
302
GRIDFORMAT
  1
GRIDFORMAT_BEGIN
 90
        0
 91
        1
 62
     0
 92
       -2
340
0
 93
        0
 40
0.045
309
GRIDFORMAT_END
 95
       16
302
GRIDFORMAT
  1
GRIDFORMAT_BEGIN
 90
        0
 91
        1
 62
     0
 92
       -2
340
0
 93
        0
 40
0.045
309
GRIDFORMAT_END
 95
       32
302
GRIDFORMAT
  1
GRIDFORMAT_BEGIN
 90
        0
 91
        1
 62
     0
 92
       -2
340
0
 93
        0
 40
0.045
309
GRIDFORMAT_END
309
TABLEFORMAT_END
  1
CELLSTYLE_BEGIN
 90
        3
 91
        2
300
_DATA
309
CELLSTYLE_END
  0
XRECORD
  5
13A
102
{ACAD_REACTORS
330
139
102
}
330
139
100
AcDbXrecord
280
     1
102
ACAD_ROUNDTRIP_PRE2007_TABLESTYLE
 90
      512
 91
        0
  1

 92
      512
 93
        0
  2

 94
      512
 95
        0
  3

  0
XRECORD
  5
138
102
{ACAD_REACTORS
330
137
102
}
330
137
100
AcDbXrecord
280
     1
102
RTVSPropertyOp0
 70
     1
102
RTVSPropertyOp1
 70
     1
102
RTVSPropertyOp2
 70
     1
102
RTVSPropertyOp3
 70
     1
102
RTVSPropertyOp4
 70
     1
102
RTVSPropertyOp5
 70
     1
102
RTVSPropertyOp6
 70
     1
102
RTVSPropertyOp7
 70
     1
102
RTVSPropertyOp8
 70
     1
102
RTVSPropertyOp9
 70
     1
102
RTVSPropertyOp10
 70
     1
102
RTVSPropertyOp11
 70
     1
102
RTVSPropertyOp12
 70
     1
102
RTVSPropertyOp13
 70
     1
102
RTVSPropertyOp14
 70
     1
102
RTVSPropertyOp15
 70
     1
102
RTVSPropertyOp16
 70
     1
102
RTVSPropertyOp17
 70
     1
102
RTVSPropertyOp18
 70
     1
102
RTVSPropertyOp19
 70
     1
102
RTVSPropertyOp20
 70
     1
102
RTVSPropertyOp21
 70
     1
102
RTVSPropertyOp22
 70
     1
102
RTVSPropertyOp23
 70
     1
102
RTVSPropertyOp24
 70
     1
102
RTVSPropertyOp25
 70
     1
102
RTVSPropertyOp26
 70
     1
102
RTVSPropertyOp27
 70
     1
  0
XRECORD
  5
14C
102
{ACAD_REACTORS
330
14B
102
}
330
14B
100
AcDbXrecord
280
     1
102
RTVSPropertyOp0
 70
     1
102
RTVSPropertyOp1
 70
     1
102
RTVSPropertyOp2
 70
     1
102
RTVSPropertyOp3
 70
     1
102
RTVSPropertyOp4
 70
     1
102
RTVSPropertyOp5
 70
     1
102
RTVSPropertyOp6
 70
     1
102
RTVSPropertyOp7
 70
     1
102
RTVSPropertyOp8
 70
     1
102
RTVSPropertyOp9
 70
     1
102
RTVSPropertyOp10
 70
     1
102
RTVSPropertyOp11
 70
     1
102
RTVSPropertyOp12
 70
     1
102
RTVSPropertyOp13
 70
     1
102
RTVSPropertyOp14
 70
     1
102
RTVSPropertyOp15
 70
     1
102
RTVSPropertyOp16
 70
     1
102
RTVSPropertyOp17
 70
     1
102
RTVSPropertyOp18
 70
     1
102
RTVSPropertyOp19
 70
     1
102
RTVSPropertyOp20
 70
     1
102
RTVSPropertyOp21
 70
     1
102
RTVSPropertyOp22
 70
     1
102
RTVSPropertyOp23
 70
     1
102
RTVSPropertyOp24
 70
     1
102
RTVSPropertyOp25
 70
     1
102
RTVSPropertyOp26
 70
     1
102
RTVSPropertyOp27
 70
     1
  0
XRECORD
  5
140
102
{ACAD_REACTORS
330
13F
102
}
330
13F
100
AcDbXrecord
280
     1
102
RTVSPropertyOp0
 70
     1
102
RTVSPropertyOp1
 70
     1
102
RTVSPropertyOp2
 70
     1
102
RTVSPropertyOp3
 70
     1
102
RTVSPropertyOp4
 70
     1
102
RTVSPropertyOp5
 70
     1
102
RTVSPropertyOp6
 70
     1
102
RTVSPropertyOp7
 70
     1
102
RTVSPropertyOp8
 70
     1
102
RTVSPropertyOp9
 70
     1
102
RTVSPropertyOp10
 70
     1
102
RTVSPropertyOp11
 70
     1
102
RTVSPropertyOp12
 70
     1
102
RTVSPropertyOp13
 70
     1
102
RTVSPropertyOp14
 70
     1
102
RTVSPropertyOp15
 70
     1
102
RTVSPropertyOp16
 70
     1
102
RTVSPropertyOp17
 70
     1
102
RTVSPropertyOp18
 70
     1
102
RTVSPropertyOp19
 70
     1
102
RTVSPropertyOp20
 70
     1
102
RTVSPropertyOp21
 70
     1
102
RTVSPropertyOp22
 70
     1
102
RTVSPropertyOp23
 70
     1
102
RTVSPropertyOp24
 70
     1
102
RTVSPropertyOp25
 70
     1
102
RTVSPropertyOp26
 70
     1
102
RTVSPropertyOp27
 70
     1
  0
XRECORD
  5
14A
102
{ACAD_REACTORS
330
149
102
}
330
149
100
AcDbXrecord
280
     1
102
RTVSPropertyOp0
 70
     1
102
RTVSPropertyOp1
 70
     1
102
RTVSPropertyOp2
 70
     1
102
RTVSPropertyOp3
 70
     1
102
RTVSPropertyOp4
 70
     1
102
RTVSPropertyOp5
 70
     1
102
RTVSPropertyOp6
 70
     1
102
RTVSPropertyOp7
 70
     1
102
RTVSPropertyOp8
 70
     1
102
RTVSPropertyOp9
 70
     1
102
RTVSPropertyOp10
 70
     1
102
RTVSPropertyOp11
 70
     1
102
RTVSPropertyOp12
 70
     1
102
RTVSPropertyOp13
 70
     1
102
RTVSPropertyOp14
 70
     1
102
RTVSPropertyOp15
 70
     1
102
RTVSPropertyOp16
 70
     1
102
RTVSPropertyOp17
 70
     1
102
RTVSPropertyOp18
 70
     1
102
RTVSPropertyOp19
 70
     1
102
RTVSPropertyOp20
 70
     1
102
RTVSPropertyOp21
 70
     1
102
RTVSPropertyOp22
 70
     1
102
RTVSPropertyOp23
 70
     1
102
RTVSPropertyOp24
 70
     1
102
RTVSPropertyOp25
 70
     1
102
RTVSPropertyOp26
 70
     1
102
RTVSPropertyOp27
 70
     1
  0
XRECORD
  5
152
102
{ACAD_REACTORS
330
151
102
}
330
151
100
AcDbXrecord
280
     1
102
RTVSPropertyOp0
 70
     1
102
RTVSPropertyOp1
 70
     1
102
RTVSPropertyOp2
 70
     1
102
RTVSPropertyOp3
 70
     1
102
RTVSPropertyOp4
 70
     1
102
RTVSPropertyOp5
 70
     1
102
RTVSPropertyOp6
 70
     1
102
RTVSPropertyOp7
 70
     1
102
RTVSPropertyOp8
 70
     1
102
RTVSPropertyOp9
 70
     1
102
RTVSPropertyOp10
 70
     1
102
RTVSPropertyOp11
 70
     1
102
RTVSPropertyOp12
 70
     1
102
RTVSPropertyOp13
 70
     1
102
RTVSPropertyOp14
 70
     1
102
RTVSPropertyOp15
 70
     1
102
RTVSPropertyOp16
 70
     1
102
RTVSPropertyOp17
 70
     1
102
RTVSPropertyOp18
 70
     1
102
RTVSPropertyOp19
 70
     1
102
RTVSPropertyOp20
 70
     1
102
RTVSPropertyOp21
 70
     1
102
RTVSPropertyOp22
 70
     1
102
RTVSPropertyOp23
 70
     1
102
RTVSPropertyOp24
 70
     1
102
RTVSPropertyOp25
 70
     1
102
RTVSPropertyOp26
 70
     1
102
RTVSPropertyOp27
 70
     1
  0
XRECORD
  5
15A
102
{ACAD_REACTORS
330
159
102
}
330
159
100
AcDbXrecord
280
     1
102
RTVSPropertyOp0
 70
     1
102
RTVSPropertyOp1
 70
     1
102
RTVSPropertyOp2
 70
     1
102
RTVSPropertyOp3
 70
     1
102
RTVSPropertyOp4
 70
     1
102
RTVSPropertyOp5
 70
     1
102
RTVSPropertyOp6
 70
     1
102
RTVSPropertyOp7
 70
     1
102
RTVSPropertyOp8
 70
     1
102
RTVSPropertyOp9
 70
     1
102
RTVSPropertyOp10
 70
     1
102
RTVSPropertyOp11
 70
     1
102
RTVSPropertyOp12
 70
     1
102
RTVSPropertyOp13
 70
     1
102
RTVSPropertyOp14
 70
     1
102
RTVSPropertyOp15
 70
     1
102
RTVSPropertyOp16
 70
     1
102
RTVSPropertyOp17
 70
     1
102
RTVSPropertyOp18
 70
     1
102
RTVSPropertyOp19
 70
     1
102
RTVSPropertyOp20
 70
     1
102
RTVSPropertyOp21
 70
     1
102
RTVSPropertyOp22
 70
     1
102
RTVSPropertyOp23
 70
     1
102
RTVSPropertyOp24
 70
     1
102
RTVSPropertyOp25
 70
     1
102
RTVSPropertyOp26
 70
     1
102
RTVSPropertyOp27
 70
     1
  0
XRECORD
  5
14E
102
{ACAD_REACTORS
330
14D
102
}
330
14D
100
AcDbXrecord
280
     1
102
RTVSPropertyOp0
 70
     1
102
RTVSPropertyOp1
 70
     1
102
RTVSPropertyOp2
 70
     1
102
RTVSPropertyOp3
 70
     1
102
RTVSPropertyOp4
 70
     1
102
RTVSPropertyOp5
 70
     1
102
RTVSPropertyOp6
 70
     1
102
RTVSPropertyOp7
 70
     1
102
RTVSPropertyOp8
 70
     1
102
RTVSPropertyOp9
 70
     1
102
RTVSPropertyOp10
 70
     1
102
RTVSPropertyOp11
 70
     1
102
RTVSPropertyOp12
 70
     1
102
RTVSPropertyOp13
 70
     1
102
RTVSPropertyOp14
 70
     1
102
RTVSPropertyOp15
 70
     1
102
RTVSPropertyOp16
 70
     1
102
RTVSPropertyOp17
 70
     1
102
RTVSPropertyOp18
 70
     1
102
RTVSPropertyOp19
 70
     1
102
RTVSPropertyOp20
 70
     1
102
RTVSPropertyOp21
 70
     1
102
RTVSPropertyOp22
 70
     1
102
RTVSPropertyOp23
 70
     1
102
RTVSPropertyOp24
 70
     1
102
RTVSPropertyOp25
 70
     1
102
RTVSPropertyOp26
 70
     1
102
RTVSPropertyOp27
 70
     1
  0
XRECORD
  5
150
102
{ACAD_REACTORS
330
14F
102
}
330
14F
100
AcDbXrecord
280
     1
102
RTVSPropertyOp0
 70
     1
102
RTVSPropertyOp1
 70
     1
102
RTVSPropertyOp2
 70
     1
102
RTVSPropertyOp3
 70
     1
102
RTVSPropertyOp4
 70
     1
102
RTVSPropertyOp5
 70
     1
102
RTVSPropertyOp6
 70
     1
102
RTVSPropertyOp7
 70
     1
102
RTVSPropertyOp8
 70
     1
102
RTVSPropertyOp9
 70
     1
102
RTVSPropertyOp10
 70
     1
102
RTVSPropertyOp11
 70
     1
102
RTVSPropertyOp12
 70
     1
102
RTVSPropertyOp13
 70
     1
102
RTVSPropertyOp14
 70
     1
102
RTVSPropertyOp15
 70
     1
102
RTVSPropertyOp16
 70
     1
102
RTVSPropertyOp17
 70
     1
102
RTVSPropertyOp18
 70
     1
102
RTVSPropertyOp19
 70
     1
102
RTVSPropertyOp20
 70
     1
102
RTVSPropertyOp21
 70
     1
102
RTVSPropertyOp22
 70
     1
102
RTVSPropertyOp23
 70
     1
102
RTVSPropertyOp24
 70
     1
102
RTVSPropertyOp25
 70
     1
102
RTVSPropertyOp26
 70
     1
102
RTVSPropertyOp27
 70
     1
  0
XRECORD
  5
158
102
{ACAD_REACTORS
330
157
102
}
330
157
100
AcDbXrecord
280
     1
102
RTVSPropertyOp0
 70
     1
102
RTVSPropertyOp1
 70
     1
102
RTVSPropertyOp2
 70
     1
102
RTVSPropertyOp3
 70
     1
102
RTVSPropertyOp4
 70
     1
102
RTVSPropertyOp5
 70
     1
102
RTVSPropertyOp6
 70
     1
102
RTVSPropertyOp7
 70
     1
102
RTVSPropertyOp8
 70
     1
102
RTVSPropertyOp9
 70
     1
102
RTVSPropertyOp10
 70
     1
102
RTVSPropertyOp11
 70
     1
102
RTVSPropertyOp12
 70
     1
102
RTVSPropertyOp13
 70
     1
102
RTVSPropertyOp14
 70
     1
102
RTVSPropertyOp15
 70
     1
102
RTVSPropertyOp16
 70
     1
102
RTVSPropertyOp17
 70
     1
102
RTVSPropertyOp18
 70
     1
102
RTVSPropertyOp19
 70
     1
102
RTVSPropertyOp20
 70
     1
102
RTVSPropertyOp21
 70
     1
102
RTVSPropertyOp22
 70
     1
102
RTVSPropertyOp23
 70
     1
102
RTVSPropertyOp24
 70
     1
102
RTVSPropertyOp25
 70
     1
102
RTVSPropertyOp26
 70
     1
102
RTVSPropertyOp27
 70
     1
  0
XRECORD
  5
142
102
{ACAD_REACTORS
330
141
102
}
330
141
100
AcDbXrecord
280
     1
102
RTVSPropertyOp0
 70
     1
102
RTVSPropertyOp1
 70
     1
102
RTVSPropertyOp2
 70
     1
102
RTVSPropertyOp3
 70
     1
102
RTVSPropertyOp4
 70
     1
102
RTVSPropertyOp5
 70
     1
102
RTVSPropertyOp6
 70
     1
102
RTVSPropertyOp7
 70
     1
102
RTVSPropertyOp8
 70
     1
102
RTVSPropertyOp9
 70
     1
102
RTVSPropertyOp10
 70
     1
102
RTVSPropertyOp11
 70
     1
102
RTVSPropertyOp12
 70
     1
102
RTVSPropertyOp13
 70
     1
102
RTVSPropertyOp14
 70
     1
102
RTVSPropertyOp15
 70
     1
102
RTVSPropertyOp16
 70
     1
102
RTVSPropertyOp17
 70
     1
102
RTVSPropertyOp18
 70
     1
102
RTVSPropertyOp19
 70
     1
102
RTVSPropertyOp20
 70
     1
102
RTVSPropertyOp21
 70
     1
102
RTVSPropertyOp22
 70
     1
102
RTVSPropertyOp23
 70
     1
102
RTVSPropertyOp24
 70
     1
102
RTVSPropertyOp25
 70
     1
102
RTVSPropertyOp26
 70
     1
102
RTVSPropertyOp27
 70
     1
  0
XRECORD
  5
144
102
{ACAD_REACTORS
330
143
102
}
330
143
100
AcDbXrecord
280
     1
102
RTVSPropertyOp0
 70
     1
102
RTVSPropertyOp1
 70
     1
102
RTVSPropertyOp2
 70
     1
102
RTVSPropertyOp3
 70
     1
102
RTVSPropertyOp4
 70
     1
102
RTVSPropertyOp5
 70
     1
102
RTVSPropertyOp6
 70
     1
102
RTVSPropertyOp7
 70
     1
102
RTVSPropertyOp8
 70
     1
102
RTVSPropertyOp9
 70
     1
102
RTVSPropertyOp10
 70
     1
102
RTVSPropertyOp11
 70
     1
102
RTVSPropertyOp12
 70
     1
102
RTVSPropertyOp13
 70
     1
102
RTVSPropertyOp14
 70
     1
102
RTVSPropertyOp15
 70
     1
102
RTVSPropertyOp16
 70
     1
102
RTVSPropertyOp17
 70
     1
102
RTVSPropertyOp18
 70
     1
102
RTVSPropertyOp19
 70
     1
102
RTVSPropertyOp20
 70
     1
102
RTVSPropertyOp21
 70
     1
102
RTVSPropertyOp22
 70
     1
102
RTVSPropertyOp23
 70
     1
102
RTVSPropertyOp24
 70
     1
102
RTVSPropertyOp25
 70
     1
102
RTVSPropertyOp26
 70
     1
102
RTVSPropertyOp27
 70
     1
  0
XRECORD
  5
146
102
{ACAD_REACTORS
330
145
102
}
330
145
100
AcDbXrecord
280
     1
102
RTVSPropertyOp0
 70
     1
102
RTVSPropertyOp1
 70
     1
102
RTVSPropertyOp2
 70
     1
102
RTVSPropertyOp3
 70
     1
102
RTVSPropertyOp4
 70
     1
102
RTVSPropertyOp5
 70
     1
102
RTVSPropertyOp6
 70
     1
102
RTVSPropertyOp7
 70
     1
102
RTVSPropertyOp8
 70
     1
102
RTVSPropertyOp9
 70
     1
102
RTVSPropertyOp10
 70
     1
102
RTVSPropertyOp11
 70
     1
102
RTVSPropertyOp12
 70
     1
102
RTVSPropertyOp13
 70
     1
102
RTVSPropertyOp14
 70
     1
102
RTVSPropertyOp15
 70
     1
102
RTVSPropertyOp16
 70
     1
102
RTVSPropertyOp17
 70
     1
102
RTVSPropertyOp18
 70
     1
102
RTVSPropertyOp19
 70
     1
102
RTVSPropertyOp20
 70
     1
102
RTVSPropertyOp21
 70
     1
102
RTVSPropertyOp22
 70
     1
102
RTVSPropertyOp23
 70
     1
102
RTVSPropertyOp24
 70
     1
102
RTVSPropertyOp25
 70
     1
102
RTVSPropertyOp26
 70
     1
102
RTVSPropertyOp27
 70
     1
  0
XRECORD
  5
148
102
{ACAD_REACTORS
330
147
102
}
330
147
100
AcDbXrecord
280
     1
102
RTVSPropertyOp0
 70
     1
102
RTVSPropertyOp1
 70
     1
102
RTVSPropertyOp2
 70
     1
102
RTVSPropertyOp3
 70
     1
102
RTVSPropertyOp4
 70
     1
102
RTVSPropertyOp5
 70
     1
102
RTVSPropertyOp6
 70
     1
102
RTVSPropertyOp7
 70
     1
102
RTVSPropertyOp8
 70
     1
102
RTVSPropertyOp9
 70
     1
102
RTVSPropertyOp10
 70
     1
102
RTVSPropertyOp11
 70
     1
102
RTVSPropertyOp12
 70
     1
102
RTVSPropertyOp13
 70
     1
102
RTVSPropertyOp14
 70
     1
102
RTVSPropertyOp15
 70
     1
102
RTVSPropertyOp16
 70
     1
102
RTVSPropertyOp17
 70
     1
102
RTVSPropertyOp18
 70
     1
102
RTVSPropertyOp19
 70
     1
102
RTVSPropertyOp20
 70
     1
102
RTVSPropertyOp21
 70
     1
102
RTVSPropertyOp22
 70
     1
102
RTVSPropertyOp23
 70
     1
102
RTVSPropertyOp24
 70
     1
102
RTVSPropertyOp25
 70
     1
102
RTVSPropertyOp26
 70
     1
102
RTVSPropertyOp27
 70
     1
  0
XRECORD
  5
156
102
{ACAD_REACTORS
330
155
102
}
330
155
100
AcDbXrecord
280
     1
102
RTVSPropertyOp0
 70
     1
102
RTVSPropertyOp1
 70
     1
102
RTVSPropertyOp2
 70
     1
102
RTVSPropertyOp3
 70
     1
102
RTVSPropertyOp4
 70
     1
102
RTVSPropertyOp5
 70
     1
102
RTVSPropertyOp6
 70
     1
102
RTVSPropertyOp7
 70
     1
102
RTVSPropertyOp8
 70
     1
102
RTVSPropertyOp9
 70
     1
102
RTVSPropertyOp10
 70
     1
102
RTVSPropertyOp11
 70
     1
102
RTVSPropertyOp12
 70
     1
102
RTVSPropertyOp13
 70
     1
102
RTVSPropertyOp14
 70
     1
102
RTVSPropertyOp15
 70
     1
102
RTVSPropertyOp16
 70
     1
102
RTVSPropertyOp17
 70
     1
102
RTVSPropertyOp18
 70
     1
102
RTVSPropertyOp19
 70
     1
102
RTVSPropertyOp20
 70
     1
102
RTVSPropertyOp21
 70
     1
102
RTVSPropertyOp22
 70
     1
102
RTVSPropertyOp23
 70
     1
102
RTVSPropertyOp24
 70
     1
102
RTVSPropertyOp25
 70
     1
102
RTVSPropertyOp26
 70
     1
102
RTVSPropertyOp27
 70
     1
  0
XRECORD
  5
13E
102
{ACAD_REACTORS
330
13D
102
}
330
13D
100
AcDbXrecord
280
     1
102
RTVSPropertyOp0
 70
     1
102
RTVSPropertyOp1
 70
     1
102
RTVSPropertyOp2
 70
     1
102
RTVSPropertyOp3
 70
     1
102
RTVSPropertyOp4
 70
     1
102
RTVSPropertyOp5
 70
     1
102
RTVSPropertyOp6
 70
     1
102
RTVSPropertyOp7
 70
     1
102
RTVSPropertyOp8
 70
     1
102
RTVSPropertyOp9
 70
     1
102
RTVSPropertyOp10
 70
     1
102
RTVSPropertyOp11
 70
     1
102
RTVSPropertyOp12
 70
     1
102
RTVSPropertyOp13
 70
     1
102
RTVSPropertyOp14
 70
     1
102
RTVSPropertyOp15
 70
     1
102
RTVSPropertyOp16
 70
     1
102
RTVSPropertyOp17
 70
     1
102
RTVSPropertyOp18
 70
     1
102
RTVSPropertyOp19
 70
     1
102
RTVSPropertyOp20
 70
     1
102
RTVSPropertyOp21
 70
     1
102
RTVSPropertyOp22
 70
     1
102
RTVSPropertyOp23
 70
     1
102
RTVSPropertyOp24
 70
     1
102
RTVSPropertyOp25
 70
     1
102
RTVSPropertyOp26
 70
     1
102
RTVSPropertyOp27
 70
     1
  0
XRECORD
  5
154
102
{ACAD_REACTORS
330
153
102
}
330
153
100
AcDbXrecord
280
     1
102
RTVSPropertyOp0
 70
     1
102
RTVSPropertyOp1
 70
     1
102
RTVSPropertyOp2
 70
     1
102
RTVSPropertyOp3
 70
     1
102
RTVSPropertyOp4
 70
     1
102
RTVSPropertyOp5
 70
     1
102
RTVSPropertyOp6
 70
     1
102
RTVSPropertyOp7
 70
     1
102
RTVSPropertyOp8
 70
     1
102
RTVSPropertyOp9
 70
     1
102
RTVSPropertyOp10
 70
     1
102
RTVSPropertyOp11
 70
     1
102
RTVSPropertyOp12
 70
     1
102
RTVSPropertyOp13
 70
     1
102
RTVSPropertyOp14
 70
     1
102
RTVSPropertyOp15
 70
     1
102
RTVSPropertyOp16
 70
     1
102
RTVSPropertyOp17
 70
     1
102
RTVSPropertyOp18
 70
     1
102
RTVSPropertyOp19
 70
     1
102
RTVSPropertyOp20
 70
     1
102
RTVSPropertyOp21
 70
     1
102
RTVSPropertyOp22
 70
     1
102
RTVSPropertyOp23
 70
     1
102
RTVSPropertyOp24
 70
     1
102
RTVSPropertyOp25
 70
     1
102
RTVSPropertyOp26
 70
     1
102
RTVSPropertyOp27
 70
     1
  0
ENDSEC
  0
EOF
