  0
SECTION
  2
HEADER
  9
$ACADVER
  1
AC1018
  9
$ACADMAINTVER
 70
   104
  9
$DWGCODEPAGE
  3
ANSI_936
  9
$LASTSAVEDBY
  1
chaxiu.zhu
  9
$INSBASE
 10
0.0
 20
0.0
 30
0.0
  9
$EXTMIN
 10
65825.38532401047
 20
-19328.23477815551
 30
-0.00000001
  9
$EXTMAX
 10
67336.87811026107
 20
-18010.8480936467
 30
0.00000001
  9
$LIMMIN
 10
0.0
 20
0.0
  9
$LIMMAX
 10
420.0
 20
297.0
  9
$ORTHOMODE
 70
     1
  9
$REGENMODE
 70
     1
  9
$FILLMODE
 70
     1
  9
$QTEXTMODE
 70
     0
  9
$MIRRTEXT
 70
     0
  9
$LTSCALE
 40
1.0
  9
$ATTMODE
 70
     1
  9
$TEXTSIZE
 40
2.5
  9
$TRACEWID
 40
1.0
  9
$TEXTSTYLE
  7
Standard
  9
$CLAYER
  8
轮廓线.
  9
$CELTYPE
  6
ByLayer
  9
$CECOLOR
 62
     3
  9
$CELTSCALE
 40
1.0
  9
$DISPSILH
 70
     0
  9
$DIMSCALE
 40
7.0
  9
$DIMASZ
 40
1.5
  9
$DIMEXO
 40
0.625
  9
$DIMDLI
 40
3.75
  9
$DIMRND
 40
0.0
  9
$DIMDLE
 40
0.0
  9
$DIMEXE
 40
0.5
  9
$DIMTP
 40
0.0
  9
$DIMTM
 40
0.0
  9
$DIMTXT
 40
2.5
  9
$DIMCEN
 40
2.5
  9
$DIMTSZ
 40
0.0
  9
$DIMTOL
 70
     0
  9
$DIMLIM
 70
     0
  9
$DIMTIH
 70
     0
  9
$DIMTOH
 70
     0
  9
$DIMSE1
 70
     0
  9
$DIMSE2
 70
     0
  9
$DIMTAD
 70
     1
  9
$DIMZIN
 70
     8
  9
$DIMBLK
  1

  9
$DIMASO
 70
     1
  9
$DIMSHO
 70
     1
  9
$DIMPOST
  1

  9
$DIMAPOST
  1

  9
$DIMALT
 70
     0
  9
$DIMALTD
 70
     3
  9
$DIMALTF
 40
0.03937007874016
  9
$DIMLFAC
 40
1.0
  9
$DIMTOFL
 70
     1
  9
$DIMTVP
 40
0.0
  9
$DIMTIX
 70
     0
  9
$DIMSOXD
 70
     0
  9
$DIMSAH
 70
     0
  9
$DIMBLK1
  1

  9
$DIMBLK2
  1

  9
$DIMSTYLE
  2
ISO-25
  9
$DIMCLRD
 70
     0
  9
$DIMCLRE
 70
     0
  9
$DIMCLRT
 70
     0
  9
$DIMTFAC
 40
1.0
  9
$DIMGAP
 40
0.3
  9
$DIMJUST
 70
     0
  9
$DIMSD1
 70
     0
  9
$DIMSD2
 70
     0
  9
$DIMTOLJ
 70
     0
  9
$DIMTZIN
 70
     8
  9
$DIMALTZ
 70
     0
  9
$DIMALTTZ
 70
     0
  9
$DIMUPT
 70
     0
  9
$DIMDEC
 70
     0
  9
$DIMTDEC
 70
     0
  9
$DIMALTU
 70
     2
  9
$DIMALTTD
 70
     3
  9
$DIMTXSTY
  7
Standard
  9
$DIMAUNIT
 70
     0
  9
$DIMADEC
 70
     0
  9
$DIMALTRND
 40
0.0
  9
$DIMAZIN
 70
     0
  9
$DIMDSEP
 70
    46
  9
$DIMATFIT
 70
     3
  9
$DIMFRAC
 70
     0
  9
$DIMLDRBLK
  1

  9
$DIMLUNIT
 70
     2
  9
$DIMLWD
 70
    -2
  9
$DIMLWE
 70
    -2
  9
$DIMTMOVE
 70
     0
  9
$LUNITS
 70
     2
  9
$LUPREC
 70
     4
  9
$SKETCHINC
 40
1.0
  9
$FILLETRAD
 40
20.0
  9
$AUNITS
 70
     0
  9
$AUPREC
 70
     0
  9
$MENU
  1
.
  9
$ELEVATION
 40
0.0
  9
$PELEVATION
 40
0.0
  9
$THICKNESS
 40
0.0
  9
$LIMCHECK
 70
     0
  9
$CHAMFERA
 40
0.0
  9
$CHAMFERB
 40
0.0
  9
$CHAMFERC
 40
0.0
  9
$CHAMFERD
 40
0.0
  9
$SKPOLY
 70
     0
  9
$TDCREATE
 40
2455843.370532037
  9
$TDUCREATE
 40
2455843.037198704
  9
$TDUPDATE
 40
2458858.493836875
  9
$TDUUPDATE
 40
2458858.160503542
  9
$TDINDWG
 40
19.1247229167
  9
$TDUSRTIMER
 40
19.1247227431
  9
$USRTIMER
 70
     1
  9
$ANGBASE
 50
0.0
  9
$ANGDIR
 70
     0
  9
$PDMODE
 70
     0
  9
$PDSIZE
 40
0.0
  9
$PLINEWID
 40
0.0
  9
$SPLFRAME
 70
     0
  9
$SPLINETYPE
 70
     6
  9
$SPLINESEGS
 70
     8
  9
$HANDSEED
  5
25F
  9
$SURFTAB1
 70
     6
  9
$SURFTAB2
 70
     6
  9
$SURFTYPE
 70
     6
  9
$SURFU
 70
     6
  9
$SURFV
 70
     6
  9
$UCSBASE
  2

  9
$UCSNAME
  2

  9
$UCSORG
 10
0.0
 20
0.0
 30
0.0
  9
$UCSXDIR
 10
1.0
 20
0.0
 30
0.0
  9
$UCSYDIR
 10
0.0
 20
1.0
 30
0.0
  9
$UCSORTHOREF
  2

  9
$UCSORTHOVIEW
 70
     1
  9
$UCSORGTOP
 10
0.0
 20
0.0
 30
0.0
  9
$UCSORGBOTTOM
 10
0.0
 20
0.0
 30
0.0
  9
$UCSORGLEFT
 10
0.0
 20
0.0
 30
0.0
  9
$UCSORGRIGHT
 10
0.0
 20
0.0
 30
0.0
  9
$UCSORGFRONT
 10
0.0
 20
0.0
 30
0.0
  9
$UCSORGBACK
 10
0.0
 20
0.0
 30
0.0
  9
$PUCSBASE
  2

  9
$PUCSNAME
  2

  9
$PUCSORG
 10
0.0
 20
0.0
 30
0.0
  9
$PUCSXDIR
 10
1.0
 20
0.0
 30
0.0
  9
$PUCSYDIR
 10
0.0
 20
1.0
 30
0.0
  9
$PUCSORTHOREF
  2

  9
$PUCSORTHOVIEW
 70
     0
  9
$PUCSORGTOP
 10
0.0
 20
0.0
 30
0.0
  9
$PUCSORGBOTTOM
 10
0.0
 20
0.0
 30
0.0
  9
$PUCSORGLEFT
 10
0.0
 20
0.0
 30
0.0
  9
$PUCSORGRIGHT
 10
0.0
 20
0.0
 30
0.0
  9
$PUCSORGFRONT
 10
0.0
 20
0.0
 30
0.0
  9
$PUCSORGBACK
 10
0.0
 20
0.0
 30
0.0
  9
$USERI1
 70
     0
  9
$USERI2
 70
     0
  9
$USERI3
 70
     0
  9
$USERI4
 70
     0
  9
$USERI5
 70
     0
  9
$USERR1
 40
0.0
  9
$USERR2
 40
0.0
  9
$USERR3
 40
0.0
  9
$USERR4
 40
0.0
  9
$USERR5
 40
2.5
  9
$WORLDVIEW
 70
     1
  9
$SHADEDGE
 70
     3
  9
$SHADEDIF
 70
    70
  9
$TILEMODE
 70
     1
  9
$MAXACTVP
 70
    64
  9
$PINSBASE
 10
0.0
 20
0.0
 30
0.0
  9
$PLIMCHECK
 70
     0
  9
$PEXTMIN
 10
25.69999999999999
 20
19.5
 30
0.0
  9
$PEXTMAX
 10
231.3
 20
175.5
 30
0.0
  9
$PLIMMIN
 10
-20.0
 20
-7.5
  9
$PLIMMAX
 10
277.0
 20
202.5
  9
$UNITMODE
 70
     0
  9
$VISRETAIN
 70
     1
  9
$PLINEGEN
 70
     0
  9
$PSLTSCALE
 70
     1
  9
$TREEDEPTH
 70
  3020
  9
$CMLSTYLE
  2
Standard
  9
$CMLJUST
 70
     0
  9
$CMLSCALE
 40
20.0
  9
$PROXYGRAPHICS
 70
     1
  9
$MEASUREMENT
 70
     1
  9
$CELWEIGHT
370
    -1
  9
$ENDCAPS
280
     0
  9
$JOINSTYLE
280
     0
  9
$LWDISPLAY
290
     0
  9
$INSUNITS
 70
     4
  9
$HYPERLINKBASE
  1

  9
$STYLESHEET
  1

  9
$XEDIT
290
     1
  9
$CEPSNTYPE
380
     0
  9
$PSTYLEMODE
290
     1
  9
$FINGERPRINTGUID
  2
{C4D43B5B-B55B-4DF0-92DE-3C6675A84CC4}
  9
$VERSIONGUID
  2
{0EA98344-ECD2-46E6-8F53-CE623EF2B1CE}
  9
$EXTNAMES
290
     1
  9
$PSVPSCALE
 40
0.0
  9
$OLESTARTUP
290
     0
  9
$SORTENTS
280
   127
  9
$INDEXCTL
280
     0
  9
$HIDETEXT
280
     1
  9
$XCLIPFRAME
290
     0
  9
$HALOGAP
280
     0
  9
$OBSCOLOR
 70
   257
  9
$OBSLTYPE
280
     0
  9
$INTERSECTIONDISPLAY
280
     0
  9
$INTERSECTIONCOLOR
 70
   257
  9
$DIMASSOC
280
     2
  9
$PROJECTNAME
  1

  0
ENDSEC
  0
SECTION
  2
CLASSES
  0
CLASS
  1
ACDBDICTIONARYWDFLT
  2
AcDbDictionaryWithDefault
  3
ObjectDBX Classes
 90
        0
 91
        1
280
     0
281
     0
  0
CLASS
  1
DICTIONARYVAR
  2
AcDbDictionaryVar
  3
ObjectDBX Classes
 90
        0
 91
        2
280
     0
281
     0
  0
CLASS
  1
TABLESTYLE
  2
AcDbTableStyle
  3
ObjectDBX Classes
 90
     4095
 91
        1
280
     0
281
     0
  0
CLASS
  1
MATERIAL
  2
AcDbMaterial
  3
ObjectDBX Classes
 90
        0
 91
        3
280
     0
281
     0
  0
CLASS
  1
VISUALSTYLE
  2
AcDbVisualStyle
  3
ObjectDBX Classes
 90
     4095
 91
       16
280
     0
281
     0
  0
CLASS
  1
VLO-VL
  2
vlo_VL
  3
VL|AutoLISP based application
 90
        0
 91
        0
280
     0
281
     0
  0
CLASS
  1
SORTENTSTABLE
  2
AcDbSortentsTable
  3
ObjectDBX Classes
 90
        0
 91
        1
280
     0
281
     0
  0
CLASS
  1
DIMASSOC
  2
AcDbDimAssoc
  3
"ZcDbDimAssoc|Product Desc:     ZwDim ZRX App For Dimension|Company:          ZwSoft.|WEB Address:      www.zwsoft.com"
 90
        0
 91
        0
280
     0
281
     0
  0
CLASS
  1
ACSH_CONE_CLASS
  2
AcDbShCone
  3
ObjectDBX Classes
 90
     1153
 91
        0
280
     0
281
     0
  0
CLASS
  1
ACAD_EVALUATION_GRAPH
  2
AcDbEvalGraph
  3
ObjectDBX Classes
 90
     1153
 91
        0
280
     0
281
     0
  0
CLASS
  1
ACSH_HISTORY_CLASS
  2
AcDbShHistory
  3
ObjectDBX Classes
 90
     1153
 91
        0
280
     0
281
     0
  0
CLASS
  1
ACAD_TABLE
  2
AcDbTable
  3
ObjectDBX Classes
 90
     1025
 91
        0
280
     0
281
     1
  0
CLASS
  1
SOLID_BACKGROUND
  2
AcDbSolidBackground
  3
SCENEOE
 90
     4095
 91
        0
280
     0
281
     0
  0
CLASS
  1
NPOCOLLECTION
  2
AcDbImpNonPersistentObjectsCollection
  3
ObjectDBX Classes
 90
     1153
 91
        0
280
     0
281
     0
  0
CLASS
  1
SCALE
  2
AcDbScale
  3
ObjectDBX Classes
 90
     1153
 91
       33
280
     0
281
     0
  0
CLASS
  1
MLEADERSTYLE
  2
AcDbMLeaderStyle
  3
ACDB_MLEADERSTYLE_CLASS
 90
     4095
 91
        1
280
     0
281
     0
  0
CLASS
  1
CELLSTYLEMAP
  2
AcDbCellStyleMap
  3
ObjectDBX Classes
 90
     1152
 91
        1
280
     0
281
     0
  0
ENDSEC
  0
SECTION
  2
TABLES
  0
TABLE
  2
VPORT
  5
25
102
{ACAD_XDICTIONARY
360
29
102
}
330
0
100
AcDbSymbolTable
 70
     2
  0
VPORT
  5
238
330
25
100
AcDbSymbolTableRecord
100
AcDbViewportTableRecord
  2
*Active
 70
     0
 10
0.0
 20
0.0
 11
1.0
 21
1.0
 12
67317.79532947822
 22
-18780.67568279491
 13
0.0
 23
0.0
 14
10.0
 24
10.0
 15
10.0
 25
10.0
 16
0.0
 26
0.0
 36
1.0
 17
0.0
 27
0.0
 37
0.0
 40
1844.135964730021
 41
1.857503152585119
 42
50.0
 43
0.0
 44
0.0
 50
0.0
 51
0.0
 71
     0
 72
 10000
 73
     1
 74
     3
 75
     0
 76
     0
 77
     0
 78
     0
281
     0
 65
     1
110
0.0
120
0.0
130
0.0
111
1.0
121
0.0
131
0.0
112
0.0
122
1.0
132
0.0
 79
     0
146
0.0
  0
ENDTAB
  0
TABLE
  2
LTYPE
  5
20
330
0
100
AcDbSymbolTable
 70
     1
  0
LTYPE
  5
21
330
20
100
AcDbSymbolTableRecord
100
AcDbLinetypeTableRecord
  2
ByBlock
 70
     0
  3

 72
    65
 73
     0
 40
0.0
  0
LTYPE
  5
22
330
20
100
AcDbSymbolTableRecord
100
AcDbLinetypeTableRecord
  2
ByLayer
 70
     0
  3

 72
    65
 73
     0
 40
0.0
  0
LTYPE
  5
C
330
20
100
AcDbSymbolTableRecord
100
AcDbLinetypeTableRecord
  2
Continuous
 70
     0
  3
Solid line
 72
    65
 73
     0
 40
0.0
  0
ENDTAB
  0
TABLE
  2
LAYER
  5
17
102
{ACAD_XDICTIONARY
360
18
102
}
330
0
100
AcDbSymbolTable
 70
     6
  0
LAYER
  5
6
330
17
100
AcDbSymbolTableRecord
100
AcDbLayerTableRecord
  2
0
 70
     0
 62
     7
  6
Continuous
370
    -3
390
7
  0
LAYER
  5
36
330
17
100
AcDbSymbolTableRecord
100
AcDbLayerTableRecord
  2
轮廓线.
 70
     0
 62
   255
  6
Continuous
370
    30
390
7
1001
AcAecLayerStandard
1000

1000

  0
LAYER
  5
1F3
330
17
100
AcDbSymbolTableRecord
100
AcDbLayerTableRecord
  2
尺寸标注
 70
     0
 62
    80
  6
Continuous
370
    18
390
7
1001
AcAecLayerStandard
1000

1000

  0
LAYER
  5
B9
330
17
100
AcDbSymbolTableRecord
100
AcDbLayerTableRecord
  2
02___PRT_ALL_AXES
 70
     0
 62
     7
  6
Continuous
370
    -3
390
7
  0
LAYER
  5
59
330
17
100
AcDbSymbolTableRecord
100
AcDbLayerTableRecord
  2
06___PRT_ALL_SURFS
 70
     0
 62
     7
  6
Continuous
370
    -3
390
7
  0
LAYER
  5
1B8
330
17
100
AcDbSymbolTableRecord
100
AcDbLayerTableRecord
  2
图层 1
 70
     0
 62
     7
  6
Continuous
370
    -3
390
7
  0
ENDTAB
  0
TABLE
  2
STYLE
  5
1D
330
0
100
AcDbSymbolTable
 70
     1
  0
STYLE
  5
1E
330
1D
100
AcDbSymbolTableRecord
100
AcDbTextStyleTableRecord
  2
Standard
 70
     0
 40
0.0
 41
1.0
 50
0.0
 71
     0
 42
2.5
  3

  4

1001
ACAD
1000
SimSun
1071
    34306
  0
ENDTAB
  0
TABLE
  2
VIEW
  5
23
330
0
100
AcDbSymbolTable
 70
     0
  0
ENDTAB
  0
TABLE
  2
UCS
  5
24
330
0
100
AcDbSymbolTable
 70
     0
  0
ENDTAB
  0
TABLE
  2
APPID
  5
2A
330
0
100
AcDbSymbolTable
 70
     4
  0
APPID
  5
1C
330
2A
100
AcDbSymbolTableRecord
100
AcDbRegAppTableRecord
  2
ACAD
 70
     0
  0
APPID
  5
10
330
2A
100
AcDbSymbolTableRecord
100
AcDbRegAppTableRecord
  2
ACAD_PSEXT
 70
     0
  0
APPID
  5
37
330
2A
100
AcDbSymbolTableRecord
100
AcDbRegAppTableRecord
  2
AcAecLayerStandard
 70
     0
  0
APPID
  5
25E
330
2A
100
AcDbSymbolTableRecord
100
AcDbRegAppTableRecord
  2
ACAD_MLEADERVER
 70
     0
  0
ENDTAB
  0
TABLE
  2
DIMSTYLE
  5
2B
330
0
100
AcDbSymbolTable
 70
     2
100
AcDbDimStyleTable
 71
     2
340
2C
340
2D
  0
DIMSTYLE
105
2C
330
2B
100
AcDbSymbolTableRecord
100
AcDbDimStyleTableRecord
  2
ISO-25
 70
     0
 40
7.0
 41
1.5
 42
0.625
 43
3.75
 44
0.5
 73
     0
 74
     0
 77
     1
 78
     8
140
2.5
141
2.5
143
0.03937007874016
147
0.3
171
     3
172
     1
271
     0
272
     0
274
     3
283
     0
284
     8
340
1E
  0
DIMSTYLE
105
2D
330
2B
100
AcDbSymbolTableRecord
100
AcDbDimStyleTableRecord
  2
副本 ISO-25
 70
     0
 40
7.0
 41
1.5
 42
0.625
 43
3.75
 44
0.5
 73
     0
 77
     1
 78
     8
140
2.5
141
2.5
143
0.03937007874016
147
0.3
171
     3
172
     1
271
     0
272
     0
274
     3
283
     0
284
     8
340
1E
  0
ENDTAB
  0
TABLE
  2
BLOCK_RECORD
  5
1
330
0
100
AcDbSymbolTable
 70
     0
  0
BLOCK_RECORD
  5
2
102
{ACAD_XDICTIONARY
360
3
102
}
330
1
100
AcDbSymbolTableRecord
100
AcDbBlockTableRecord
  2
*Model_Space
340
E
  0
BLOCK_RECORD
  5
11
330
1
100
AcDbSymbolTableRecord
100
AcDbBlockTableRecord
  2
*Paper_Space
340
14
  0
ENDTAB
  0
ENDSEC
  0
SECTION
  2
BLOCKS
  0
BLOCK
  5
5
330
2
100
AcDbEntity
  8
0
100
AcDbBlockBegin
  2
*Model_Space
 70
     0
 10
0.0
 20
0.0
 30
0.0
  3
*Model_Space
  1

  0
ENDBLK
  5
D
330
2
100
AcDbEntity
  8
0
100
AcDbBlockEnd
  0
BLOCK
  5
12
330
11
100
AcDbEntity
 67
     1
  8
0
100
AcDbBlockBegin
  2
*Paper_Space
 70
     0
 10
0.0
 20
0.0
 30
0.0
  3
*Paper_Space
  1

  0
ENDBLK
  5
13
330
11
100
AcDbEntity
 67
     1
  8
0
100
AcDbBlockEnd
  0
ENDSEC
  0
SECTION
  2
ENTITIES
  0
LINE
  5
3C
330
2
100
AcDbEntity
  8
0
  6
Continuous
 62
     7
100
AcDbLine
 10
65825.38532402046
 20
-18850.3591342537
 30
0.0
 11
65825.38532402046
 21
-19296.4412093737
 31
0.0
  0
LINE
  5
3D
330
2
100
AcDbEntity
  8
0
  6
Continuous
 62
     7
100
AcDbLine
 10
65830.76920535584
 20
-19257.13230963481
 30
0.0
 11
65830.76920535584
 21
-19026.6987789515
 31
0.0
  0
LINE
  5
3E
330
2
100
AcDbEntity
  8
0
  6
Continuous
 62
     7
100
AcDbLine
 10
65857.17889269255
 20
-19328.23477815551
 30
0.0
 11
66593.34304304175
 21
-19328.23477815551
 31
0.0
  0
LINE
  5
3F
330
2
100
AcDbEntity
  8
0
  6
Continuous
 62
     7
100
AcDbLine
 10
66353.22996886555
 20
-19322.85089682011
 30
0.0
 11
65897.29196697885
 21
-19322.85089682011
 31
0.0
  0
LINE
  5
40
330
2
100
AcDbEntity
  8
0
  6
Continuous
 62
     7
100
AcDbLine
 10
66453.05749246766
 20
-19322.85089682011
 30
0.0
 11
66590.46444337676
 21
-19322.85089682011
 31
0.0
  0
LINE
  5
41
330
2
100
AcDbEntity
  8
0
  6
Continuous
 62
     7
100
AcDbLine
 10
66460.45630450104
 20
-19308.0235275732
 30
0.0
 11
66583.33238269885
 21
-19308.46707339791
 31
0.0
  0
LINE
  5
42
330
2
100
AcDbEntity
  8
0
  6
Continuous
 62
     7
100
AcDbLine
 10
66355.45896990875
 20
-18970.27581537521
 30
0.0
 11
65895.06296593564
 21
-18970.27581537521
 31
0.0
  0
LINE
  5
43
330
2
100
AcDbEntity
  8
0
  6
Continuous
 62
     7
100
AcDbLine
 10
66419.75273048855
 20
-19026.6987789515
 30
0.0
 11
66419.75273048855
 21
-19257.1323096347
 31
0.0
  0
LINE
  5
44
330
2
100
AcDbEntity
  8
0
  6
Continuous
 62
     7
100
AcDbLine
 10
66423.24024198004
 20
-18878.0201323194
 30
0.0
 11
66423.24024198004
 21
-19287.0552907144
 31
0.0
  0
LINE
  5
45
330
2
100
AcDbEntity
  8
0
  6
Continuous
 62
     7
100
AcDbLine
 10
66428.35766301485
 20
-18880.1064644409
 30
0.0
 11
66430.46798073035
 21
-19280.0772324046
 31
0.0
  0
LINE
  5
46
330
2
100
AcDbEntity
  8
0
  6
Continuous
 62
     7
100
AcDbLine
 10
66593.83027996785
 20
-18858.13918711351
 30
0.0
 11
66450.00829810946
 21
-18858.4558293463
 31
0.0
  0
LINE
  5
47
330
2
100
AcDbEntity
  8
0
  6
Continuous
 62
     7
100
AcDbLine
 10
65851.13140159644
 20
-18860.8552665096
 30
0.0
 11
66399.39053424796
 21
-18860.8552665096
 31
0.0
  0
LINE
  5
48
330
2
100
AcDbEntity
  8
0
  6
Continuous
 62
     7
100
AcDbLine
 10
66595.59996985656
 20
-18853.3384083116
 30
0.0
 11
66447.92196598794
 21
-18853.3384083116
 31
0.0
  0
LINE
  5
49
330
2
100
AcDbEntity
  8
0
  6
Continuous
 62
     7
100
AcDbLine
 10
66623.13569806446
 20
-18848.3591342537
 30
0.0
 11
65827.38679788706
 21
-18848.3591342537
 31
0.0
  0
LINE
  5
4A
330
2
100
AcDbEntity
  8
0
  6
Continuous
 62
     7
100
AcDbLine
 10
66620.28169386435
 20
-19287.0552907144
 30
0.0
 11
66620.28169386435
 21
-18878.0201323194
 31
0.0
  0
LINE
  5
4B
330
2
100
AcDbEntity
  8
0
  6
Continuous
 62
     7
100
AcDbLine
 10
66625.13661182395
 20
-19296.44120947731
 30
0.0
 11
66625.13661182395
 21
-18850.3591342537
 31
0.0
  0
LINE
  5
4C
330
2
100
AcDbEntity
  8
0
  6
Continuous
 62
     7
100
AcDbLine
 10
66613.35698576114
 20
-19280.5811023025
 30
0.0
 11
66615.48091506245
 21
-18879.7898222081
 31
0.0
  0
LINE
  5
4D
330
2
100
AcDbEntity
  8
0
  6
Continuous
 62
     7
100
AcDbLine
 10
67336.87597814566
 20
-18493.97611457038
 30
0.0
 11
67335.35753403137
 21
-18537.45866482198
 31
0.0
  0
LINE
  5
4E
330
2
100
AcDbEntity
  8
0
  6
Continuous
 62
     7
100
AcDbLine
 10
67276.87480894718
 20
-18583.92571708788
 30
0.0
 11
67276.87480894718
 21
-18540.35396633188
 31
0.0
  0
LINE
  5
4F
330
2
100
AcDbEntity
  8
0
  6
Continuous
 62
     7
100
AcDbLine
 10
67277.00092046597
 20
-18584.42111897998
 30
0.0
 11
67276.87480894718
 21
-18583.92571708788
 31
0.0
  0
LWPOLYLINE
  5
50
330
2
100
AcDbEntity
  8
0
  6
Continuous
 62
     7
100
AcDbPolyline
 90
        6
 70
     0
 43
0.0
 10
67293.57675940915
 20
-18561.88662448858
 10
67292.18368249647
 20
-18565.47639336908
 10
67290.88405594787
 20
-18568.71472630488
 10
67289.69812108157
 20
-18571.55957001538
 10
67288.63912394678
 20
-18573.98599609918
 10
67287.71054770437
 20
-18575.99113288068
  0
LINE
  5
51
330
2
100
AcDbEntity
  8
0
  6
Continuous
 62
     7
100
AcDbLine
 10
67301.66701370867
 20
-18540.35396633188
 30
0.0
 11
67293.57675940915
 21
-18561.88662448858
 31
0.0
  0
LINE
  5
52
330
2
100
AcDbEntity
  8
0
  6
Continuous
 62
     7
100
AcDbLine
 10
67294.40109677747
 20
-18559.65525719908
 30
0.0
 11
67294.38364613856
 21
-18559.75578221718
 31
0.0
  0
LINE
  5
53
330
2
100
AcDbEntity
  8
0
  6
Continuous
 62
     7
100
AcDbLine
 10
67258.56773742266
 20
-18583.92571708788
 30
0.0
 11
67258.56773742266
 21
-18540.35396633188
 31
0.0
  0
LINE
  5
54
330
2
100
AcDbEntity
  8
0
  6
Continuous
 62
     7
100
AcDbLine
 10
67249.94159355436
 20
-18542.78254506028
 30
0.0
 11
67249.94159354706
 21
-18572.91053173998
 31
0.0
  0
LWPOLYLINE
  5
55
330
2
100
AcDbEntity
  8
0
  6
Continuous
 62
     7
100
AcDbPolyline
 90
        3
 70
     0
 43
0.0
 10
67287.71054770437
 20
-18575.99113288068
 10
67286.88086105438
 20
-18577.63958321048
 10
67286.04785218136
 20
-18579.09253276338
  0
LWPOLYLINE
  5
56
330
2
100
AcDbEntity
  8
0
  6
Continuous
 62
     7
100
AcDbPolyline
 90
        4
 70
     0
 43
0.0
 10
67249.89685245987
 20
-18542.44494351308
 10
67249.90639673336
 20
-18542.45188115578
 10
67249.65337129167
 20
-18542.31745711118
 10
67248.78020671807
 20
-18542.02456255698
  0
LWPOLYLINE
  5
57
330
2
100
AcDbEntity
  8
0
  6
Continuous
 62
     7
100
AcDbPolyline
 90
        6
 70
     0
 43
0.0
 10
67286.04785218136
 20
-18579.09253276338
 10
67284.99391982067
 20
-18580.56695288328
 10
67283.42413929268
 20
-18582.12996171018
 10
67281.34168715556
 20
-18583.44256721498
 10
67278.82206300638
 20
-18584.25557899858
 10
67277.00123766426
 20
-18584.42112955098
  0
LWPOLYLINE
  5
58
330
2
100
AcDbEntity
  8
06___PRT_ALL_SURFS
  6
Continuous
 62
     7
100
AcDbPolyline
 90
        3
 70
     0
 43
0.0
 10
67258.28812607856
 20
-18584.34526460718
 10
67251.04183602246
 20
-18591.92118760778
 10
67241.39584952096
 20
-18601.28817946378
  0
LINE
  5
5A
330
2
100
AcDbEntity
  8
0
  6
Continuous
 62
     7
100
AcDbLine
 10
67253.10565397657
 20
-18582.98770454948
 30
0.0
 11
67253.10333813866
 21
-18582.98635950758
 31
0.0
  0
LWPOLYLINE
  5
5B
330
2
100
AcDbEntity
  8
0
  6
Continuous
 62
     7
100
AcDbPolyline
 90
        3
 70
     0
 43
0.0
 10
67253.10412295237
 20
-18582.98682840828
 10
67252.89935380006
 20
-18582.87371213138
 10
67251.42063138608
 20
-18582.34363673218
  0
LINE
  5
5C
330
2
100
AcDbEntity
  8
0
  6
Continuous
 62
     7
100
AcDbLine
 10
67037.79186349376
 20
-18675.77278200208
 30
0.0
 11
67002.77555473716
 21
-18673.64258297048
 31
0.0
  0
LINE
  5
5D
330
2
100
AcDbEntity
  8
0
  6
Continuous
 62
     7
100
AcDbLine
 10
67037.00246634936
 20
-18687.85396633188
 30
0.0
 11
67107.00246634937
 21
-18687.85396633188
 31
0.0
  0
LINE
  5
5E
330
2
100
AcDbEntity
  8
0
  6
Continuous
 62
     7
100
AcDbLine
 10
67065.89394307576
 20
-18656.87909183498
 30
0.0
 11
67109.70915912795
 21
-18656.91632630498
 31
0.0
  0
LINE
  5
5F
330
2
100
AcDbEntity
  8
0
  6
Continuous
 62
     7
100
AcDbLine
 10
66859.00246634937
 20
-18640.35396633188
 30
0.0
 11
66869.00246634936
 21
-18640.35396633188
 31
0.0
  0
LINE
  5
60
330
2
100
AcDbEntity
  8
0
  6
Continuous
 62
     7
100
AcDbLine
 10
66876.08530307608
 20
-18640.35396633188
 30
0.0
 11
66869.27270165726
 21
-18640.35396633188
 31
0.0
  0
LINE
  5
61
330
2
100
AcDbEntity
  8
0
  6
Continuous
 62
     7
100
AcDbLine
 10
66859.00246634937
 20
-18638.21453769688
 30
0.0
 11
66865.07369957836
 21
-18638.21453769688
 31
0.0
  0
LINE
  5
62
330
2
100
AcDbEntity
  8
0
  6
Continuous
 62
     7
100
AcDbLine
 10
67109.70915912795
 20
-18656.91632630478
 30
0.0
 11
67107.00246634937
 21
-18687.85396633188
 31
0.0
  0
LINE
  5
63
330
2
100
AcDbEntity
  8
0
  6
Continuous
 62
     7
100
AcDbLine
 10
67277.02450689767
 20
-18584.42111902008
 30
0.0
 11
67258.34566408657
 21
-18584.42111902008
 31
0.0
  0
LINE
  5
64
330
2
100
AcDbEntity
  8
0
  6
Continuous
 62
     7
100
AcDbLine
 10
67276.87480894718
 20
-18583.92571708788
 30
0.0
 11
67258.56773742266
 21
-18583.92571708788
 31
0.0
  0
LINE
  5
65
330
2
100
AcDbEntity
  8
0
  6
Continuous
 62
     7
100
AcDbLine
 10
66859.00246634937
 20
-18576.57264457898
 30
0.0
 11
66869.00247518678
 21
-18576.57264457898
 31
0.0
  0
LWPOLYLINE
  5
66
330
2
100
AcDbEntity
  8
0
  6
Continuous
 62
     7
100
AcDbPolyline
 90
        3
 70
     0
 43
0.0
 10
67258.36747580277
 20
-18584.42116177738
 10
67255.58447108137
 20
-18584.03718957638
 10
67253.10668479706
 20
-18582.98830128688
  0
LINE
  5
67
330
2
100
AcDbEntity
  8
0
  6
Continuous
 62
     7
100
AcDbLine
 10
67251.42063138608
 20
-18582.34363673218
 30
0.0
 11
67250.85795200377
 21
-18582.27325111668
 31
0.0
  0
LINE
  5
68
330
2
100
AcDbEntity
  8
0
  6
Continuous
 62
     7
100
AcDbLine
 10
67247.16785619267
 20
-18541.81164343258
 30
0.0
 11
67245.90938349547
 21
-18541.86542413158
 31
0.0
  0
LINE
  5
69
330
2
100
AcDbEntity
  8
0
  6
Continuous
 62
     7
100
AcDbLine
 10
67249.11948397527
 20
-18540.51807592018
 30
0.0
 11
67249.10916779477
 21
-18540.51880459648
 31
0.0
  0
LINE
  5
6A
330
2
100
AcDbEntity
  8
0
  6
Continuous
 62
     7
100
AcDbLine
 10
67249.10916779477
 20
-18540.51880459648
 30
0.0
 11
67248.07972891217
 21
-18540.59719497898
 31
0.0
  0
LWPOLYLINE
  5
6B
330
2
100
AcDbEntity
  8
0
  6
Continuous
 62
     7
100
AcDbPolyline
 90
        4
 70
     0
 43
0.0
 10
67245.90696034438
 20
-18541.86567549628
 10
67134.15964994887
 20
-18554.50209216428
 10
67008.72641263096
 20
-18568.41532576108
 10
66874.41849155247
 20
-18583.04703194158
  0
LINE
  5
6C
330
2
100
AcDbEntity
  8
0
  6
Continuous
 62
     7
100
AcDbLine
 10
67246.03572641187
 20
-18541.84562486928
 30
0.0
 11
67245.90537009387
 21
-18541.86585381508
 31
0.0
  0
LWPOLYLINE
  5
6D
330
2
100
AcDbEntity
  8
0
  6
Continuous
 62
     7
100
AcDbPolyline
 90
        3
 70
     0
 43
0.0
 10
67331.44597372937
 20
-18540.35465950988
 10
67331.43748994116
 20
-18540.35450080628
 10
67331.39606057167
 20
-18540.35408584928
  0
LINE
  5
6E
330
2
100
AcDbEntity
  8
0
  6
Continuous
 62
     7
100
AcDbLine
 10
66893.23479890377
 20
-18543.04486063138
 30
0.0
 11
66859.00246634937
 21
-18543.04486063138
 31
0.0
  0
LINE
  5
6F
330
2
100
AcDbEntity
  8
0
  6
Continuous
 62
     7
100
AcDbLine
 10
66859.00246634937
 20
-18540.35396633188
 30
0.0
 11
67332.35936155036
 21
-18540.35396633188
 31
0.0
  0
LINE
  5
70
330
2
100
AcDbEntity
  8
0
  6
Continuous
 62
     7
100
AcDbLine
 10
66874.41759354316
 20
-18583.04707965118
 30
0.0
 11
66872.17566392587
 21
-18583.63682330718
 31
0.0
  0
LINE
  5
71
330
2
100
AcDbEntity
  8
0
  6
Continuous
 62
     7
100
AcDbLine
 10
67036.31123665258
 20
-18679.95317474378
 30
0.0
 11
67037.00246634936
 21
-18687.85396633188
 31
0.0
  0
LINE
  5
72
330
2
100
AcDbEntity
  8
0
  6
Continuous
 62
     7
100
AcDbLine
 10
67248.78020671807
 20
-18542.02456255698
 30
0.0
 11
67247.16785619267
 21
-18541.81164343258
 31
0.0
  0
LINE
  5
73
330
2
100
AcDbEntity
  8
0
  6
Continuous
 62
     7
100
AcDbLine
 10
67333.37811025107
 20
-18490.35396633188
 30
0.0
 11
66859.00246634937
 21
-18490.35396633188
 31
0.0
  0
LWPOLYLINE
  5
74
330
2
100
AcDbEntity
  8
0
  6
Continuous
 62
     7
100
AcDbPolyline
 90
        5
 70
     0
 43
0.0
 10
66872.17857034926
 20
-18583.63559143878
 10
66871.45533500486
 20
-18583.93963049578
 10
66870.49496678886
 20
-18584.35611788948
 10
66869.76509845086
 20
-18584.73129923448
 10
66869.63532968877
 20
-18584.81110725048
  0
LINE
  5
75
330
2
100
AcDbEntity
  8
0
  6
Continuous
 62
     7
100
AcDbLine
 10
66872.17583148667
 20
-18583.63675094028
 30
0.0
 11
66872.17889981917
 21
-18583.63542249798
 31
0.0
  0
LINE
  5
76
330
2
100
AcDbEntity
  8
0
  6
Continuous
 62
     7
100
AcDbLine
 10
66893.23479890377
 20
-18543.04486063138
 30
0.0
 11
66893.23479886497
 21
-18540.35396633188
 31
0.0
  0
LINE
  5
77
330
2
100
AcDbEntity
  8
0
  6
Continuous
 62
     7
100
AcDbLine
 10
66869.00247518678
 20
-18576.57264457898
 30
0.0
 11
66869.63532968877
 21
-18584.81110725048
 31
0.0
  0
LINE
  5
78
330
2
100
AcDbEntity
  8
0
  6
Continuous
 62
     7
100
AcDbLine
 10
66857.00246634937
 20
-18638.35396633188
 30
0.0
 11
66857.00246634937
 21
-18492.35396633188
 31
0.0
  0
ARC
  5
79
330
2
100
AcDbEntity
  8
0
  6
Continuous
 62
     7
100
AcDbCircle
 10
65899.88045594474
 20
-13871.4838210066
 30
0.0
 40
5451.367690363499
100
AcDbArc
 50
269.5616394656303
 51
269.9727940752699
  0
ARC
  5
7A
330
2
100
AcDbEntity
  8
0
  6
Continuous
 62
     7
100
AcDbCircle
 10
61020.03334052065
 20
-19254.70191475231
 30
0.0
 40
5399.719936924
100
AcDbArc
 50
359.5678430495153
 51
359.9742113709404
  0
ARC
  5
7B
330
2
100
AcDbEntity
  8
0
  6
Continuous
 62
     7
100
AcDbCircle
 10
62274.78739936015
 20
-19027.8931612445
 30
0.0
 40
4144.965503210499
100
AcDbArc
 50
0.0165099239853427
 51
0.408857650852669
  0
ARC
  5
7C
330
2
100
AcDbEntity
  8
0
  6
Continuous
 62
     7
100
AcDbCircle
 10
65857.17846133574
 20
-19296.4416408402
 30
0.0
 40
31.7910484288
100
AcDbArc
 50
179.9992225811485
 51
270.0007774188514
  0
ARC
  5
7D
330
2
100
AcDbEntity
  8
0
  6
Continuous
 62
     7
100
AcDbCircle
 10
65827.38532402046
 20
-18850.3591342537
 30
0.0
 40
2.0
100
AcDbArc
 50
90.0
 51
180.0
  0
ARC
  5
7E
330
2
100
AcDbEntity
  8
0
  6
Continuous
 62
     7
100
AcDbCircle
 10
66593.34347451045
 20
-19296.44164084201
 30
0.0
 40
31.7910484288
100
AcDbArc
 50
269.9992225778135
 51
0.0007774221865422
  0
ARC
  5
7F
330
2
100
AcDbEntity
  8
0
  6
Continuous
 62
     7
100
AcDbCircle
 10
66623.13661182395
 20
-18850.3591342537
 30
0.0
 40
2.0
100
AcDbArc
 50
0.0
 51
90.0
  0
ARC
  5
80
330
2
100
AcDbEntity
  8
0
  6
Continuous
 62
     7
100
AcDbCircle
 10
71230.48727903026
 20
-19254.7019200127
 30
0.0
 40
5399.7186206282
100
AcDbArc
 50
180.0257885792423
 51
180.4321570000953
  0
ARC
  5
81
330
2
100
AcDbEntity
  8
0
  6
Continuous
 62
     7
100
AcDbCircle
 10
69976.60840748634
 20
-19027.8964050969
 30
0.0
 40
4145.8393751121
100
AcDbArc
 50
179.5911836996478
 51
179.9834487257292
  0
ARC
  5
82
330
2
100
AcDbEntity
  8
0
  6
Continuous
 62
     7
100
AcDbCircle
 10
66350.64148452944
 20
-13871.4849605606
 30
0.0
 40
5451.366550807399
100
AcDbArc
 50
270.0272058817913
 51
270.4383605773098
  0
ARC
  5
83
330
2
100
AcDbEntity
  8
0
  6
Continuous
 62
     7
100
AcDbCircle
 10
79852.41712006446
 20
-18692.98428712038
 30
0.0
 40
12982.7869464875
100
AcDbArc
 50
179.5226138562167
 51
179.7374138676181
  0
ARC
  5
84
330
2
100
AcDbEntity
  8
0
  6
Continuous
 62
     7
100
AcDbCircle
 10
71643.76098177687
 20
-18734.98619499348
 30
0.0
 40
4592.8857910824
100
AcDbArc
 50
179.023964536812
 51
179.1601286207903
  0
ARC
  5
85
330
2
100
AcDbEntity
  8
0
  6
Continuous
 62
     7
100
AcDbCircle
 10
71585.45870182197
 20
-18702.88401618308
 30
0.0
 40
4531.7637060363
100
AcDbArc
 50
179.4180504352444
 51
179.5560392336102
  0
ARC
  5
86
330
2
100
AcDbEntity
  8
0
  6
Continuous
 62
     7
100
AcDbCircle
 10
68365.35756907947
 20
-32234.78799662338
 30
0.0
 40
13739.9277921294
100
AcDbArc
 50
94.67497075712913
 51
96.2522321153952
  0
ARC
  5
87
330
2
100
AcDbEntity
  8
0
  6
Continuous
 62
     7
100
AcDbCircle
 10
67238.11079282928
 20
-19421.81317720298
 30
0.0
 40
881.2724807514999
100
AcDbArc
 50
89.35185808464574
 51
89.51890440054697
  0
ARC
  5
88
330
2
100
AcDbEntity
  8
0
  6
Continuous
 62
     7
100
AcDbCircle
 10
67321.83864495016
 20
-18491.80153781338
 30
0.0
 40
88.137694945
100
AcDbArc
 50
215.0011016192244
 51
215.1627253556997
  0
ARC
  5
89
330
2
100
AcDbEntity
  8
0
  6
Continuous
 62
     7
100
AcDbCircle
 10
67317.82397535466
 20
-18494.63010782568
 30
0.0
 40
83.22664819939999
100
AcDbArc
 50
215.1624766822744
 51
215.3500228933268
  0
ARC
  5
8A
330
2
100
AcDbEntity
  8
0
  6
Continuous
 62
     7
100
AcDbCircle
 10
67327.54318954676
 20
-18554.84003975828
 30
0.0
 40
79.67779101970001
100
AcDbArc
 50
193.1084289893966
 51
194.5016310330483
  0
ARC
  5
8B
330
2
100
AcDbEntity
  8
0
  6
Continuous
 62
     7
100
AcDbCircle
 10
67253.85034990657
 20
-18608.20058742988
 30
0.0
 40
67.8492353832
100
AcDbArc
 50
93.99865802951632
 51
94.87893627801453
  0
ARC
  5
8C
330
2
100
AcDbEntity
  8
0
  6
Continuous
 62
     7
100
AcDbCircle
 10
67262.84788312747
 20
-18605.64840177768
 30
0.0
 40
66.02598804760001
100
AcDbArc
 50
99.71610571947726
 51
100.1414183319548
  0
ARC
  5
8D
330
2
100
AcDbEntity
  8
0
  6
Continuous
 62
     7
100
AcDbCircle
 10
67231.77138641077
 20
-18538.58800411997
 30
0.0
 40
48.0523631802
100
AcDbArc
 50
293.5442931701802
 51
294.2650175059733
  0
ARC
  5
8E
330
2
100
AcDbEntity
  8
0
  6
Continuous
 62
     7
100
AcDbCircle
 10
67259.15635923807
 20
-18587.62044549628
 30
0.0
 40
47.62094199149999
100
AcDbArc
 50
103.2563384806937
 51
103.9066185939826
  0
ARC
  5
8F
330
2
100
AcDbEntity
  8
0
  6
Continuous
 62
     7
100
AcDbCircle
 10
67258.57246827596
 20
-18585.26339696388
 30
0.0
 40
45.19264910239999
100
AcDbArc
 50
103.9062599069761
 51
104.6139407846486
  0
ARC
  5
90
330
2
100
AcDbEntity
  8
0
  6
Continuous
 62
     7
100
AcDbCircle
 10
67257.73026956316
 20
-18582.04809830548
 30
0.0
 40
41.8688817781
100
AcDbArc
 50
104.6088550032701
 51
106.2192411401014
  0
ARC
  5
91
330
2
100
AcDbEntity
  8
0
  6
Continuous
 62
     7
100
AcDbCircle
 10
67258.56001259366
 20
-18573.82407566828
 30
0.0
 40
10.1016443109
100
AcDbArc
 50
232.7541942110864
 51
270.0438143396109
  0
ARC
  5
92
330
2
100
AcDbEntity
  8
0
  6
Continuous
 62
     7
100
AcDbCircle
 10
67247.07732051197
 20
-18551.53097705738
 30
0.0
 40
9.741316169199999
100
AcDbArc
 50
82.00354588537782
 51
94.7074781802824
  0
ARC
  5
93
330
2
100
AcDbEntity
  8
0
  6
Continuous
 62
     7
100
AcDbCircle
 10
67247.06867469617
 20
-18551.39879065858
 30
0.0
 40
9.6088663862
100
AcDbArc
 50
94.72078537039338
 51
96.17120508984202
  0
ARC
  5
94
330
2
100
AcDbEntity
  8
0
  6
Continuous
 62
     7
100
AcDbCircle
 10
67245.18814640256
 20
-18545.01954938878
 30
0.0
 40
5.2534534175
100
AcDbArc
 50
25.20225013092849
 51
30.93119414686537
  0
ARC
  5
95
330
2
100
AcDbEntity
  8
0
  6
Continuous
 62
     7
100
AcDbCircle
 10
67254.43582726187
 20
-18586.14776917938
 30
0.0
 40
4.9338194667
100
AcDbArc
 50
133.2972261085229
 51
134.6865620599473
  0
ARC
  5
96
330
2
100
AcDbEntity
  8
0
  6
Continuous
 62
     7
100
AcDbCircle
 10
67254.36832255727
 20
-18586.07482176388
 30
0.0
 40
4.8344343992
100
AcDbArc
 50
128.3411704305901
 51
133.3078425322945
  0
ARC
  5
97
330
2
100
AcDbEntity
  8
0
  6
Continuous
 62
     7
100
AcDbCircle
 10
67333.37811025107
 20
-18493.85396633188
 30
0.0
 40
3.5
100
AcDbArc
 50
357.9999999999957
 51
90.0
  0
ARC
  5
98
330
2
100
AcDbEntity
  8
0
  6
Continuous
 62
     7
100
AcDbCircle
 10
67332.35936155036
 20
-18537.35396633188
 30
0.0
 40
3.0
100
AcDbArc
 50
270.0
 51
357.9999999999957
  0
ARC
  5
99
330
2
100
AcDbEntity
  8
0
  6
Continuous
 62
     7
100
AcDbCircle
 10
67062.58116397317
 20
-18645.54048749718
 30
0.0
 40
190.6967604479
100
AcDbArc
 50
19.74132690522306
 51
19.91279508609202
  0
ARC
  5
9A
330
2
100
AcDbEntity
  8
0
  6
Continuous
 62
     7
100
AcDbCircle
 10
67089.89424899947
 20
-18630.11132814438
 30
0.0
 40
169.5605517599
100
AcDbArc
 50
16.53104269650249
 51
16.68223929554893
  0
ARC
  5
9B
330
2
100
AcDbEntity
  8
0
  6
Continuous
 62
     7
100
AcDbCircle
 10
67129.82353720936
 20
-18528.95108731928
 30
0.0
 40
86.14120409780001
100
AcDbArc
 50
291.8890113935313
 51
293.2260256017423
  0
ARC
  5
9C
330
2
100
AcDbEntity
  8
0
  6
Continuous
 62
     7
100
AcDbCircle
 10
67047.68289079546
 20
-18503.46748914938
 30
0.0
 40
71.4494414377
100
AcDbArc
 50
243.8968856521466
 51
250.435738932127
  0
ARC
  5
9D
330
2
100
AcDbEntity
  8
0
  6
Continuous
 62
     7
100
AcDbCircle
 10
67005.81166599136
 20
-18623.73484781398
 30
0.0
 40
50.0
100
AcDbArc
 50
197.9746564848291
 51
266.5187311917057
  0
ARC
  5
9E
330
2
100
AcDbEntity
  8
0
  6
Continuous
 62
     7
100
AcDbCircle
 10
67114.69012956237
 20
-18657.35210502868
 30
0.0
 40
4.999999644699999
100
AcDbArc
 50
90.09884316745358
 51
174.9999968341564
  0
ARC
  5
9F
330
2
100
AcDbEntity
  8
0
  6
Continuous
 62
     7
100
AcDbCircle
 10
67031.33029547207
 20
-18680.38893939508
 30
0.0
 40
4.999996035199999
100
AcDbArc
 50
5.000000086284939
 51
86.49873455103296
  0
ARC
  5
A0
330
2
100
AcDbEntity
  8
0
  6
Continuous
 62
     7
100
AcDbCircle
 10
67233.81500149137
 20
-17468.67040951188
 30
0.0
 40
1111.9737136309
100
AcDbArc
 50
268.748876678778
 51
269.8648003911995
  0
ARC
  5
A1
330
2
100
AcDbEntity
  8
0
  6
Continuous
 62
     7
100
AcDbCircle
 10
67233.44699116837
 20
-17896.28034683118
 30
0.0
 40
684.3629989395999
100
AcDbArc
 50
269.8112439415796
 51
270.7058306950258
  0
ARC
  5
A2
330
2
100
AcDbEntity
  8
0
  6
Continuous
 62
     7
100
AcDbCircle
 10
67056.81414138896
 20
-18244.57797404678
 30
0.0
 40
407.7484712128
100
AcDbArc
 50
269.0563447465186
 51
269.2682367985631
  0
ARC
  5
A3
330
2
100
AcDbEntity
  8
0
  6
Continuous
 62
     7
100
AcDbCircle
 10
67056.83086657576
 20
-18249.09303370008
 30
0.0
 40
407.6912991915
100
AcDbArc
 50
269.0420955436341
 51
269.2566384640065
  0
ARC
  5
A4
330
2
100
AcDbEntity
  8
0
  6
Continuous
 62
     7
100
AcDbCircle
 10
67057.82216804137
 20
-18364.58173324898
 30
0.0
 40
265.6831165202
100
AcDbArc
 50
302.4183682595329
 51
303.007601866232
  0
ARC
  5
A5
330
2
100
AcDbEntity
  8
0
  6
Continuous
 62
     7
100
AcDbCircle
 10
67059.09751060717
 20
-18365.47889315478
 30
0.0
 40
264.2736575200999
100
AcDbArc
 50
298.4634434532497
 51
298.9806446363875
  0
ARC
  5
A6
330
2
100
AcDbEntity
  8
0
  6
Continuous
 62
     7
100
AcDbCircle
 10
67060.00217389156
 20
-18368.04705075708
 30
0.0
 40
261.5891526081
100
AcDbArc
 50
299.0798447438881
 51
302.4221974730428
  0
ARC
  5
A7
330
2
100
AcDbEntity
  8
0
  6
Continuous
 62
     7
100
AcDbCircle
 10
67061.48176305397
 20
-18369.97035682218
 30
0.0
 40
259.1887898043
100
AcDbArc
 50
293.2498033647425
 51
298.4732971356336
  0
ARC
  5
A8
330
2
100
AcDbEntity
  8
0
  6
Continuous
 62
     7
100
AcDbCircle
 10
67060.22228229347
 20
-18370.27598601738
 30
0.0
 40
257.8143137911
100
AcDbArc
 50
297.123629065394
 51
297.8018805626872
  0
ARC
  5
A9
330
2
100
AcDbEntity
  8
0
  6
Continuous
 62
     7
100
AcDbCircle
 10
67060.25590348977
 20
-18370.33941057208
 30
0.0
 40
257.7425291547001
100
AcDbArc
 50
297.8018454510927
 51
298.7526684127684
  0
ARC
  5
AA
330
2
100
AcDbEntity
  8
0
  6
Continuous
 62
     7
100
AcDbCircle
 10
67060.29171419626
 20
-18370.41394234598
 30
0.0
 40
257.6598743939
100
AcDbArc
 50
295.0525145673148
 51
297.1238736334324
  0
ARC
  5
AB
330
2
100
AcDbEntity
  8
0
  6
Continuous
 62
     7
100
AcDbCircle
 10
67060.33232212607
 20
-18370.47894757758
 30
0.0
 40
257.5834368284
100
AcDbArc
 50
298.7526961901318
 51
299.2742923919919
  0
ARC
  5
AC
330
2
100
AcDbEntity
  8
0
  6
Continuous
 62
     7
100
AcDbCircle
 10
67060.58504941017
 20
-18371.04270523498
 30
0.0
 40
256.9660497325
100
AcDbArc
 50
293.5231261897751
 51
294.9482387648765
  0
ARC
  5
AD
330
2
100
AcDbEntity
  8
0
  6
Continuous
 62
     7
100
AcDbCircle
 10
67060.81169761097
 20
-18371.55967458328
 30
0.0
 40
256.401581385
100
AcDbArc
 50
293.0872520658155
 51
293.5227952133638
  0
ARC
  5
AE
330
2
100
AcDbEntity
  8
0
  6
Continuous
 62
     7
100
AcDbCircle
 10
67060.90395363746
 20
-18371.77574099248
 30
0.0
 40
256.166643419
100
AcDbArc
 50
292.8664913553731
 51
293.0872206461955
  0
ARC
  5
AF
330
2
100
AcDbEntity
  8
0
  6
Continuous
 62
     7
100
AcDbCircle
 10
67073.45238352587
 20
-18337.99417551688
 30
0.0
 40
239.0400585049
100
AcDbArc
 50
261.2947082352197
 51
263.8475347030734
  0
ARC
  5
B0
330
2
100
AcDbEntity
  8
0
  6
Continuous
 62
     7
100
AcDbCircle
 10
67067.50169236297
 20
-18361.35602719848
 30
0.0
 40
220.6997490178
100
AcDbArc
 50
261.8786224272843
 51
264.722544453419
  0
ARC
  5
B1
330
2
100
AcDbEntity
  8
0
  6
Continuous
 62
     7
100
AcDbCircle
 10
66893.23313630177
 20
-18533.03984506178
 30
0.0
 40
10.0050157077
100
AcDbArc
 50
270.0095212328873
 51
312.8224790185665
  0
ARC
  5
B2
330
2
100
AcDbEntity
  8
0
  6
Continuous
 62
     7
100
AcDbCircle
 10
66859.00246634937
 20
-18638.35396633188
 30
0.0
 40
2.0
100
AcDbArc
 50
180.0
 51
270.0
  0
ARC
  5
B3
330
2
100
AcDbEntity
  8
0
  6
Continuous
 62
     7
100
AcDbCircle
 10
66859.00246634937
 20
-18492.35396633188
 30
0.0
 40
2.0
100
AcDbArc
 50
90.0
 51
180.0
  0
ARC
  5
B4
330
2
100
AcDbEntity
  8
0
  6
Continuous
 62
     7
100
AcDbCircle
 10
66859.00246634937
 20
-18538.35396633188
 30
0.0
 40
2.0
100
AcDbArc
 50
180.0
 51
270.0
  0
ARC
  5
B5
330
2
100
AcDbEntity
  8
0
  6
Continuous
 62
     7
100
AcDbCircle
 10
66874.38309854057
 20
-18638.77374125627
 30
0.0
 40
1.5856534105
100
AcDbArc
 50
287.3386987466906
 51
295.2757722806905
  0
ARC
  5
B6
330
2
100
AcDbEntity
  8
0
  6
Continuous
 62
     7
100
AcDbCircle
 10
66511.95612961347
 20
-18202.74351447288
 30
0.0
 40
784.7760111311999
100
AcDbArc
 50
331.5396932770211
 51
334.1344479759882
  0
ARC
  5
B7
330
2
100
AcDbEntity
  8
0
  6
Continuous
 62
     7
100
AcDbCircle
 10
66872.66693052827
 20
-18340.04498002518
 30
0.0
 40
405.8895201079
100
AcDbArc
 50
320.5390201876968
 51
320.7850506298279
  0
SPLINE
  5
B8
330
2
100
AcDbEntity
  8
02___PRT_ALL_AXES
  6
Continuous
 62
     7
100
AcDbSpline
210
0.0
220
0.0
230
1.0
 70
     8
 71
     3
 72
     9
 73
     5
 74
     0
 42
0.0000000001
 43
0.0000000001
 40
0.0
 40
0.0
 40
0.0
 40
0.0
 40
0.4094791689
 40
1.0
 40
1.0
 40
1.0
 40
1.0
 10
66136.58571949726
 20
-18974.7591341893
 30
0.0
 10
66136.45620381685
 20
-18974.6417995485
 30
0.0
 10
66136.07425822684
 20
-18974.4342393996
 30
0.0
 10
66135.67227482714
 20
-18974.2933665841
 30
0.0
 10
66135.43109752425
 20
-18974.2202089513
 30
0.0
  0
SPLINE
  5
BA
330
2
100
AcDbEntity
  8
02___PRT_ALL_AXES
  6
Continuous
 62
     7
100
AcDbSpline
210
0.0
220
0.0
230
1.0
 70
     8
 71
     3
 72
    13
 73
     9
 74
     0
 42
0.0000000001
 43
0.0000000001
 40
0.0
 40
0.0
 40
0.0
 40
0.0
 40
0.090108642
 40
0.2090808884
 40
0.5000013578
 40
0.7909210473
 40
0.9098924195
 40
1.0
 40
1.0
 40
1.0
 40
1.0
 10
66135.43109752425
 20
-18974.2202089513
 30
0.0
 10
66134.84240022214
 20
-18974.04163617281
 30
0.0
 10
66133.43883682435
 20
-18973.7574244593
 30
0.0
 10
66130.04998094335
 20
-18973.3418994887
 30
0.0
 10
66125.26092126105
 20
-18973.1662863677
 30
0.0
 10
66120.47186755296
 20
-18973.3419053864
 30
0.0
 10
66117.08303102886
 20
-18973.7574353504
 30
0.0
 10
66115.67948130825
 20
-18974.0416489047
 30
0.0
 10
66115.09079197835
 20
-18974.2202229984
 30
0.0
  0
SPLINE
  5
BB
330
2
100
AcDbEntity
  8
02___PRT_ALL_AXES
  6
Continuous
 62
     7
100
AcDbSpline
210
0.0
220
0.0
230
1.0
 70
     8
 71
     3
 72
     9
 73
     5
 74
     0
 42
0.0000000001
 43
0.0000000001
 40
0.0
 40
0.0
 40
0.0
 40
0.0
 40
0.5905191165
 40
1.0
 40
1.0
 40
1.0
 40
1.0
 10
66115.09079197835
 20
-18974.2202229984
 30
0.0
 10
66114.84962489245
 20
-18974.2933790616
 30
0.0
 10
66114.44765733625
 20
-18974.43424895911
 30
0.0
 10
66114.06572768745
 20
-18974.6418034806
 30
0.0
 10
66113.93621634715
 20
-18974.7591341893
 30
0.0
  0
SPLINE
  5
BC
330
2
100
AcDbEntity
  8
02___PRT_ALL_AXES
  6
Continuous
 62
     7
100
AcDbSpline
210
0.0
220
0.0
230
1.0
 70
     8
 71
     3
 72
     9
 73
     5
 74
     0
 42
0.0000000001
 43
0.0000000001
 40
0.0
 40
0.0
 40
0.0
 40
0.0
 40
0.217056495
 40
1.0
 40
1.0
 40
1.0
 40
1.0
 10
66113.76096792225
 20
-18975.07720255631
 30
0.0
 10
66113.76096792225
 20
-18975.0504373311
 30
0.0
 10
66113.77889544636
 20
-18974.9265565104
 30
0.0
 10
66113.86467884026
 20
-18974.8239439919
 30
0.0
 10
66113.93622792466
 20
-18974.7591241486
 30
0.0
  0
SPLINE
  5
BD
330
2
100
AcDbEntity
  8
02___PRT_ALL_AXES
  6
Continuous
 62
     7
100
AcDbSpline
210
0.0
220
0.0
230
1.0
 70
     8
 71
     3
 72
     9
 73
     5
 74
     0
 42
0.0000000001
 43
0.0000000001
 40
0.0
 40
0.0
 40
0.0
 40
0.0
 40
0.2991207959
 40
1.0
 40
1.0
 40
1.0
 40
1.0
 10
66136.58570791985
 20
-18974.7591241487
 30
0.0
 10
66136.61294416425
 20
-18974.7837988054
 30
0.0
 10
66136.69899201655
 20
-18974.8699337359
 30
0.0
 10
66136.76096792225
 20
-18974.9910896494
 30
0.0
 10
66136.76096792225
 20
-18975.07720255631
 30
0.0
  0
SPLINE
  5
BE
330
2
100
AcDbEntity
  8
0
  6
Continuous
 62
     7
100
AcDbSpline
210
0.0
220
0.0
230
1.0
 70
     8
 71
     3
 72
    10
 73
     6
 74
     0
 42
0.0000000001
 43
0.0000000001
 40
0.0
 40
0.0
 40
0.0
 40
0.0
 40
0.5135796458
 40
0.7638627346
 40
1.0
 40
1.0
 40
1.0
 40
1.0
 10
66409.68496913806
 20
-18995.9004208651
 30
0.0
 10
66409.55223666225
 20
-18996.3447474606
 30
0.0
 10
66409.33573696775
 20
-18997.0019567198
 30
0.0
 10
66408.97507428186
 20
-18997.8280004738
 30
0.0
 10
66408.73944634586
 20
-18998.20794219941
 30
0.0
 10
66408.58943610315
 20
-18998.3594615788
 30
0.0
  0
SPLINE
  5
BF
330
2
100
AcDbEntity
  8
0
  6
Continuous
 62
     7
100
AcDbSpline
210
0.0
220
0.0
230
1.0
 70
     8
 71
     3
 72
    10
 73
     6
 74
     0
 42
0.0000000001
 43
0.0000000001
 40
0.0
 40
0.0
 40
0.0
 40
0.0
 40
0.2365072328
 40
0.4866589258
 40
1.0
 40
1.0
 40
1.0
 40
1.0
 10
65841.93231124885
 20
-18998.36009037711
 30
0.0
 10
65841.78023165866
 20
-18998.2103404465
 30
0.0
 10
65841.54952244914
 20
-18997.8261844658
 30
0.0
 10
65841.18527926525
 20
-18997.00339771691
 30
0.0
 10
65840.96966638755
 20
-18996.3460672323
 30
0.0
 10
65840.83696673656
 20
-18995.9022236679
 30
0.0
  0
SPLINE
  5
C0
330
2
100
AcDbEntity
  8
0
  6
Continuous
 62
     7
100
AcDbSpline
210
0.0
220
0.0
230
1.0
 70
     8
 71
     3
 72
     9
 73
     5
 74
     0
 42
0.0000000001
 43
0.0000000001
 40
0.0
 40
0.0
 40
0.0
 40
0.0
 40
0.5000000666
 40
1.0
 40
1.0
 40
1.0
 40
1.0
 10
66450.00829810946
 20
-18858.4558293463
 30
0.0
 10
66444.88682624165
 20
-18859.7361973119
 30
0.0
 10
66435.36867693605
 20
-18865.4668445241
 30
0.0
 10
66429.63803063804
 20
-18874.9849939368
 30
0.0
 10
66428.35766301485
 20
-18880.1064644409
 30
0.0
  0
SPLINE
  5
C1
330
2
100
AcDbEntity
  8
0
  6
Continuous
 62
     7
100
AcDbSpline
210
0.0
220
0.0
230
1.0
 70
     8
 71
     3
 72
     9
 73
     5
 74
     0
 42
0.0000000001
 43
0.0000000001
 40
0.0
 40
0.0
 40
0.0
 40
0.0
 40
0.5000000197
 40
1.0
 40
1.0
 40
1.0
 40
1.0
 10
66615.48091506245
 20
-18879.7898222081
 30
0.0
 10
66614.20054721704
 20
-18874.668350817
 30
0.0
 10
66608.46990037354
 20
-18865.15020142971
 30
0.0
 10
66598.95175095456
 20
-18859.4195548574
 30
0.0
 10
66593.83027996785
 20
-18858.13918711351
 30
0.0
  0
SPLINE
  5
C2
330
2
100
AcDbEntity
  8
0
  6
Continuous
 62
     7
100
AcDbSpline
210
0.0
220
0.0
230
1.0
 70
     8
 71
     3
 72
    12
 73
     8
 74
     0
 42
0.0000000001
 43
0.0000000001
 40
0.0
 40
0.0
 40
0.0
 40
0.0
 40
0.2413246354
 40
0.3657589318999999
 40
0.4920533838
 40
0.7467748140000001
 40
1.0
 40
1.0
 40
1.0
 40
1.0
 10
66430.46798073035
 20
-19280.0772324046
 30
0.0
 10
66431.28361531625
 20
-19283.45082865791
 30
0.0
 10
66433.31380186724
 20
-19288.411877132
 30
0.0
 10
66437.35383794775
 20
-19294.24212046761
 30
0.0
 10
66442.30316837315
 20
-19299.5979316848
 30
0.0
 10
66449.86983031955
 20
-19304.9108143304
 30
0.0
 10
66456.87877945405
 20
-19307.34152985021
 30
0.0
 10
66460.45630450104
 20
-19308.0235275732
 30
0.0
  0
SPLINE
  5
C3
330
2
100
AcDbEntity
  8
0
  6
Continuous
 62
     7
100
AcDbSpline
210
0.0
220
0.0
230
1.0
 70
     8
 71
     3
 72
    12
 73
     8
 74
     0
 42
0.0000000001
 43
0.0000000001
 40
0.0
 40
0.0
 40
0.0
 40
0.0
 40
0.2533074371
 40
0.5080204258
 40
0.6342942471000001
 40
0.7587038117000001
 40
1.0
 40
1.0
 40
1.0
 40
1.0
 10
66583.33238269885
 20
-19308.46707339791
 30
0.0
 10
66586.91261578226
 20
-19307.79459083731
 30
0.0
 10
66593.92848237944
 20
-19305.3820093203
 30
0.0
 10
66601.50783220224
 20
-19300.0859990207
 30
0.0
 10
66606.46419019214
 20
-19294.7383108946
 30
0.0
 10
66610.50983642065
 20
-19288.9138107624
 30
0.0
 10
66612.54144658685
 20
-19283.9540151969
 30
0.0
 10
66613.35698576114
 20
-19280.5811023025
 30
0.0
  0
LINE
  5
C4
330
2
100
AcDbEntity
  8
0
  6
Continuous
 62
     7
100
AcDbLine
 10
66411.09728176656
 20
-18872.8024587214
 30
0.0
 11
66411.09850929215
 21
-18985.2260822407
 31
0.0
  0
SPLINE
  5
C5
330
2
100
AcDbEntity
  8
0
  6
Continuous
 62
     7
100
AcDbSpline
210
0.0
220
0.0
230
1.0
 70
     8
 71
     3
 72
     9
 73
     5
 74
     0
 42
0.0000000001
 43
0.0000000001
 40
0.0
 40
0.0
 40
0.0
 40
0.0
 40
0.2528521527
 40
1.0
 40
1.0
 40
1.0
 40
1.0
 10
66411.12091348885
 20
-18985.2262037573
 30
0.0
 10
66411.12120584264
 20
-18986.1355482734
 30
0.0
 10
66411.00465722105
 20
-18989.73022865081
 30
0.0
 10
66410.41882990795
 20
-18993.3155724777
 30
0.0
 10
66409.68496902905
 20
-18995.9004207428
 30
0.0
  0
SPLINE
  5
C6
330
2
100
AcDbEntity
  8
0
  6
Continuous
 62
     7
100
AcDbSpline
210
0.0
220
0.0
230
1.0
 70
     8
 71
     3
 72
    11
 73
     7
 74
     0
 42
0.0000000001
 43
0.0000000001
 40
0.0
 40
0.0
 40
0.0
 40
0.0
 40
0.2503971742
 40
0.5006469841
 40
0.7505123248000001
 40
1.0
 40
1.0
 40
1.0
 40
1.0
 10
66399.39053424796
 20
-18860.8552665096
 30
0.0
 10
66400.94651380565
 20
-18860.8108375957
 30
0.0
 10
66404.11471104706
 20
-18861.3708921506
 30
0.0
 10
66408.09609702506
 20
-18864.0445927975
 30
0.0
 10
66410.68036632825
 20
-18868.0784494325
 30
0.0
 10
66411.16144816545
 20
-18871.2539075625
 30
0.0
 10
66411.07311158415
 20
-18872.8023496268
 30
0.0
  0
SPLINE
  5
C7
330
2
100
AcDbEntity
  8
0
  6
Continuous
 62
     7
100
AcDbSpline
210
0.0
220
0.0
230
1.0
 70
     8
 71
     3
 72
    11
 73
     7
 74
     0
 42
0.0000000001
 43
0.0000000001
 40
0.0
 40
0.0
 40
0.0
 40
0.0
 40
0.250172729
 40
0.5002299969
 40
0.7502097914000001
 40
1.0
 40
1.0
 40
1.0
 40
1.0
 10
65839.44882426036
 20
-18872.8023496268
 30
0.0
 10
65839.36317650156
 20
-18871.2494895166
 30
0.0
 10
65839.83918773525
 20
-18868.0679319617
 30
0.0
 10
65842.43544690756
 20
-18864.03381282891
 30
0.0
 10
65846.41770047156
 20
-18861.3737911409
 30
0.0
 10
65849.57924774405
 20
-18860.8090323678
 30
0.0
 10
65851.13140159644
 20
-18860.8552665096
 30
0.0
  0
SPLINE
  5
C8
330
2
100
AcDbEntity
  8
0
  6
Continuous
 62
     7
100
AcDbSpline
210
0.0
220
0.0
230
1.0
 70
     8
 71
     3
 72
     9
 73
     5
 74
     0
 42
0.0000000001
 43
0.0000000001
 40
0.0
 40
0.0
 40
0.0
 40
0.0
 40
0.2466258435
 40
1.0
 40
1.0
 40
1.0
 40
1.0
 10
65840.83696681535
 20
-18995.902223579
 30
0.0
 10
65840.59478434196
 20
-18995.0487351322
 30
0.0
 10
65839.72461237755
 20
-18991.5561123459
 30
0.0
 10
65839.40021462965
 20
-18987.9373478373
 30
0.0
 10
65839.40102274236
 20
-18985.2272456995
 30
0.0
  0
LINE
  5
C9
330
2
100
AcDbEntity
  8
0
  6
Continuous
 62
     7
100
AcDbLine
 10
65839.42289519125
 20
-18985.227127075
 30
0.0
 11
65839.42412309925
 21
-18872.80246110701
 31
0.0
  0
SPLINE
  5
CA
330
2
100
AcDbEntity
  8
0
  6
Continuous
 62
     7
100
AcDbSpline
210
0.0
220
0.0
230
1.0
 70
     8
 71
     3
 72
     9
 73
     5
 74
     0
 42
0.0000000001
 43
0.0000000001
 40
0.0
 40
0.0
 40
0.0
 40
0.0
 40
0.7284157654000002
 40
1.0
 40
1.0
 40
1.0
 40
1.0
 10
66408.58820149135
 20
-18998.3591595343
 30
0.0
 10
66408.48938864676
 20
-18998.3591652524
 30
0.0
 10
66408.35109603146
 20
-18998.30953735211
 30
0.0
 10
66408.24946168335
 20
-18998.2172686073
 30
0.0
 10
66408.22800305945
 20
-18998.18732145691
 30
0.0
  0
SPLINE
  5
CB
330
2
100
AcDbEntity
  8
0
  6
Continuous
 62
     7
100
AcDbSpline
210
0.0
220
0.0
230
1.0
 70
     8
 71
     3
 72
    11
 73
     7
 74
     0
 42
0.0000000001
 43
0.0000000001
 40
0.0
 40
0.0
 40
0.0
 40
0.0
 40
0.2504263243
 40
0.5008096157999999
 40
0.7508477317
 40
1.0
 40
1.0
 40
1.0
 40
1.0
 10
66408.22800305945
 20
-18998.18732145691
 30
0.0
 10
66407.88557982705
 20
-18994.3991753824
 30
0.0
 10
66405.66976927545
 20
-18986.877584245
 30
0.0
 10
66398.29537675115
 20
-18977.8046210526
 30
0.0
 10
66388.09260931096
 20
-18972.18817195891
 30
0.0
 10
66380.47006184465
 20
-18970.9753143432
 30
0.0
 10
66376.68713713245
 20
-18970.87554850511
 30
0.0
  0
SPLINE
  5
CC
330
2
100
AcDbEntity
  8
0
  6
Continuous
 62
     7
100
AcDbSpline
210
0.0
220
0.0
230
1.0
 70
     8
 71
     3
 72
     8
 73
     4
 74
     0
 42
0.0000000001
 43
0.0000000001
 40
0.0
 40
0.0
 40
0.0
 40
0.0
 40
1.0
 40
1.0
 40
1.0
 40
1.0
 10
66376.68713713245
 20
-18970.87554850511
 30
0.0
 10
66369.61926584845
 20
-18970.4809286989
 30
0.0
 10
66362.53782831776
 20
-18970.2587009508
 30
0.0
 10
66355.45896990875
 20
-18970.27581537521
 30
0.0
  0
SPLINE
  5
CD
330
2
100
AcDbEntity
  8
0
  6
Continuous
 62
     7
100
AcDbSpline
210
0.0
220
0.0
230
1.0
 70
     8
 71
     3
 72
    13
 73
     9
 74
     0
 42
0.0000000001
 43
0.0000000001
 40
0.0
 40
0.0
 40
0.0
 40
0.0
 40
0.1251995024
 40
0.2503712345
 40
0.3755102809
 40
0.5006822735
 40
0.7500332375
 40
1.0
 40
1.0
 40
1.0
 40
1.0
 10
66590.46444337676
 20
-19322.85089682011
 30
0.0
 10
66592.64162367414
 20
-19322.8507082218
 30
0.0
 10
66597.01245467145
 20
-19322.4213256079
 30
0.0
 10
66603.25682898416
 20
-19320.3093945692
 30
0.0
 10
66608.79373787835
 20
-19316.7178105761
 30
0.0
 10
66614.76885247684
 20
-19310.3027775774
 30
0.0
 10
66619.32464831005
 20
-19300.1327932164
 30
0.0
 10
66620.28226122155
 20
-19291.40213472961
 30
0.0
 10
66620.28169386435
 20
-19287.0552907144
 30
0.0
  0
SPLINE
  5
CE
330
2
100
AcDbEntity
  8
0
  6
Continuous
 62
     7
100
AcDbSpline
210
0.0
220
0.0
230
1.0
 70
     8
 71
     3
 72
    11
 73
     7
 74
     0
 42
0.0000000001
 43
0.0000000001
 40
0.0
 40
0.0
 40
0.0
 40
0.0
 40
0.2502847002
 40
0.5000015818
 40
0.7497188818000002
 40
1.0
 40
1.0
 40
1.0
 40
1.0
 10
66620.28169386435
 20
-18878.0201323194
 30
0.0
 10
66620.28178061105
 20
-18874.7735553805
 30
0.0
 10
66619.24614190295
 20
-18868.2081647489
 30
0.0
 10
66613.91878885924
 20
-18859.7012138124
 30
0.0
 10
66605.41182560095
 20
-18854.3740726953
 30
0.0
 10
66598.84650033025
 20
-18853.3382758229
 30
0.0
 10
66595.59996985656
 20
-18853.3384083116
 30
0.0
  0
SPLINE
  5
CF
330
2
100
AcDbEntity
  8
0
  6
Continuous
 62
     7
100
AcDbSpline
210
0.0
220
0.0
230
1.0
 70
     8
 71
     3
 72
    11
 73
     7
 74
     0
 42
0.0000000001
 43
0.0000000001
 40
0.0
 40
0.0
 40
0.0
 40
0.0
 40
0.2502847002
 40
0.5000015818
 40
0.7497188818000002
 40
1.0
 40
1.0
 40
1.0
 40
1.0
 10
66447.92196598794
 20
-18853.3384083116
 30
0.0
 10
66444.67538904895
 20
-18853.3383215649
 30
0.0
 10
66438.10999841734
 20
-18854.37396027301
 30
0.0
 10
66429.60304748084
 20
-18859.7013133167
 30
0.0
 10
66424.27590636375
 20
-18868.208276575
 30
0.0
 10
66423.24010949135
 20
-18874.77360184571
 30
0.0
 10
66423.24024198004
 20
-18878.0201323194
 30
0.0
  0
SPLINE
  5
D0
330
2
100
AcDbEntity
  8
0
  6
Continuous
 62
     7
100
AcDbSpline
210
0.0
220
0.0
230
1.0
 70
     8
 71
     3
 72
    13
 73
     9
 74
     0
 42
0.0000000001
 43
0.0000000001
 40
0.0
 40
0.0
 40
0.0
 40
0.0
 40
0.2499668862
 40
0.4993155722
 40
0.6244875966
 40
0.7496267623000001
 40
0.8747983918999999
 40
1.0
 40
1.0
 40
1.0
 40
1.0
 10
66423.24024198004
 20
-19287.0552907144
 30
0.0
 10
66423.23964941274
 20
-19291.4021366444
 30
0.0
 10
66424.19732966696
 20
-19300.1327489247
 30
0.0
 10
66428.75303262425
 20
-19310.3027217804
 30
0.0
 10
66434.72812311025
 20
-19316.7177310336
 30
0.0
 10
66440.26501034904
 20
-19320.3093392787
 30
0.0
 10
66446.50940729325
 20
-19322.4213372064
 30
0.0
 10
66450.88027567146
 20
-19322.8506881157
 30
0.0
 10
66453.05749246766
 20
-19322.85089682011
 30
0.0
  0
SPLINE
  5
D1
330
2
100
AcDbEntity
  8
0
  6
Continuous
 62
     7
100
AcDbSpline
210
0.0
220
0.0
230
1.0
 70
     8
 71
     3
 72
     8
 73
     4
 74
     0
 42
0.0000000001
 43
0.0000000001
 40
0.0
 40
0.0
 40
0.0
 40
0.0
 40
1.0
 40
1.0
 40
1.0
 40
1.0
 10
66419.53096397326
 20
-18875.0105255931
 30
0.0
 10
66419.55987016435
 20
-18916.1121260341
 30
0.0
 10
66419.61008258245
 20
-18957.2137087715
 30
0.0
 10
66419.64736962155
 20
-18998.3153024639
 30
0.0
  0
SPLINE
  5
D2
330
2
100
AcDbEntity
  8
0
  6
Continuous
 62
     7
100
AcDbSpline
210
0.0
220
0.0
230
1.0
 70
     8
 71
     3
 72
    11
 73
     7
 74
     0
 42
0.0000000001
 43
0.0000000001
 40
0.0
 40
0.0
 40
0.0
 40
0.0
 40
0.2500644794
 40
0.5000163698
 40
0.7499782119000001
 40
1.0
 40
1.0
 40
1.0
 40
1.0
 10
66398.47428066976
 20
-18853.89066391811
 30
0.0
 10
66401.21783905706
 20
-18853.8896420154
 30
0.0
 10
66406.76318538536
 20
-18854.9944603157
 30
0.0
 10
66413.76812872736
 20
-18859.6975734357
 30
0.0
 10
66418.43397283254
 20
-18866.72474205791
 30
0.0
 10
66419.52863877525
 20
-18872.2674363846
 30
0.0
 10
66419.53096397326
 20
-18875.0105255931
 30
0.0
  0
LINE
  5
D3
330
2
100
AcDbEntity
  8
0
  6
Continuous
 62
     7
100
AcDbLine
 10
65852.04765517465
 20
-18853.89066391811
 30
0.0
 11
66398.47428066976
 21
-18853.89066391811
 31
0.0
  0
SPLINE
  5
D4
330
2
100
AcDbEntity
  8
0
  6
Continuous
 62
     7
100
AcDbSpline
210
0.0
220
0.0
230
1.0
 70
     8
 71
     3
 72
    11
 73
     7
 74
     0
 42
0.0000000001
 43
0.0000000001
 40
0.0
 40
0.0
 40
0.0
 40
0.0
 40
0.2500561489
 40
0.5000307034000001
 40
0.7499826694000001
 40
1.0
 40
1.0
 40
1.0
 40
1.0
 10
65830.99097187115
 20
-18875.0105255931
 30
0.0
 10
65830.99243126335
 20
-18872.2670212793
 30
0.0
 10
65832.08759037606
 20
-18866.7234035456
 30
0.0
 10
65836.75465561525
 20
-18859.6966120353
 30
0.0
 10
65843.75962590335
 20
-18854.9933265353
 30
0.0
 10
65849.30457637046
 20
-18853.8907378054
 30
0.0
 10
65852.04765517465
 20
-18853.89066391811
 30
0.0
  0
SPLINE
  5
D5
330
2
100
AcDbEntity
  8
0
  6
Continuous
 62
     7
100
AcDbSpline
210
0.0
220
0.0
230
1.0
 70
     8
 71
     3
 72
     8
 73
     4
 74
     0
 42
0.0000000001
 43
0.0000000001
 40
0.0
 40
0.0
 40
0.0
 40
0.0
 40
1.0
 40
1.0
 40
1.0
 40
1.0
 10
65830.87456622286
 20
-18998.3153024639
 30
0.0
 10
65830.91185299705
 20
-18957.2137087712
 30
0.0
 10
65830.96206591405
 20
-18916.11212603431
 30
0.0
 10
65830.99097187115
 20
-18875.0105255931
 30
0.0
  0
SPLINE
  5
D6
330
2
100
AcDbEntity
  8
0
  6
Continuous
 62
     7
100
AcDbSpline
210
0.0
220
0.0
230
1.0
 70
     8
 71
     3
 72
    11
 73
     7
 74
     0
 42
0.0000000001
 43
0.0000000001
 40
0.0
 40
0.0
 40
0.0
 40
0.0
 40
0.2500532872
 40
0.4999995314000001
 40
0.74994801
 40
1.0
 40
1.0
 40
1.0
 40
1.0
 10
65858.17335008376
 20
-19322.6919635067
 30
0.0
 10
65854.62680688145
 20
-19322.6667582873
 30
0.0
 10
65847.46356242936
 20
-19321.273784571
 30
0.0
 10
65838.37641335335
 20
-19315.22972069291
 30
0.0
 10
65832.33639571865
 20
-19306.1392115047
 30
0.0
 10
65830.94825156575
 20
-19298.9757682912
 30
0.0
 10
65830.92225334386
 20
-19295.4292492118
 30
0.0
  0
SPLINE
  5
D7
330
2
100
AcDbEntity
  8
0
  6
Continuous
 62
     7
100
AcDbSpline
210
0.0
220
0.0
230
1.0
 70
     8
 71
     3
 72
    11
 73
     7
 74
     0
 42
0.0000000001
 43
0.0000000001
 40
0.0
 40
0.0
 40
0.0
 40
0.0
 40
0.2500556636
 40
0.5000039306000001
 40
0.7499502851999999
 40
1.0
 40
1.0
 40
1.0
 40
1.0
 10
66419.59968250056
 20
-19295.4292492118
 30
0.0
 10
66419.57366118726
 20
-19298.9758202314
 30
0.0
 10
66418.18552673434
 20
-19306.1393178186
 30
0.0
 10
66412.14540638245
 20
-19315.2298321093
 30
0.0
 10
66403.05827028144
 20
-19321.2738055201
 30
0.0
 10
66395.89507837506
 20
-19322.6667692471
 30
0.0
 10
66392.34858576066
 20
-19322.6919635067
 30
0.0
  0
SPLINE
  5
D8
330
2
100
AcDbEntity
  8
02___PRT_ALL_AXES
  6
Continuous
 62
     7
100
AcDbSpline
210
0.0
220
0.0
230
1.0
 70
     8
 71
     3
 72
     9
 73
     5
 74
     0
 42
0.0000000001
 43
0.0000000001
 40
0.0
 40
0.0
 40
0.0
 40
0.0
 40
0.5607154066
 40
1.0
 40
1.0
 40
1.0
 40
1.0
 10
66125.26096783386
 20
-18976.85292321681
 30
0.0
 10
66123.51219897235
 20
-18976.8529241591
 30
0.0
 10
66120.39507733975
 20
-18976.7450057277
 30
0.0
 10
66117.28310062876
 20
-18976.4109375409
 30
0.0
 10
66115.94292378074
 20
-18976.1264054673
 30
0.0
  0
SPLINE
  5
D9
330
2
100
AcDbEntity
  8
02___PRT_ALL_AXES
  6
Continuous
 62
     7
100
AcDbSpline
210
0.0
220
0.0
230
1.0
 70
     8
 71
     3
 72
    10
 73
     6
 74
     0
 42
0.0000000001
 43
0.0000000001
 40
0.0
 40
0.0
 40
0.0
 40
0.0
 40
0.6761490514000001
 40
0.8747610181999998
 40
1.0
 40
1.0
 40
1.0
 40
1.0
 10
66115.94292378074
 20
-18976.1264054673
 30
0.0
 10
66115.38931073075
 20
-18976.0088682412
 30
0.0
 10
66114.66776759416
 20
-18975.828143691
 30
0.0
 10
66113.92876477375
 20
-18975.434430439
 30
0.0
 10
66113.76096792225
 20
-18975.1820305291
 30
0.0
 10
66113.76096792225
 20
-18975.07720255631
 30
0.0
  0
SPLINE
  5
DA
330
2
100
AcDbEntity
  8
0
  6
Continuous
 62
     7
100
AcDbSpline
210
0.0
220
0.0
230
1.0
 70
     8
 71
     3
 72
     8
 73
     4
 74
     0
 42
0.0000000001
 43
0.0000000001
 40
0.0
 40
0.0
 40
0.0
 40
0.0
 40
1.0
 40
1.0
 40
1.0
 40
1.0
 10
65895.06296593564
 20
-18970.27581537521
 30
0.0
 10
65887.98410752666
 20
-18970.258700964
 30
0.0
 10
65880.90266999585
 20
-18970.4809286974
 30
0.0
 10
65873.83479871196
 20
-18970.87554850511
 30
0.0
  0
SPLINE
  5
DB
330
2
100
AcDbEntity
  8
0
  6
Continuous
 62
     7
100
AcDbSpline
210
0.0
220
0.0
230
1.0
 70
     8
 71
     3
 72
     9
 73
     5
 74
     0
 42
0.0000000001
 43
0.0000000001
 40
0.0
 40
0.0
 40
0.0
 40
0.0
 40
0.2754704048
 40
1.0
 40
1.0
 40
1.0
 40
1.0
 10
65842.29427542374
 20
-18998.18140587061
 30
0.0
 10
65842.27221366774
 20
-18998.2117714629
 30
0.0
 10
65842.17660989765
 20
-18998.3105471779
 30
0.0
 10
65842.03488374455
 20
-18998.3592464398
 30
0.0
 10
65841.93616392496
 20
-18998.35923553361
 30
0.0
  0
SPLINE
  5
DC
330
2
100
AcDbEntity
  8
0
  6
Continuous
 62
     7
100
AcDbSpline
210
0.0
220
0.0
230
1.0
 70
     8
 71
     3
 72
    11
 73
     7
 74
     0
 42
0.0000000001
 43
0.0000000001
 40
0.0
 40
0.0
 40
0.0
 40
0.0
 40
0.2491428221
 40
0.4992396936
 40
0.7496106321
 40
1.0
 40
1.0
 40
1.0
 40
1.0
 10
65873.83479871196
 20
-18970.87554850511
 30
0.0
 10
65870.05249659475
 20
-18970.9753632222
 30
0.0
 10
65862.43012839506
 20
-18972.1878793661
 30
0.0
 10
65852.22816623974
 20
-18977.8038313251
 30
0.0
 10
65844.85336962045
 20
-18986.8747820475
 30
0.0
 10
65842.63781606355
 20
-18994.3944065596
 30
0.0
 10
65842.29427542374
 20
-18998.18140587061
 30
0.0
  0
SPLINE
  5
DD
330
2
100
AcDbEntity
  8
02___PRT_ALL_AXES
  6
Continuous
 62
     7
100
AcDbSpline
210
0.0
220
0.0
230
1.0
 70
     8
 71
     3
 72
    10
 73
     6
 74
     0
 42
0.0000000001
 43
0.0000000001
 40
0.0
 40
0.0
 40
0.0
 40
0.0
 40
0.331107352
 40
0.6203522475
 40
1.0
 40
1.0
 40
1.0
 40
1.0
 10
66136.76096792225
 20
-18975.07720255631
 30
0.0
 10
66136.76096792225
 20
-18975.2803904958
 30
0.0
 10
66136.38181771645
 20
-18975.56691657931
 30
0.0
 10
66135.84415484415
 20
-18975.79095890601
 30
0.0
 10
66135.44314480796
 20
-18975.9146404912
 30
0.0
 10
66135.21803822636
 20
-18975.9746782394
 30
0.0
  0
SPLINE
  5
DE
330
2
100
AcDbEntity
  8
02___PRT_ALL_AXES
  6
Continuous
 62
     7
100
AcDbSpline
210
0.0
220
0.0
230
1.0
 70
     8
 71
     3
 72
    10
 73
     6
 74
     0
 42
0.0000000001
 43
0.0000000001
 40
0.0
 40
0.0
 40
0.0
 40
0.0
 40
0.1852622663
 40
0.4242421609000001
 40
1.0
 40
1.0
 40
1.0
 40
1.0
 10
66135.21803822636
 20
-18975.9746782394
 30
0.0
 10
66134.62050309435
 20
-18976.1340456979
 30
0.0
 10
66133.22424020365
 20
-18976.3902083107
 30
0.0
 10
66129.90628565955
 20
-18976.7605073915
 30
0.0
 10
66127.18290008265
 20
-18976.8529242569
 30
0.0
 10
66125.26096783386
 20
-18976.85292321681
 30
0.0
  0
SPLINE
  5
DF
330
2
100
AcDbEntity
  8
0
  6
Continuous
 62
     7
100
AcDbSpline
210
0.0
220
0.0
230
1.0
 70
     8
 71
     3
 72
    16
 73
    12
 74
     0
 42
0.0000000001
 43
0.0000000001
 40
0.0
 40
0.0
 40
0.0
 40
0.0
 40
0.1324080988
 40
0.2011684124
 40
0.2705989802
 40
0.3396522503
 40
0.4071649318000001
 40
0.5357495513
 40
0.656635059
 40
0.7727969827
 40
1.0
 40
1.0
 40
1.0
 40
1.0
 10
67114.68150390636
 20
-18652.35211246418
 30
0.0
 10
67120.88684160868
 20
-18652.34140359228
 30
0.0
 10
67130.31983470247
 20
-18652.24436161848
 30
0.0
 10
67142.97439366657
 20
-18651.31829205718
 30
0.0
 10
67152.60031436046
 20
-18649.96539746898
 30
0.0
 10
67162.05008057167
 20
-18647.94572187898
 30
0.0
 10
67173.98081027886
 20
-18644.43540728938
 30
0.0
 10
67187.78090842947
 20
-18638.83115697528
 30
0.0
 10
67202.91340136988
 20
-18630.73938207218
 30
0.0
 10
67221.14674105376
 20
-18618.83112297408
 30
0.0
 10
67233.59131460236
 20
-18608.53165964618
 30
0.0
 10
67241.39584487476
 20
-18601.28818377598
 30
0.0
  0
LINE
  5
E0
330
2
100
AcDbEntity
  8
0
  6
Continuous
 62
     7
100
AcDbLine
 10
67105.55285715656
 20
-18652.34319745798
 30
0.0
 11
67114.68150389226
 21
-18652.35211245728
 31
0.0
  0
LINE
  5
E1
330
2
100
AcDbEntity
  8
0
  6
Continuous
 62
     7
100
AcDbLine
 10
66876.18193594276
 20
-18640.34994005818
 30
0.0
 11
66875.06027698336
 21
-18640.35113995918
 31
0.0
  0
LINE
  5
E2
330
2
100
AcDbEntity
  8
0
  6
Continuous
 62
     7
100
AcDbLine
 10
66875.06027698336
 20
-18640.35113995918
 30
0.0
 11
66874.43997701257
 21
-18640.35170701218
 31
0.0
  0
LINE
  5
E3
330
2
100
AcDbEntity
  8
0
  6
Continuous
 62
     7
100
AcDbLine
 10
66874.43997701257
 20
-18640.35170701218
 30
0.0
 11
66872.54965081136
 21
-18640.35302798968
 31
0.0
  0
SPLINE
  5
E4
330
2
100
AcDbEntity
  8
0
  6
Continuous
 62
     7
100
AcDbSpline
210
0.0
220
0.0
230
1.0
 70
     8
 71
     3
 72
     9
 73
     5
 74
     0
 42
0.0000000001
 43
0.0000000001
 40
0.0
 40
0.0
 40
0.0
 40
0.0
 40
0.5111645085000001
 40
1.0
 40
1.0
 40
1.0
 40
1.0
 10
66872.54965081136
 20
-18640.35302798968
 30
0.0
 10
66871.94525260368
 20
-18640.35335615998
 30
0.0
 10
66870.76285780687
 20
-18640.35382080258
 30
0.0
 10
66869.58046292816
 20
-18640.35396483078
 30
0.0
 10
66869.00246634936
 20
-18640.35396633188
 30
0.0
  0
SPLINE
  5
E5
330
2
100
AcDbEntity
  8
0
  6
Continuous
 62
     7
100
AcDbSpline
210
0.0
220
0.0
230
1.0
 70
     8
 71
     3
 72
     8
 73
     4
 74
     0
 42
0.0000000001
 43
0.0000000001
 40
0.0
 40
0.0
 40
0.0
 40
0.0
 40
1.0
 40
1.0
 40
1.0
 40
1.0
 10
67169.39746913487
 20
-18603.83318986428
 30
0.0
 10
67169.25608905797
 20
-18603.89927319628
 30
0.0
 10
67169.11465135837
 20
-18603.96522676468
 30
0.0
 10
67168.97315633576
 20
-18604.03105042038
 30
0.0
  0
SPLINE
  5
E6
330
2
100
AcDbEntity
  8
0
  6
Continuous
 62
     7
100
AcDbSpline
210
0.0
220
0.0
230
1.0
 70
     8
 71
     3
 72
    11
 73
     7
 74
     0
 42
0.0000000001
 43
0.0000000001
 40
0.0
 40
0.0
 40
0.0
 40
0.0
 40
0.1780131732
 40
0.4399571957
 40
0.8277113454
 40
1.0
 40
1.0
 40
1.0
 40
1.0
 10
67199.29579737128
 20
-18587.36101933678
 30
0.0
 10
67182.69220563157
 20
-18598.00460034478
 30
0.0
 10
67138.51880300167
 20
-18619.61644206808
 30
0.0
 10
67047.77861846327
 20
-18634.99850339158
 30
0.0
 10
66956.84318952187
 20
-18639.92732332828
 30
0.0
 10
66895.29202491807
 20
-18640.32754570618
 30
0.0
 10
66876.18193594276
 20
-18640.34994005818
 30
0.0
  0
SPLINE
  5
E7
330
2
100
AcDbEntity
  8
0
  6
Continuous
 62
     7
100
AcDbSpline
210
0.0
220
0.0
230
1.0
 70
     8
 71
     3
 72
     9
 73
     5
 74
     0
 42
0.0000000001
 43
0.0000000001
 40
0.0
 40
0.0
 40
0.0
 40
0.0
 40
0.3084522584
 40
1.0
 40
1.0
 40
1.0
 40
1.0
 10
66958.48818563088
 20
-18639.08764205218
 30
0.0
 10
66950.05373117787
 20
-18639.38836096798
 30
0.0
 10
66922.72321893196
 20
-18640.14725898828
 30
0.0
 10
66895.47223037967
 20
-18640.32636762848
 30
0.0
 10
66876.45472643026
 20
-18640.34961351038
 30
0.0
  0
SPLINE
  5
E8
330
2
100
AcDbEntity
  8
0
  6
Continuous
 62
     7
100
AcDbSpline
210
0.0
220
0.0
230
1.0
 70
     8
 71
     3
 72
    12
 73
     8
 74
     0
 42
0.0000000001
 43
0.0000000001
 40
0.0
 40
0.0
 40
0.0
 40
0.0
 40
0.2489834367
 40
0.374008879
 40
0.4991652552000001
 40
0.7494607269
 40
1.0
 40
1.0
 40
1.0
 40
1.0
 10
67002.63342388527
 20
-18636.87383212678
 30
0.0
 10
67005.58105402336
 20
-18639.95557327748
 30
0.0
 10
67010.67251964427
 20
-18644.02495680408
 30
0.0
 10
67018.37915376687
 20
-18647.77817368348
 30
0.0
 10
67026.55654335816
 20
-18650.43613149538
 30
0.0
 10
67037.23485023126
 20
-18651.93267324268
 30
0.0
 10
67045.80834519917
 20
-18652.20021865698
 30
0.0
 10
67050.09887045716
 20
-18652.27114402438
 30
0.0
  0
LINE
  5
E9
330
2
100
AcDbEntity
  8
0
  6
Continuous
 62
     7
100
AcDbLine
 10
67051.60665110226
 20
-18652.29319061508
 30
0.0
 11
67065.10586100956
 21
-18652.31544165218
 31
0.0
  0
LINE
  5
EA
330
2
100
AcDbEntity
  8
0
  6
Continuous
 62
     7
100
AcDbLine
 10
67053.92874973557
 20
-18656.85597372458
 30
0.0
 11
67065.89394307576
 21
-18656.87909183498
 31
0.0
  0
SPLINE
  5
EB
330
2
100
AcDbEntity
  8
0
  6
Continuous
 62
     7
100
AcDbSpline
210
0.0
220
0.0
230
1.0
 70
     8
 71
     3
 72
    13
 73
     9
 74
     0
 42
0.0000000001
 43
0.0000000001
 40
0.0
 40
0.0
 40
0.0
 40
0.0
 40
0.1544124397
 40
0.3028152705
 40
0.4439567000000001
 40
0.5769690875000001
 40
0.8126584042000001
 40
1.0
 40
1.0
 40
1.0
 40
1.0
 10
67053.83103966516
 20
-18667.76964698768
 30
0.0
 10
67053.82036749697
 20
-18668.73861165178
 30
0.0
 10
67053.50926652536
 20
-18670.64878654098
 30
0.0
 10
67052.29425525026
 20
-18673.18421924948
 30
0.0
 10
67050.70304462895
 20
-18675.31995028578
 30
0.0
 10
67048.42493216766
 20
-18677.58134966328
 30
0.0
 10
67045.55805417686
 20
-18679.59494306778
 30
0.0
 10
67042.89135356276
 20
-18680.40897079218
 30
0.0
 10
67041.71848851896
 20
-18680.32777680398
 30
0.0
  0
LINE
  5
EC
330
2
100
AcDbEntity
  8
0
  6
Continuous
 62
     7
100
AcDbLine
 10
67041.71848851896
 20
-18680.32777680398
 30
0.0
 11
67036.31123567617
 21
-18679.95316357898
 31
0.0
  0
LINE
  5
ED
330
2
100
AcDbEntity
  8
0
  6
Continuous
 62
     7
100
AcDbLine
 10
67095.24773675156
 20
-18652.33643405138
 30
0.0
 11
67105.55285735847
 21
-18652.34319745668
 31
0.0
  0
LINE
  5
EE
330
2
100
AcDbEntity
  8
0
  6
Continuous
 62
     7
100
AcDbLine
 10
67253.33757427547
 20
-18582.83561685678
 30
0.0
 11
67253.12937599587
 21
-18583.01896821178
 31
0.0
  0
LINE
  5
EF
330
2
100
AcDbEntity
  8
0
  6
Continuous
 62
     7
100
AcDbLine
 10
67253.12937599587
 20
-18583.01896821178
 30
0.0
 11
67252.16733462337
 21
-18583.86436974078
 31
0.0
  0
SPLINE
  5
F0
330
2
100
AcDbEntity
  8
0
  6
Continuous
 62
     7
100
AcDbSpline
210
0.0
220
0.0
230
1.0
 70
     8
 71
     3
 72
    10
 73
     6
 74
     0
 42
0.0000000001
 43
0.0000000001
 40
0.0
 40
0.0
 40
0.0
 40
0.0
 40
0.3305827608
 40
0.6226472806000001
 40
1.0
 40
1.0
 40
1.0
 40
1.0
 10
66859.00246634937
 20
-18543.04486063138
 30
0.0
 10
66858.74626988516
 20
-18543.04486063138
 30
0.0
 10
66858.25490355826
 20
-18542.99671168808
 30
0.0
 10
66857.53749417656
 20
-18542.81010179428
 30
0.0
 10
66857.00246634957
 20
-18542.41366080358
 30
0.0
 10
66857.00246634937
 20
-18542.12121835368
 30
0.0
  0
SPLINE
  5
F1
330
2
100
AcDbEntity
  8
0
  6
Continuous
 62
     7
100
AcDbSpline
210
0.0
220
0.0
230
1.0
 70
     8
 71
     3
 72
    12
 73
     8
 74
     0
 42
0.0000000001
 43
0.0000000001
 40
0.0
 40
0.0
 40
0.0
 40
0.0
 40
0.3797293665
 40
0.6338804229
 40
0.7320789962000001
 40
0.8218674045
 40
1.0
 40
1.0
 40
1.0
 40
1.0
 10
67250.96628219286
 20
-18582.64008219938
 30
0.0
 10
67249.77388571217
 20
-18583.15964386988
 30
0.0
 10
67247.71375456056
 20
-18583.88904054578
 30
0.0
 10
67245.11697766656
 20
-18583.95279094738
 30
0.0
 10
67243.70351532237
 20
-18583.35146541058
 30
0.0
 10
67242.72583976036
 20
-18582.54214718418
 30
0.0
 10
67242.27628710857
 20
-18581.70230303268
 30
0.0
 10
67242.07013352506
 20
-18581.12803330888
 30
0.0
  0
SPLINE
  5
F2
330
2
100
AcDbEntity
  8
0
  6
Continuous
 62
     7
100
AcDbSpline
210
0.0
220
0.0
230
1.0
 70
     8
 71
     3
 72
     9
 73
     5
 74
     0
 42
0.0000000001
 43
0.0000000001
 40
0.0
 40
0.0
 40
0.0
 40
0.0
 40
0.5077275401
 40
1.0
 40
1.0
 40
1.0
 40
1.0
 10
66859.00246634937
 20
-18576.57264457898
 30
0.0
 10
66858.49536033707
 20
-18576.57264457898
 30
0.0
 10
66857.45059377056
 20
-18576.18464413968
 30
0.0
 10
66857.00246634937
 20
-18575.14989157558
 30
0.0
 10
66857.00246634937
 20
-18574.65822172438
 30
0.0
  0
SPLINE
  5
F3
330
2
100
AcDbEntity
  8
0
  6
Continuous
 62
     7
100
AcDbSpline
210
0.0
220
0.0
230
1.0
 70
     8
 71
     3
 72
    10
 73
     6
 74
     0
 42
0.0000000001
 43
0.0000000001
 40
0.0
 40
0.0
 40
0.0
 40
0.0
 40
0.2008728665
 40
0.4442733004
 40
1.0
 40
1.0
 40
1.0
 40
1.0
 10
67209.56051117126
 20
-18580.38123440728
 30
0.0
 10
67209.45778652526
 20
-18581.04870152618
 30
0.0
 10
67208.68512798126
 20
-18582.40802377698
 30
0.0
 10
67206.33212287136
 20
-18584.79649602318
 30
0.0
 10
67204.11982296247
 20
-18586.36524674558
 30
0.0
 10
67202.55312627236
 20
-18587.38314287968
 30
0.0
  0
SPLINE
  5
F4
330
2
100
AcDbEntity
  8
0
  6
Continuous
 62
     7
100
AcDbSpline
210
0.0
220
0.0
230
1.0
 70
     8
 71
     3
 72
     9
 73
     5
 74
     0
 42
0.0000000001
 43
0.0000000001
 40
0.0
 40
0.0
 40
0.0
 40
0.0
 40
0.5056154467000001
 40
1.0
 40
1.0
 40
1.0
 40
1.0
 10
66859.00246634937
 20
-18638.21453769688
 30
0.0
 10
66858.61672972607
 20
-18638.21453769688
 30
0.0
 10
66857.83658379897
 20
-18637.99614620868
 30
0.0
 10
66857.30430383966
 20
-18637.37896527548
 30
0.0
 10
66857.15470728426
 20
-18637.03273275118
 30
0.0
  0
SPLINE
  5
F5
330
2
100
AcDbEntity
  8
0
  6
Continuous
 62
     7
100
AcDbSpline
210
0.0
220
0.0
230
1.0
 70
     8
 71
     3
 72
     8
 73
     4
 74
     0
 42
0.0000000001
 43
0.0000000001
 40
0.0
 40
0.0
 40
0.0
 40
0.0
 40
1.0
 40
1.0
 40
1.0
 40
1.0
 10
66857.15470728426
 20
-18637.03273275118
 30
0.0
 10
66857.05577852047
 20
-18636.80376788248
 30
0.0
 10
66857.00246634937
 20
-18636.54953779908
 30
0.0
 10
66857.00246634937
 20
-18636.30011484228
 30
0.0
  0
SPLINE
  5
F6
330
2
100
AcDbEntity
  8
0
  6
Continuous
 62
     7
100
AcDbSpline
210
0.0
220
0.0
230
1.0
 70
     8
 71
     3
 72
     9
 73
     5
 74
     0
 42
0.0000000001
 43
0.0000000001
 40
0.0
 40
0.0
 40
0.0
 40
0.0
 40
0.7368678795000001
 40
1.0
 40
1.0
 40
1.0
 40
1.0
 10
66857.15470728436
 20
-18537.41557674698
 30
0.0
 10
66857.11669205917
 20
-18537.41236888908
 30
0.0
 10
66857.08146802457
 20
-18537.40063655088
 30
0.0
 10
66857.00246634937
 20
-18537.40248913558
 30
0.0
 10
66857.00246634937
 20
-18537.38886582858
 30
0.0
  0
SPLINE
  5
F7
330
2
100
AcDbEntity
  8
0
  6
Continuous
 62
     7
100
AcDbSpline
210
0.0
220
0.0
230
1.0
 70
     8
 71
     3
 72
    11
 73
     7
 74
     0
 42
0.0000000001
 43
0.0000000001
 40
0.0
 40
0.0
 40
0.0
 40
0.0
 40
0.2503325637
 40
0.5005720022000001
 40
0.7505135193000001
 40
1.0
 40
1.0
 40
1.0
 40
1.0
 10
67071.31122263186
 20
-18582.53627412228
 30
0.0
 10
67081.31718878297
 20
-18582.85100945208
 30
0.0
 10
67101.33615334695
 20
-18583.13839519518
 30
0.0
 10
67131.35089474537
 20
-18582.92611482468
 30
0.0
 10
67161.32372553357
 20
-18583.38616005228
 30
0.0
 10
67181.30798388168
 20
-18583.40486307488
 30
0.0
 10
67191.27516870937
 20
-18582.96062811308
 30
0.0
  0
SPLINE
  5
F8
330
2
100
AcDbEntity
  8
0
  6
Continuous
 62
     7
100
AcDbSpline
210
0.0
220
0.0
230
1.0
 70
     8
 71
     3
 72
     8
 73
     4
 74
     0
 42
0.0000000001
 43
0.0000000001
 40
0.0
 40
0.0
 40
0.0
 40
0.0
 40
1.0
 40
1.0
 40
1.0
 40
1.0
 10
67047.20199702517
 20
-18581.12022261188
 30
0.0
 10
67055.21559634846
 20
-18581.88761315508
 30
0.0
 10
67063.26495377626
 20
-18582.28285773898
 30
0.0
 10
67071.31122263186
 20
-18582.53627412228
 30
0.0
  0
SPLINE
  5
F9
330
2
100
AcDbEntity
  8
0
  6
Continuous
 62
     7
100
AcDbSpline
210
0.0
220
0.0
230
1.0
 70
     8
 71
     3
 72
     8
 73
     4
 74
     0
 42
0.0000000001
 43
0.0000000001
 40
0.0
 40
0.0
 40
0.0
 40
0.0
 40
1.0
 40
1.0
 40
1.0
 40
1.0
 10
67021.65482162137
 20
-18576.34205429448
 30
0.0
 10
67026.41819396458
 20
-18577.94791990498
 30
0.0
 10
67031.35161518826
 20
-18579.10020542628
 30
0.0
 10
67036.32330443876
 20
-18579.84238224838
 30
0.0
  0
SPLINE
  5
FA
330
2
100
AcDbEntity
  8
0
  6
Continuous
 62
     7
100
AcDbSpline
210
0.0
220
0.0
230
1.0
 70
     8
 71
     3
 72
     9
 73
     5
 74
     0
 42
0.0000000001
 43
0.0000000001
 40
0.0
 40
0.0
 40
0.0
 40
0.0
 40
0.7495751756999999
 40
1.0
 40
1.0
 40
1.0
 40
1.0
 10
67005.25974972328
 20
-18568.80894666798
 30
0.0
 10
67009.13450692306
 20
-18571.12324162508
 30
0.0
 10
67014.56203605226
 20
-18573.81362765938
 30
0.0
 10
67020.22409068007
 20
-18575.86604697138
 30
0.0
 10
67021.65482162137
 20
-18576.34205429448
 30
0.0
  0
SPLINE
  5
FB
330
2
100
AcDbEntity
  8
0
  6
Continuous
 62
     7
100
AcDbSpline
210
0.0
220
0.0
230
1.0
 70
     8
 71
     3
 72
     9
 73
     5
 74
     0
 42
0.0000000001
 43
0.0000000001
 40
0.0
 40
0.0
 40
0.0
 40
0.0
 40
0.4176277477000001
 40
1.0
 40
1.0
 40
1.0
 40
1.0
 10
67253.10413748136
 20
-18582.98701603648
 30
0.0
 10
67252.94557414287
 20
-18582.89456086148
 30
0.0
 10
67252.67066936646
 20
-18582.51959561228
 30
0.0
 10
67252.52709196106
 20
-18582.10790155838
 30
0.0
 10
67252.44611130516
 20
-18581.86509479478
 30
0.0
  0
SPLINE
  5
FC
330
2
100
AcDbEntity
  8
0
  6
Continuous
 62
     7
100
AcDbSpline
210
0.0
220
0.0
230
1.0
 70
     8
 71
     3
 72
     8
 73
     4
 74
     0
 42
0.0000000001
 43
0.0000000001
 40
0.0
 40
0.0
 40
0.0
 40
0.0
 40
1.0
 40
1.0
 40
1.0
 40
1.0
 10
67023.75294241216
 20
-18570.78206026548
 30
0.0
 10
67028.13113992937
 20
-18572.36001085878
 30
0.0
 10
67032.68166529997
 20
-18573.50034608838
 30
0.0
 10
67037.27069835585
 20
-18574.27450187778
 30
0.0
  0
SPLINE
  5
FD
330
2
100
AcDbEntity
  8
0
  6
Continuous
 62
     7
100
AcDbSpline
210
0.0
220
0.0
230
1.0
 70
     8
 71
     3
 72
     8
 73
     4
 74
     0
 42
0.0000000001
 43
0.0000000001
 40
0.0
 40
0.0
 40
0.0
 40
0.0
 40
1.0
 40
1.0
 40
1.0
 40
1.0
 10
66874.85565444877
 20
-18640.28734214548
 30
0.0
 10
66874.72175260726
 20
-18640.32894416888
 30
0.0
 10
66874.58017335237
 20
-18640.35155572918
 30
0.0
 10
66874.43995775227
 20
-18640.35168606478
 30
0.0
  0
SPLINE
  5
FE
330
2
100
AcDbEntity
  8
0
  6
Continuous
 62
     7
100
AcDbSpline
210
0.0
220
0.0
230
1.0
 70
     8
 71
     3
 72
     8
 73
     4
 74
     0
 42
0.0000000001
 43
0.0000000001
 40
0.0
 40
0.0
 40
0.0
 40
0.0
 40
1.0
 40
1.0
 40
1.0
 40
1.0
 10
67047.83247856746
 20
-18575.65516846258
 30
0.0
 10
67055.71371901656
 20
-18576.49590548468
 30
0.0
 10
67063.63910694856
 20
-18576.92475941388
 30
0.0
 10
67071.56047519947
 20
-18577.19441621728
 30
0.0
  0
SPLINE
  5
FF
330
2
100
AcDbEntity
  8
0
  6
Continuous
 62
     7
100
AcDbSpline
210
0.0
220
0.0
230
1.0
 70
     8
 71
     3
 72
     9
 73
     5
 74
     0
 42
0.0000000001
 43
0.0000000001
 40
0.0
 40
0.0
 40
0.0
 40
0.0
 40
0.5057288219000001
 40
1.0
 40
1.0
 40
1.0
 40
1.0
 10
67191.36266711287
 20
-18576.77212427088
 30
0.0
 10
67193.13610212457
 20
-18576.65922745458
 30
0.0
 10
67196.64731868596
 20
-18576.50869146238
 30
0.0
 10
67200.16687400776
 20
-18576.58155476438
 30
0.0
 10
67201.89736593557
 20
-18576.72903627598
 30
0.0
  0
SPLINE
  5
100
330
2
100
AcDbEntity
  8
0
  6
Continuous
 62
     7
100
AcDbSpline
210
0.0
220
0.0
230
1.0
 70
     8
 71
     3
 72
    11
 73
     7
 74
     0
 42
0.0000000001
 43
0.0000000001
 40
0.0
 40
0.0
 40
0.0
 40
0.0
 40
0.2501996312
 40
0.5003583672000001
 40
0.7503058817000001
 40
1.0
 40
1.0
 40
1.0
 40
1.0
 10
67071.56047756567
 20
-18577.19442518588
 30
0.0
 10
67081.54742090366
 20
-18577.53361381708
 30
0.0
 10
67101.53369294296
 20
-18577.81009904158
 30
0.0
 10
67131.49997114785
 20
-18577.43303171208
 30
0.0
 10
67161.44083326986
 20
-18577.65707251388
 30
0.0
 10
67181.41027746137
 20
-18577.40531932978
 30
0.0
 10
67191.36266711287
 20
-18576.77212427088
 30
0.0
  0
SPLINE
  5
101
330
2
100
AcDbEntity
  8
0
  6
Continuous
 62
     7
100
AcDbSpline
210
0.0
220
0.0
230
1.0
 70
     8
 71
     3
 72
    10
 73
     6
 74
     0
 42
0.0000000001
 43
0.0000000001
 40
0.0
 40
0.0
 40
0.0
 40
0.0
 40
0.5673688269000001
 40
0.8087503515999999
 40
1.0
 40
1.0
 40
1.0
 40
1.0
 10
67201.89759740817
 20
-18576.72902227648
 30
0.0
 10
67203.39340731017
 20
-18576.85958369788
 30
0.0
 10
67205.53780700406
 20
-18577.12739872878
 30
0.0
 10
67208.04813911366
 20
-18577.96722745678
 30
0.0
 10
67209.01560453317
 20
-18578.68407867448
 30
0.0
 10
67209.28628840318
 20
-18579.11174090098
 30
0.0
  0
SPLINE
  5
102
330
2
100
AcDbEntity
  8
0
  6
Continuous
 62
     7
100
AcDbSpline
210
0.0
220
0.0
230
1.0
 70
     8
 71
     3
 72
     9
 73
     5
 74
     0
 42
0.0000000001
 43
0.0000000001
 40
0.0
 40
0.0
 40
0.0
 40
0.0
 40
0.4973592321
 40
1.0
 40
1.0
 40
1.0
 40
1.0
 10
66869.80624027537
 20
-18634.58874119028
 30
0.0
 10
66869.50394828367
 20
-18635.57974184988
 30
0.0
 10
66868.21759430948
 20
-18637.41017938678
 30
0.0
 10
66866.11971983607
 20
-18638.16733029458
 30
0.0
 10
66865.07369957785
 20
-18638.21448922998
 30
0.0
  0
SPLINE
  5
103
330
2
100
AcDbEntity
  8
0
  6
Continuous
 62
     7
100
AcDbSpline
210
0.0
220
0.0
230
1.0
 70
     8
 71
     3
 72
     9
 73
     5
 74
     0
 42
0.0000000001
 43
0.0000000001
 40
0.0
 40
0.0
 40
0.0
 40
0.0
 40
0.7439875548
 40
1.0
 40
1.0
 40
1.0
 40
1.0
 10
67209.28659493656
 20
-18579.11124185178
 30
0.0
 10
67209.45820086807
 20
-18579.38672240038
 30
0.0
 10
67209.59242147857
 20
-18579.83309290338
 30
0.0
 10
67209.55402159725
 20
-18580.26886966228
 30
0.0
 10
67209.53562698376
 20
-18580.37902771158
 30
0.0
  0
SPLINE
  5
104
330
2
100
AcDbEntity
  8
0
  6
Continuous
 62
     7
100
AcDbSpline
210
0.0
220
0.0
230
1.0
 70
     8
 71
     3
 72
     9
 73
     5
 74
     0
 42
0.0000000001
 43
0.0000000001
 40
0.0
 40
0.0
 40
0.0
 40
0.0
 40
0.2597265024
 40
1.0
 40
1.0
 40
1.0
 40
1.0
 10
67051.54158469537
 20
-18656.75002055428
 30
0.0
 10
67051.74844448446
 20
-18656.75350440608
 30
0.0
 10
67052.54478041936
 20
-18656.77235492398
 30
0.0
 10
67053.34075729866
 20
-18656.81144385158
 30
0.0
 10
67053.92874973297
 20
-18656.85597373648
 30
0.0
  0
SPLINE
  5
105
330
2
100
AcDbEntity
  8
0
  6
Continuous
 62
     7
100
AcDbSpline
210
0.0
220
0.0
230
1.0
 70
     8
 71
     3
 72
    11
 73
     7
 74
     0
 42
0.0000000001
 43
0.0000000001
 40
0.0
 40
0.0
 40
0.0
 40
0.0
 40
0.2493318779
 40
0.4990021378
 40
0.7493125992000001
 40
1.0
 40
1.0
 40
1.0
 40
1.0
 10
66996.73273492037
 20
-18637.23671808838
 30
0.0
 10
66999.89059914575
 20
-18640.95488861678
 30
0.0
 10
67007.21294400896
 20
-18647.64716670658
 30
0.0
 10
67020.72251241337
 20
-18653.88897200238
 30
0.0
 10
67035.31044251667
 20
-18656.31869883788
 30
0.0
 10
67045.11112394897
 20
-18656.64511126488
 30
0.0
 10
67050.01516177147
 20
-18656.72735708868
 30
0.0
  0
SPLINE
  5
106
330
2
100
AcDbEntity
  8
0
  6
Continuous
 62
     7
100
AcDbSpline
210
0.0
220
0.0
230
1.0
 70
     8
 71
     3
 72
     8
 73
     4
 74
     0
 42
0.0000000001
 43
0.0000000001
 40
0.0
 40
0.0
 40
0.0
 40
0.0
 40
1.0
 40
1.0
 40
1.0
 40
1.0
 10
67238.09100874296
 20
-18543.95620813188
 30
0.0
 10
67237.91038416976
 20
-18543.57446746758
 30
0.0
 10
67237.72938901497
 20
-18543.19290204618
 30
0.0
 10
67237.54813449938
 20
-18542.81146008228
 30
0.0
  0
SPLINE
  5
107
330
2
100
AcDbEntity
  8
0
  6
Continuous
 62
     7
100
AcDbSpline
210
0.0
220
0.0
230
1.0
 70
     8
 71
     3
 72
     9
 73
     5
 74
     0
 42
0.0000000001
 43
0.0000000001
 40
0.0
 40
0.0
 40
0.0
 40
0.0
 40
0.4238278946000001
 40
1.0
 40
1.0
 40
1.0
 40
1.0
 10
67249.94159354706
 20
-18572.91053173998
 30
0.0
 10
67248.53885462126
 20
-18568.71698283588
 30
0.0
 10
67244.91600470897
 20
-18558.92501532368
 30
0.0
 10
67240.65794155527
 20
-18549.39199011528
 30
0.0
 10
67238.09100874296
 20
-18543.95620813188
 30
0.0
  0
SPLINE
  5
108
330
2
100
AcDbEntity
  8
0
  6
Continuous
 62
     7
100
AcDbSpline
210
0.0
220
0.0
230
1.0
 70
     8
 71
     3
 72
    22
 73
    18
 74
     0
 42
0.0000000001
 43
0.0000000001
 40
0.0
 40
0.0
 40
0.0
 40
0.0
 40
0.212389251
 40
0.4116206113000001
 40
0.5907420506000002
 40
0.7430424301000001
 40
0.8070529290999999
 40
0.8619245784
 40
0.9069764062999999
 40
0.9416232839
 40
0.9654709351000001
 40
0.9733676367000001
 40
0.9787571979
 40
0.9823339598
 40
0.9860693786
 40
0.9917597134999999
 40
1.0
 40
1.0
 40
1.0
 40
1.0
 10
67294.40109677747
 20
-18559.65525719908
 30
0.0
 10
67293.89507977265
 20
-18561.00318451548
 30
0.0
 10
67292.90026458548
 20
-18563.61025907568
 30
0.0
 10
67291.42755566576
 20
-18567.33437128878
 30
0.0
 10
67290.05634208326
 20
-18570.66020352348
 30
0.0
 10
67288.98842915948
 20
-18573.11920281088
 30
0.0
 10
67288.21756885516
 20
-18574.78828345958
 30
0.0
 10
67287.73118304028
 20
-18575.78743076458
 30
0.0
 10
67287.30966099838
 20
-18576.59711032448
 30
0.0
 10
67286.95669351727
 20
-18577.20314809788
 30
0.0
 10
67286.70441784227
 20
-18577.57868236288
 30
0.0
 10
67286.52966790576
 20
-18577.76042864558
 30
0.0
 10
67286.43798726487
 20
-18577.83050936508
 30
0.0
 10
67286.34222170946
 20
-18577.84018068588
 30
0.0
 10
67286.28261823466
 20
-18577.76223293638
 30
0.0
 10
67286.25937720407
 20
-18577.64520588568
 30
0.0
 10
67286.25439494066
 20
-18577.55026902368
 30
0.0
 10
67286.25436240767
 20
-18577.49440846198
 30
0.0
  0
SPLINE
  5
109
330
2
100
AcDbEntity
  8
0
  6
Continuous
 62
     7
100
AcDbSpline
210
0.0
220
0.0
230
1.0
 70
     8
 71
     3
 72
     8
 73
     4
 74
     0
 42
0.0000000001
 43
0.0000000001
 40
0.0
 40
0.0
 40
0.0
 40
0.0
 40
1.0
 40
1.0
 40
1.0
 40
1.0
 10
66876.18193591558
 20
-18640.34991687528
 30
0.0
 10
66875.80501058277
 20
-18640.35040328218
 30
0.0
 10
66875.42557041877
 20
-18640.30004915108
 30
0.0
 10
66875.06014287496
 20
-18640.20766055168
 30
0.0
  0
SPLINE
  5
10A
330
2
100
AcDbEntity
  8
0
  6
Continuous
 62
     7
100
AcDbSpline
210
0.0
220
0.0
230
1.0
 70
     8
 71
     3
 72
     8
 73
     4
 74
     0
 42
0.0000000001
 43
0.0000000001
 40
0.0
 40
0.0
 40
0.0
 40
0.0
 40
1.0
 40
1.0
 40
1.0
 40
1.0
 10
66875.06014287496
 20
-18640.20766055168
 30
0.0
 10
66874.69486684056
 20
-18640.11395054998
 30
0.0
 10
66874.33981169786
 20
-18639.97368330528
 30
0.0
 10
66874.00407361286
 20
-18639.80196235708
 30
0.0
  0
SPLINE
  5
10B
330
2
100
AcDbEntity
  8
0
  6
Continuous
 62
     7
100
AcDbSpline
210
0.0
220
0.0
230
1.0
 70
     8
 71
     3
 72
     8
 73
     4
 74
     0
 42
0.0000000001
 43
0.0000000001
 40
0.0
 40
0.0
 40
0.0
 40
0.0
 40
1.0
 40
1.0
 40
1.0
 40
1.0
 10
66874.00407361286
 20
-18639.80196235708
 30
0.0
 10
66873.70394576356
 20
-18639.64845508118
 30
0.0
 10
66873.41650729236
 20
-18639.46920793478
 30
0.0
 10
66873.14042780815
 20
-18639.27576200408
 30
0.0
  0
SPLINE
  5
10C
330
2
100
AcDbEntity
  8
0
  6
Continuous
 62
     7
100
AcDbSpline
210
0.0
220
0.0
230
1.0
 70
     8
 71
     3
 72
     8
 73
     4
 74
     0
 42
0.0000000001
 43
0.0000000001
 40
0.0
 40
0.0
 40
0.0
 40
0.0
 40
1.0
 40
1.0
 40
1.0
 40
1.0
 10
66873.14042780815
 20
-18639.27576200408
 30
0.0
 10
66872.68275843567
 20
-18638.95507798798
 30
0.0
 10
66872.25258458867
 20
-18638.59239089138
 30
0.0
 10
66871.85395196126
 20
-18638.20073859538
 30
0.0
  0
SPLINE
  5
10D
330
2
100
AcDbEntity
  8
0
  6
Continuous
 62
     7
100
AcDbSpline
210
0.0
220
0.0
230
1.0
 70
     8
 71
     3
 72
     9
 73
     5
 74
     0
 42
0.0000000001
 43
0.0000000001
 40
0.0
 40
0.0
 40
0.0
 40
0.0
 40
0.3917820097
 40
1.0
 40
1.0
 40
1.0
 40
1.0
 10
67258.56773742266
 20
-18583.92571708788
 30
0.0
 10
67258.56760113107
 20
-18583.99789511018
 30
0.0
 10
67258.56921240657
 20
-18584.16370687978
 30
0.0
 10
67258.47986557896
 20
-18584.42106379728
 30
0.0
 10
67258.36781337997
 20
-18584.42115398088
 30
0.0
  0
SPLINE
  5
10E
330
2
100
AcDbEntity
  8
0
  6
Continuous
 62
     7
100
AcDbSpline
210
0.0
220
0.0
230
1.0
 70
     8
 71
     3
 72
     9
 73
     5
 74
     0
 42
0.0000000001
 43
0.0000000001
 40
0.0
 40
0.0
 40
0.0
 40
0.0
 40
0.5086964371000001
 40
1.0
 40
1.0
 40
1.0
 40
1.0
 10
66871.85395196126
 20
-18638.20073859538
 30
0.0
 10
66871.34502008366
 20
-18637.70057809258
 30
0.0
 10
66870.42853761356
 20
-18636.61913044008
 30
0.0
 10
66869.90386561578
 20
-18635.27093678748
 30
0.0
 10
66869.80618817036
 20
-18634.58872841948
 30
0.0
  0
SPLINE
  5
10F
330
2
100
AcDbEntity
  8
0
  6
Continuous
 62
     7
100
AcDbSpline
210
0.0
220
0.0
230
1.0
 70
     8
 71
     3
 72
     8
 73
     4
 74
     0
 42
0.0000000001
 43
0.0000000001
 40
0.0
 40
0.0
 40
0.0
 40
0.0
 40
1.0
 40
1.0
 40
1.0
 40
1.0
 10
66869.80618817036
 20
-18634.58872841948
 30
0.0
 10
66869.75379274436
 20
-18634.22414390708
 30
0.0
 10
66869.73420723286
 20
-18633.85136337808
 30
0.0
 10
66869.76649391587
 20
-18633.48445096708
 30
0.0
  0
SPLINE
  5
110
330
2
100
AcDbEntity
  8
0
  6
Continuous
 62
     7
100
AcDbSpline
210
0.0
220
0.0
230
1.0
 70
     8
 71
     3
 72
     9
 73
     5
 74
     0
 42
0.0000000001
 43
0.0000000001
 40
0.0
 40
0.0
 40
0.0
 40
0.0
 40
0.497918459
 40
1.0
 40
1.0
 40
1.0
 40
1.0
 10
67286.25436240767
 20
-18577.49440846198
 30
0.0
 10
67285.55922858918
 20
-18579.34559626198
 30
0.0
 10
67282.93796260667
 20
-18582.70233442248
 30
0.0
 10
67278.86874104855
 20
-18583.92571704938
 30
0.0
 10
67276.87480894718
 20
-18583.92571708788
 30
0.0
  0
SPLINE
  5
111
330
2
100
AcDbEntity
  8
0
  6
Continuous
 62
     7
100
AcDbSpline
210
0.0
220
0.0
230
1.0
 70
     8
 71
     3
 72
     9
 73
     5
 74
     0
 42
0.0000000001
 43
0.0000000001
 40
0.0
 40
0.0
 40
0.0
 40
0.0
 40
0.2350425211
 40
1.0
 40
1.0
 40
1.0
 40
1.0
 10
67252.31825582357
 20
-18581.43666614918
 30
0.0
 10
67252.16260336367
 20
-18580.91772330958
 30
0.0
 10
67251.49402562205
 20
-18578.71189621648
 30
0.0
 10
67250.84280586407
 20
-18576.49972140368
 30
0.0
 10
67250.40389211857
 20
-18574.79196132118
 30
0.0
  0
SPLINE
  5
112
330
2
100
AcDbEntity
  8
0
  6
Continuous
 62
     7
100
AcDbSpline
210
0.0
220
0.0
230
1.0
 70
     8
 71
     3
 72
     9
 73
     5
 74
     0
 42
0.0000000001
 43
0.0000000001
 40
0.0
 40
0.0
 40
0.0
 40
0.0
 40
0.2571008828
 40
1.0
 40
1.0
 40
1.0
 40
1.0
 10
67236.91965626307
 20
-18542.79226659218
 30
0.0
 10
67237.03472834447
 20
-18542.87523948698
 30
0.0
 10
67237.47002969877
 20
-18543.21442358178
 30
0.0
 10
67237.85311081488
 20
-18543.62237545148
 30
0.0
 10
67238.09100875337
 20
-18543.95620812588
 30
0.0
  0
SPLINE
  5
113
330
2
100
AcDbEntity
  8
0
  6
Continuous
 62
     7
100
AcDbSpline
210
0.0
220
0.0
230
1.0
 70
     8
 71
     3
 72
     9
 73
     5
 74
     0
 42
0.0000000001
 43
0.0000000001
 40
0.0
 40
0.0
 40
0.0
 40
0.0
 40
0.5059158705
 40
1.0
 40
1.0
 40
1.0
 40
1.0
 10
67241.87666133436
 20
-18580.59211904778
 30
0.0
 10
67243.52385075607
 20
-18579.78357654628
 30
0.0
 10
67247.27455012427
 20
-18579.02757931038
 30
0.0
 10
67250.88357238966
 20
-18580.36288154058
 30
0.0
 10
67252.31825684477
 20
-18581.43666489308
 30
0.0
  0
SPLINE
  5
114
330
2
100
AcDbEntity
  8
0
  6
Continuous
 62
     7
100
AcDbSpline
210
0.0
220
0.0
230
1.0
 70
     8
 71
     3
 72
     9
 73
     5
 74
     0
 42
0.0000000001
 43
0.0000000001
 40
0.0
 40
0.0
 40
0.0
 40
0.0
 40
0.5055593144000001
 40
1.0
 40
1.0
 40
1.0
 40
1.0
 10
67242.07013351956
 20
-18581.12803329788
 30
0.0
 10
67243.69896909877
 20
-18580.31712359038
 30
0.0
 10
67247.41247285946
 20
-18579.54139429758
 30
0.0
 10
67251.00506224227
 20
-18580.82156051578
 30
0.0
 10
67252.44616241115
 20
-18581.86553836178
 30
0.0
  0
SPLINE
  5
115
330
2
100
AcDbEntity
  8
0
  6
Continuous
 62
     7
100
AcDbSpline
210
0.0
220
0.0
230
1.0
 70
     8
 71
     3
 72
     9
 73
     5
 74
     0
 42
0.0000000001
 43
0.0000000001
 40
0.0
 40
0.0
 40
0.0
 40
0.0
 40
0.2836708767
 40
1.0
 40
1.0
 40
1.0
 40
1.0
 10
67251.22213516847
 20
-18540.65399369468
 30
0.0
 10
67250.93839008396
 20
-18540.70475609508
 30
0.0
 10
67249.93934375866
 20
-18540.89040066588
 30
0.0
 10
67248.94498175387
 20
-18541.10146997168
 30
0.0
 10
67248.23649284857
 20
-18541.26841604558
 30
0.0
  0
LINE
  5
116
330
2
100
AcDbEntity
  8
0
  6
Continuous
 62
     7
100
AcDbLine
 10
67246.03572241496
 20
-18541.84560051808
 30
0.0
 11
67245.90476909966
 21
-18541.86052336618
 31
0.0
  0
LINE
  5
117
330
2
100
AcDbEntity
  8
0
  6
Continuous
 62
     7
100
AcDbLine
 10
67245.90476909966
 20
-18541.86052336618
 30
0.0
 11
67245.65903724448
 21
-18541.88852455948
 31
0.0
  0
SPLINE
  5
118
330
2
100
AcDbEntity
  8
0
  6
Continuous
 62
     7
100
AcDbSpline
210
0.0
220
0.0
230
1.0
 70
     8
 71
     3
 72
    14
 73
    10
 74
     0
 42
0.0000000001
 43
0.0000000001
 40
0.0
 40
0.0
 40
0.0
 40
0.0
 40
0.0724632343
 40
0.14336693
 40
0.2807806285
 40
0.4139922904000001
 40
0.5429291368
 40
0.7849092692000001
 40
1.0
 40
1.0
 40
1.0
 40
1.0
 10
67051.36862367367
 20
-18667.66369383508
 30
0.0
 10
67051.37141931246
 20
-18668.07407500508
 30
0.0
 10
67051.23769796567
 20
-18668.89252301418
 30
0.0
 10
67050.51974896067
 20
-18670.32982150478
 30
0.0
 10
67049.14762173727
 20
-18671.73953340098
 30
0.0
 10
67047.28614485767
 20
-18673.03286737698
 30
0.0
 10
67044.75243859277
 20
-18674.36288903108
 30
0.0
 10
67041.61586513636
 20
-18675.48758019848
 30
0.0
 10
67039.00776932687
 20
-18675.84672323638
 30
0.0
 10
67037.79186349376
 20
-18675.77278200208
 30
0.0
  0
SPLINE
  5
119
330
2
100
AcDbEntity
  8
0
  6
Continuous
 62
     7
100
AcDbSpline
210
0.0
220
0.0
230
1.0
 70
     8
 71
     3
 72
     9
 73
     5
 74
     0
 42
0.0000000001
 43
0.0000000001
 40
0.0
 40
0.0
 40
0.0
 40
0.0
 40
0.1350883419
 40
1.0
 40
1.0
 40
1.0
 40
1.0
 10
67245.51047883736
 20
-18540.57177213058
 30
0.0
 10
67245.50189248716
 20
-18540.56618479268
 30
0.0
 10
67245.45493466288
 20
-18540.50381805748
 30
0.0
 10
67245.43663016378
 20
-18540.42871960258
 30
0.0
 10
67245.41843540227
 20
-18540.36570459878
 30
0.0
  0
LINE
  5
11A
330
2
100
AcDbEntity
  8
0
  6
Continuous
 62
     7
100
AcDbLine
 10
67249.68435755977
 20
-18540.48382953458
 30
0.0
 11
67249.32020200876
 21
-18540.50979005218
 31
0.0
  0
LINE
  5
11B
330
2
100
AcDbEntity
  8
0
  6
Continuous
 62
     7
100
AcDbLine
 10
67249.32020200876
 20
-18540.50979005218
 30
0.0
 11
67249.11896478976
 21
-18540.52407160828
 31
0.0
  0
SPLINE
  5
11C
330
2
100
AcDbEntity
  8
0
  6
Continuous
 62
     7
100
AcDbSpline
210
0.0
220
0.0
230
1.0
 70
     8
 71
     3
 72
     8
 73
     4
 74
     0
 42
0.0000000001
 43
0.0000000001
 40
0.0
 40
0.0
 40
0.0
 40
0.0
 40
1.0
 40
1.0
 40
1.0
 40
1.0
 10
67249.11896478976
 20
-18540.52407160828
 30
0.0
 10
67248.77256444687
 20
-18540.54861543298
 30
0.0
 10
67248.42614953137
 20
-18540.57295450048
 30
0.0
 10
67248.07971996616
 20
-18540.59708235358
 30
0.0
  0
SPLINE
  5
11D
330
2
100
AcDbEntity
  8
0
  6
Continuous
 62
     7
100
AcDbSpline
210
0.0
220
0.0
230
1.0
 70
     8
 71
     3
 72
    12
 73
     8
 74
     0
 42
0.0000000001
 43
0.0000000001
 40
0.0
 40
0.0
 40
0.0
 40
0.0
 40
0.1041699563
 40
0.2215033729
 40
0.4726178819
 40
0.7338504704000001
 40
1.0
 40
1.0
 40
1.0
 40
1.0
 10
67206.45884471747
 20
-18581.38846801378
 30
0.0
 10
67206.32935703447
 20
-18581.68795083198
 30
0.0
 10
67205.91164549096
 20
-18582.25667193708
 30
0.0
 10
67204.88249956487
 20
-18583.31762588938
 30
0.0
 10
67203.35153248368
 20
-18584.57144691488
 30
0.0
 10
67201.37586357677
 20
-18585.99934779248
 30
0.0
 10
67199.99748050538
 20
-18586.91101520858
 30
0.0
 10
67199.29568497836
 20
-18587.36091800588
 30
0.0
  0
SPLINE
  5
11E
330
2
100
AcDbEntity
  8
0
  6
Continuous
 62
     7
100
AcDbSpline
210
0.0
220
0.0
230
1.0
 70
     8
 71
     3
 72
     9
 73
     5
 74
     0
 42
0.0000000001
 43
0.0000000001
 40
0.0
 40
0.0
 40
0.0
 40
0.0
 40
0.4650971136
 40
1.0
 40
1.0
 40
1.0
 40
1.0
 10
67206.44072971487
 20
-18580.59917139878
 30
0.0
 10
67206.51943182377
 20
-18580.69923287828
 30
0.0
 10
67206.60543919567
 20
-18580.98502108548
 30
0.0
 10
67206.51676597536
 20
-18581.25400132368
 30
0.0
 10
67206.45884471747
 20
-18581.38846801378
 30
0.0
  0
SPLINE
  5
11F
330
2
100
AcDbEntity
  8
0
  6
Continuous
 62
     7
100
AcDbSpline
210
0.0
220
0.0
230
1.0
 70
     8
 71
     3
 72
    12
 73
     8
 74
     0
 42
0.0000000001
 43
0.0000000001
 40
0.0
 40
0.0
 40
0.0
 40
0.0
 40
0.2778693186
 40
0.5485142468000001
 40
0.8012925326999999
 40
0.9114827745999999
 40
1.0
 40
1.0
 40
1.0
 40
1.0
 10
67200.38020959098
 20
-18580.68171764818
 30
0.0
 10
67200.94412806307
 20
-18580.57612205008
 30
0.0
 10
67202.06082278126
 20
-18580.38212556688
 30
0.0
 10
67203.70019967456
 20
-18580.17404362988
 30
0.0
 10
67205.01820809147
 20
-18580.12144843258
 30
0.0
 10
67205.93782025908
 20
-18580.25664029948
 30
0.0
 10
67206.32775875556
 20
-18580.45550619128
 30
0.0
 10
67206.44072971487
 20
-18580.59917139878
 30
0.0
  0
SPLINE
  5
120
330
2
100
AcDbEntity
  8
0
  6
Continuous
 62
     7
100
AcDbSpline
210
0.0
220
0.0
230
1.0
 70
     8
 71
     3
 72
     9
 73
     5
 74
     0
 42
0.0000000001
 43
0.0000000001
 40
0.0
 40
0.0
 40
0.0
 40
0.0
 40
0.2515114296
 40
1.0
 40
1.0
 40
1.0
 40
1.0
 10
67191.27517032677
 20
-18582.96062811808
 30
0.0
 10
67192.03175234096
 20
-18582.74397354718
 30
0.0
 10
67195.04419694467
 20
-18581.89992783728
 30
0.0
 10
67198.07913859846
 20
-18581.11795535998
 30
0.0
 10
67200.38020959098
 20
-18580.68171764818
 30
0.0
  0
SPLINE
  5
121
330
2
100
AcDbEntity
  8
0
  6
Continuous
 62
     7
100
AcDbSpline
210
0.0
220
0.0
230
1.0
 70
     8
 71
     3
 72
     9
 73
     5
 74
     0
 42
0.0000000001
 43
0.0000000001
 40
0.0
 40
0.0
 40
0.0
 40
0.0
 40
0.5780291561
 40
1.0
 40
1.0
 40
1.0
 40
1.0
 10
67163.79472261196
 20
-18608.11451763898
 30
0.0
 10
67163.39323645356
 20
-18607.80798998418
 30
0.0
 10
67162.64547650516
 20
-18607.32340501488
 30
0.0
 10
67161.69419221786
 20
-18607.28100353418
 30
0.0
 10
67161.35494119476
 20
-18607.42551830788
 30
0.0
  0
SPLINE
  5
122
330
2
100
AcDbEntity
  8
0
  6
Continuous
 62
     7
100
AcDbSpline
210
0.0
220
0.0
230
1.0
 70
     8
 71
     3
 72
     9
 73
     5
 74
     0
 42
0.0000000001
 43
0.0000000001
 40
0.0
 40
0.0
 40
0.0
 40
0.0
 40
0.564278749
 40
1.0
 40
1.0
 40
1.0
 40
1.0
 10
67187.14179535047
 20
-18596.66100172568
 30
0.0
 10
67186.64529403406
 20
-18596.38492200348
 30
0.0
 10
67185.69976525888
 20
-18595.97360407708
 30
0.0
 10
67184.62224520187
 20
-18596.09234576878
 30
0.0
 10
67184.23767049378
 20
-18596.30337405908
 30
0.0
  0
SPLINE
  5
123
330
2
100
AcDbEntity
  8
0
  6
Continuous
 62
     7
100
AcDbSpline
210
0.0
220
0.0
230
1.0
 70
     8
 71
     3
 72
     9
 73
     5
 74
     0
 42
0.0000000001
 43
0.0000000001
 40
0.0
 40
0.0
 40
0.0
 40
0.0
 40
0.5527149448
 40
1.0
 40
1.0
 40
1.0
 40
1.0
 10
67202.55313064146
 20
-18587.38316002698
 30
0.0
 10
67201.98247493017
 20
-18587.14566351718
 30
0.0
 10
67200.87957081987
 20
-18586.82767726058
 30
0.0
 10
67199.71689574028
 20
-18587.09106115278
 30
0.0
 10
67199.29579461197
 20
-18587.36101498518
 30
0.0
  0
SPLINE
  5
124
330
2
100
AcDbEntity
  8
0
  6
Continuous
 62
     7
100
AcDbSpline
210
0.0
220
0.0
230
1.0
 70
     8
 71
     3
 72
     9
 73
     5
 74
     0
 42
0.0000000001
 43
0.0000000001
 40
0.0
 40
0.0
 40
0.0
 40
0.0
 40
0.2536938421
 40
1.0
 40
1.0
 40
1.0
 40
1.0
 10
67209.53819816017
 20
-18580.44125977058
 30
0.0
 10
67209.26834071037
 20
-18580.48262907498
 30
0.0
 10
67208.21091170536
 20
-18580.68365554788
 30
0.0
 10
67207.18186561397
 20
-18581.03885555408
 30
0.0
 10
67206.45877736466
 20
-18581.38837039488
 30
0.0
  0
SPLINE
  5
125
330
2
100
AcDbEntity
  8
0
  6
Continuous
 62
     7
100
AcDbSpline
210
0.0
220
0.0
230
1.0
 70
     8
 71
     3
 72
     8
 73
     4
 74
     0
 42
0.0000000001
 43
0.0000000001
 40
0.0
 40
0.0
 40
0.0
 40
0.0
 40
1.0
 40
1.0
 40
1.0
 40
1.0
 10
67209.28810531677
 20
-18579.11503402868
 30
0.0
 10
67208.27975952378
 20
-18579.47394599678
 30
0.0
 10
67207.31403632468
 20
-18579.98037046258
 30
0.0
 10
67206.44072985626
 20
-18580.59917160308
 30
0.0
  0
SPLINE
  5
126
330
2
100
AcDbEntity
  8
0
  6
Continuous
 62
     7
100
AcDbSpline
210
0.0
220
0.0
230
1.0
 70
     8
 71
     3
 72
     9
 73
     5
 74
     0
 42
0.0000000001
 43
0.0000000001
 40
0.0
 40
0.0
 40
0.0
 40
0.0
 40
0.2174847851
 40
1.0
 40
1.0
 40
1.0
 40
1.0
 10
67201.90153488545
 20
-18576.72941223908
 30
0.0
 10
67201.74558531477
 20
-18576.99454097978
 30
0.0
 10
67201.09442058296
 20
-18578.25222080488
 30
0.0
 10
67200.65456317397
 20
-18579.60954275528
 30
0.0
 10
67200.38021538858
 20
-18580.68172648368
 30
0.0
  0
SPLINE
  5
127
330
2
100
AcDbEntity
  8
0
  6
Continuous
 62
     7
100
AcDbSpline
210
0.0
220
0.0
230
1.0
 70
     8
 71
     3
 72
     9
 73
     5
 74
     0
 42
0.0000000001
 43
0.0000000001
 40
0.0
 40
0.0
 40
0.0
 40
0.0
 40
0.4435032658
 40
1.0
 40
1.0
 40
1.0
 40
1.0
 10
67191.36266698536
 20
-18576.77212318858
 30
0.0
 10
67191.28906293857
 20
-18577.68440365948
 30
0.0
 10
67191.22355888557
 20
-18579.74886822458
 30
0.0
 10
67191.24408625858
 20
-18581.81262273698
 30
0.0
 10
67191.27517040076
 20
-18582.96062823978
 30
0.0
  0
SPLINE
  5
128
330
2
100
AcDbEntity
  8
0
  6
Continuous
 62
     7
100
AcDbSpline
210
0.0
220
0.0
230
1.0
 70
     8
 71
     3
 72
     9
 73
     5
 74
     0
 42
0.0000000001
 43
0.0000000001
 40
0.0
 40
0.0
 40
0.0
 40
0.0
 40
0.4946020133
 40
1.0
 40
1.0
 40
1.0
 40
1.0
 10
67161.93782473187
 20
-18608.88218001998
 30
0.0
 10
67158.25955669687
 20
-18610.36095996548
 30
0.0
 10
67150.63693550667
 20
-18612.88713297468
 30
0.0
 10
67142.86861210727
 20
-18614.87417581538
 30
0.0
 10
67138.92010305758
 20
-18615.77933582788
 30
0.0
  0
LINE
  5
129
330
2
100
AcDbEntity
  8
0
  6
Continuous
 62
     7
100
AcDbLine
 10
67071.99128950357
 20
-18652.32363161248
 30
0.0
 11
67095.24773665396
 21
-18652.33643405278
 31
0.0
  0
SPLINE
  5
12A
330
2
100
AcDbEntity
  8
0
  6
Continuous
 62
     7
100
AcDbSpline
210
0.0
220
0.0
230
1.0
 70
     8
 71
     3
 72
     9
 73
     5
 74
     0
 42
0.0000000001
 43
0.0000000001
 40
0.0
 40
0.0
 40
0.0
 40
0.0
 40
0.2485141832
 40
1.0
 40
1.0
 40
1.0
 40
1.0
 10
67065.10586099757
 20
-18652.31544165108
 30
0.0
 10
67065.67623645576
 20
-18652.31619165058
 30
0.0
 10
67067.97137902826
 20
-18652.31913614098
 30
0.0
 10
67070.26652192007
 20
-18652.32184283318
 30
0.0
 10
67071.99128950346
 20
-18652.32363161248
 30
0.0
  0
LINE
  5
12B
330
2
100
AcDbEntity
  8
0
  6
Continuous
 62
     7
100
AcDbLine
 10
65825.38745612596
 20
-18493.97611457038
 30
0.0
 11
65826.90590024014
 21
-18537.45866482198
 31
0.0
  0
LINE
  5
12C
330
2
100
AcDbEntity
  8
06___PRT_ALL_SURFS
  6
Continuous
 62
     7
100
AcDbLine
 10
65899.90156067876
 20
-18581.60284836998
 30
0.0
 11
65908.80388670375
 21
-18632.09044810798
 31
0.0
  0
LINE
  5
12D
330
2
100
AcDbEntity
  8
0
  6
Continuous
 62
     7
100
AcDbLine
 10
65899.90289695756
 20
-18581.60427947588
 30
0.0
 11
65908.80497063405
 21
-18632.09044807458
 31
0.0
  0
LINE
  5
12E
330
2
100
AcDbEntity
  8
0
  6
Continuous
 62
     7
100
AcDbLine
 10
65899.54015541664
 20
-18581.21412369718
 30
0.0
 11
65899.53164462045
 21
-18581.20602105868
 31
0.0
  0
LINE
  5
12F
330
2
100
AcDbEntity
  8
06___PRT_ALL_SURFS
  6
Continuous
 62
     7
100
AcDbLine
 10
65897.19603617645
 20
-18578.94676339458
 30
0.0
 11
65899.51682707876
 21
-18581.19180368288
 31
0.0
  0
LWPOLYLINE
  5
130
330
2
100
AcDbEntity
  8
06___PRT_ALL_SURFS
  6
Continuous
 62
     7
100
AcDbPolyline
 90
        4
 70
     0
 43
0.0
 10
65861.11303033836
 20
-18540.35396633188
 10
65872.00813880545
 20
-18552.47295305628
 10
65885.92857011435
 20
-18567.52348698488
 10
65897.19623542836
 20
-18578.94452014468
  0
LINE
  5
131
330
2
100
AcDbEntity
  8
06___PRT_ALL_SURFS
  6
Continuous
 62
     7
100
AcDbLine
 10
65897.19623542836
 20
-18578.94452014468
 30
0.0
 11
65897.19725163964
 21
-18578.94547050038
 31
0.0
  0
LINE
  5
132
330
2
100
AcDbEntity
  8
06___PRT_ALL_SURFS
  6
Continuous
 62
     7
100
AcDbLine
 10
65897.23116651864
 20
-18578.92166150888
 30
0.0
 11
65897.19623542836
 21
-18578.94452014468
 31
0.0
  0
LINE
  5
133
330
2
100
AcDbEntity
  8
0
  6
Continuous
 62
     7
100
AcDbLine
 10
65899.74553955716
 20
-18581.36640960628
 30
0.0
 11
65899.54015541664
 21
-18581.21412369718
 31
0.0
  0
LINE
  5
134
330
2
100
AcDbEntity
  8
0
  6
Continuous
 62
     7
100
AcDbLine
 10
66087.55150141276
 20
-18656.88462241678
 30
0.0
 11
66090.26096792225
 21
-18687.85396633188
 31
0.0
  0
LWPOLYLINE
  5
135
330
2
100
AcDbEntity
  8
06___PRT_ALL_SURFS
  6
Continuous
 62
     7
100
AcDbPolyline
 90
       12
 70
     0
 43
0.0
 10
65955.09762473954
 20
-18623.15711993828
 10
65961.87562183255
 20
-18626.68856833548
 10
65972.90674476416
 20
-18631.80965856768
 10
65984.52976933155
 20
-18636.42904498048
 10
65996.70326497125
 20
-18640.48748410988
 10
66009.41623514806
 20
-18643.96102543478
 10
66022.24028605835
 20
-18646.75444410278
 10
66034.67417242515
 20
-18648.84811315468
 10
66046.23406649674
 20
-18650.30070795338
 10
66056.70754552406
 20
-18651.24166440898
 10
66066.72832668346
 20
-18651.85115251988
 10
66076.06600079575
 20
-18652.19625104688
  0
LINE
  5
136
330
2
100
AcDbEntity
  8
0
  6
Continuous
 62
     7
100
AcDbLine
 10
66160.26096792225
 20
-18687.85396633188
 30
0.0
 11
66090.26096792225
 21
-18687.85396633188
 31
0.0
  0
LINE
  5
137
330
2
100
AcDbEntity
  8
0
  6
Continuous
 62
     7
100
AcDbLine
 10
66162.97043443085
 20
-18656.88462242548
 30
0.0
 11
66160.26096792225
 21
-18687.85396633188
 31
0.0
  0
LWPOLYLINE
  5
138
330
2
100
AcDbEntity
  8
0
  6
Continuous
 62
     7
100
AcDbPolyline
 90
        4
 70
     0
 43
0.0
 10
66162.97042830466
 20
-18656.88462050338
 10
66163.00195816604
 20
-18656.61116970758
 10
66163.17245249395
 20
-18655.85015041828
 10
66163.45125863255
 20
-18655.14125307548
  0
LINE
  5
139
330
2
100
AcDbEntity
  8
0
  6
Continuous
 62
     7
100
AcDbLine
 10
66167.88660408575
 20
-18652.32081120038
 30
0.0
 11
66167.74703128324
 21
-18652.32416557018
 31
0.0
  0
LWPOLYLINE
  5
13A
330
2
100
AcDbEntity
  8
06___PRT_ALL_SURFS
  6
Continuous
 62
     7
100
AcDbPolyline
 90
       13
 70
     0
 43
0.0
 10
66167.74839828495
 20
-18652.32414955728
 10
66174.55763636276
 20
-18652.19355679058
 10
66184.01903940485
 20
-18651.84028256938
 10
66194.15188898705
 20
-18651.21641930548
 10
66204.77491057886
 20
-18650.24863706818
 10
66216.52385129134
 20
-18648.74880744068
 10
66229.14508746535
 20
-18646.58732448298
 10
66242.14854796195
 20
-18643.70349995988
 10
66254.81624020985
 20
-18640.18296223778
 10
66266.73368366246
 20
-18636.15687204808
 10
66277.98862957535
 20
-18631.64837064448
 10
66288.63069807115
 20
-18626.69635507438
 10
66295.42429404375
 20
-18623.15712921748
  0
LINE
  5
13B
330
2
100
AcDbEntity
  8
0
  6
Continuous
 62
     7
100
AcDbLine
 10
66167.74703128324
 20
-18652.32416557018
 30
0.0
 11
66167.74171555885
 21
-18652.32422665608
 31
0.0
  0
LINE
  5
13C
330
2
100
AcDbEntity
  8
0
  6
Continuous
 62
     7
100
AcDbLine
 10
66156.75792025955
 20
-18656.90289906888
 30
0.0
 11
66093.76401558455
 21
-18656.90289906888
 31
0.0
  0
LINE
  5
13D
330
2
100
AcDbEntity
  8
0
  6
Continuous
 62
     7
100
AcDbLine
 10
66082.77584883564
 20
-18652.32417634778
 30
0.0
 11
66082.77391005776
 21
-18652.32415391878
 31
0.0
  0
LINE
  5
13E
330
2
100
AcDbEntity
  8
0
  6
Continuous
 62
     7
100
AcDbLine
 10
66082.72375253825
 20
-18652.32347680718
 30
0.0
 11
66082.72128197575
 21
-18652.32343252478
 31
0.0
  0
LINE
  5
13F
330
2
100
AcDbEntity
  8
06___PRT_ALL_SURFS
  6
Continuous
 62
     7
100
AcDbLine
 10
66076.06600079575
 20
-18652.19625104688
 30
0.0
 11
66082.77351870155
 21
-18652.32414933408
 31
0.0
  0
LINE
  5
140
330
2
100
AcDbEntity
  8
0
  6
Continuous
 62
     7
100
AcDbLine
 10
66082.73006382096
 20
-18652.32364257708
 30
0.0
 11
66082.63533175826
 21
-18652.32081120038
 31
0.0
  0
LWPOLYLINE
  5
141
330
2
100
AcDbEntity
  8
0
  6
Continuous
 62
     7
100
AcDbPolyline
 90
       15
 70
     0
 43
0.0
 10
66082.73006382096
 20
-18652.32364257708
 10
66082.77990860125
 20
-18652.32528755828
 10
66082.92527321395
 20
-18652.33328706208
 10
66083.26660984266
 20
-18652.36923260148
 10
66083.72099901814
 20
-18652.45464127428
 10
66084.21512790656
 20
-18652.59866592198
 10
66084.72933544415
 20
-18652.81049939678
 10
66085.23623282605
 20
-18653.09029556868
 10
66085.71900461154
 20
-18653.43620888118
 10
66086.16971785546
 20
-18653.84970297688
 10
66086.57728532544
 20
-18654.32943915748
 10
66086.93017144895
 20
-18654.87223857558
 10
66087.21668046724
 20
-18655.47289432738
 10
66087.42527715365
 20
-18656.12397359228
 10
66087.55150472645
 20
-18656.88462123448
  0
LINE
  5
142
330
2
100
AcDbEntity
  8
0
  6
Continuous
 62
     7
100
AcDbLine
 10
65918.65196423396
 20
-18640.35396633188
 30
0.0
 11
65935.91563686235
 21
-18640.35396633188
 31
0.0
  0
LINE
  5
143
330
2
100
AcDbEntity
  8
0
  6
Continuous
 62
     7
100
AcDbLine
 10
65936.09636562025
 20
-18640.35396633188
 30
0.0
 11
65954.21711675695
 21
-18640.35396633188
 31
0.0
  0
LINE
  5
144
330
2
100
AcDbEntity
  8
0
  6
Continuous
 62
     7
100
AcDbLine
 10
66296.33540774794
 20
-18640.35396633188
 30
0.0
 11
66332.86806449745
 21
-18640.35396633188
 31
0.0
  0
LWPOLYLINE
  5
145
330
2
100
AcDbEntity
  8
0
  6
Continuous
 62
     7
100
AcDbPolyline
 90
        3
 70
     0
 43
0.0
 10
66163.45125863255
 20
-18655.14125307548
 10
66163.82276504085
 20
-18654.50006379988
 10
66164.26912443834
 20
-18653.93798580278
  0
LINE
  5
146
330
2
100
AcDbEntity
  8
0
  6
Continuous
 62
     7
100
AcDbLine
 10
66310.52515811916
 20
-18583.92571708788
 30
0.0
 11
66555.26096792225
 21
-18540.35396633188
 31
0.0
  0
LINE
  5
147
330
2
100
AcDbEntity
  8
0
  6
Continuous
 62
     7
100
AcDbLine
 10
66309.38015454696
 20
-18577.49440846198
 30
0.0
 11
66517.99229483165
 21
-18540.35396633188
 31
0.0
  0
LWPOLYLINE
  5
148
330
2
100
AcDbEntity
  8
0
  6
Continuous
 62
     7
100
AcDbPolyline
 90
        4
 70
     0
 43
0.0
 10
66164.26912443834
 20
-18653.93798580278
 10
66164.77127653194
 20
-18653.46207997358
 10
66165.30995760995
 20
-18653.07510653838
 10
66165.86662947304
 20
-18652.77580509068
  0
LINE
  5
149
330
2
100
AcDbEntity
  8
0
  6
Continuous
 62
     7
100
AcDbLine
 10
66294.88043429344
 20
-18582.80635442218
 30
0.0
 11
66294.88263946556
 21
-18582.80708287888
 31
0.0
  0
LWPOLYLINE
  5
14A
330
2
100
AcDbEntity
  8
0
  6
Continuous
 62
     7
100
AcDbPolyline
 90
        7
 70
     0
 43
0.0
 10
66165.86662947304
 20
-18652.77580509068
 10
66166.42207161075
 20
-18652.56008838588
 10
66166.95475496795
 20
-18652.42083557008
 10
66167.40669140266
 20
-18652.35034478268
 10
66167.66205659555
 20
-18652.32913571548
 10
66167.75857347935
 20
-18652.32467374208
 10
66167.79403036204
 20
-18652.32359270848
  0
LINE
  5
14B
330
2
100
AcDbEntity
  8
0
  6
Continuous
 62
     7
100
AcDbLine
 10
66620.61786312316
 20
-18540.35396633188
 30
0.0
 11
65829.90407272125
 21
-18540.35396633188
 31
0.0
  0
LINE
  5
14C
330
2
100
AcDbEntity
  8
0
  6
Continuous
 62
     7
100
AcDbLine
 10
65830.67526877464
 20
-18540.35376052428
 30
0.0
 11
65830.73004226034
 21
-18540.35413463298
 31
0.0
  0
LINE
  5
14D
330
2
100
AcDbEntity
  8
06___PRT_ALL_SURFS
  6
Continuous
 62
     7
100
AcDbLine
 10
66353.32568434884
 20
-18578.94453626098
 30
0.0
 11
66356.49378496845
 21
-18575.74165300148
 31
0.0
  0
LINE
  5
14E
330
2
100
AcDbEntity
  8
06___PRT_ALL_SURFS
  6
Continuous
 62
     7
100
AcDbLine
 10
66351.00511103925
 20
-18581.19180150128
 30
0.0
 11
66353.32589937926
 21
-18578.94676367608
 31
0.0
  0
LINE
  5
14F
330
2
100
AcDbEntity
  8
0
  6
Continuous
 62
     7
100
AcDbLine
 10
66350.99028487115
 20
-18581.20602715258
 30
0.0
 11
66350.98163190885
 21
-18581.21426406798
 31
0.0
  0
LINE
  5
150
330
2
100
AcDbEntity
  8
06___PRT_ALL_SURFS
  6
Continuous
 62
     7
100
AcDbLine
 10
66353.32568434884
 20
-18578.94453626098
 30
0.0
 11
66353.32468390175
 21
-18578.94547076568
 31
0.0
  0
LINE
  5
151
330
2
100
AcDbEntity
  8
0
  6
Continuous
 62
     7
100
AcDbLine
 10
66350.98163190885
 20
-18581.21426406798
 30
0.0
 11
66350.77639628725
 21
-18581.36640960628
 31
0.0
  0
LINE
  5
152
330
2
100
AcDbEntity
  8
0
  6
Continuous
 62
     7
100
AcDbLine
 10
66332.87543971976
 20
-18640.35170685768
 30
0.0
 11
66332.86878170376
 21
-18640.35374756998
 31
0.0
  0
LINE
  5
153
330
2
100
AcDbEntity
  8
0
  6
Continuous
 62
     7
100
AcDbLine
 10
66347.33753956125
 20
-18638.21453769678
 30
0.0
 11
66551.22995525895
 21
-18576.57264457888
 31
0.0
  0
LINE
  5
154
330
2
100
AcDbEntity
  8
06___PRT_ALL_SURFS
  6
Continuous
 62
     7
100
AcDbLine
 10
66353.29076932574
 20
-18578.92166150888
 30
0.0
 11
66353.32568434884
 21
-18578.94453626098
 31
0.0
  0
LINE
  5
155
330
2
100
AcDbEntity
  8
0
  6
Continuous
 62
     7
100
AcDbLine
 10
66280.62351153424
 20
-18541.31024553758
 30
0.0
 11
66283.85823205154
 21
-18559.65525719908
 31
0.0
  0
LINE
  5
156
330
2
100
AcDbEntity
  8
0
  6
Continuous
 62
     7
100
AcDbLine
 10
65828.88532402046
 20
-18490.35396633188
 30
0.0
 11
66621.63661182395
 21
-18490.35396633188
 31
0.0
  0
LINE
  5
157
330
2
100
AcDbEntity
  8
0
  6
Continuous
 62
     7
100
AcDbLine
 10
65830.71404603975
 20
-18490.35396633188
 30
0.0
 11
65830.71706791065
 21
-18490.35399505308
 31
0.0
  0
LINE
  5
158
330
2
100
AcDbEntity
  8
0
  6
Continuous
 62
     7
100
AcDbLine
 10
66557.20579098935
 20
-18571.61874170698
 30
0.0
 11
66573.48445223266
 21
-18540.35396633188
 31
0.0
  0
LINE
  5
159
330
2
100
AcDbEntity
  8
0
  6
Continuous
 62
     7
100
AcDbLine
 10
66625.13447971854
 20
-18493.97611457038
 30
0.0
 11
66623.61603560425
 21
-18537.45866482198
 31
0.0
  0
ARC
  5
15A
330
2
100
AcDbEntity
  8
0
  6
Continuous
 62
     7
100
AcDbCircle
 10
65828.88532402046
 20
-18493.85396633188
 30
0.0
 40
3.5
100
AcDbArc
 50
90.0
 51
182.0000000000042
  0
ARC
  5
15B
330
2
100
AcDbEntity
  8
0
  6
Continuous
 62
     7
100
AcDbCircle
 10
65829.90407272125
 20
-18537.35396633188
 30
0.0
 40
3.0
100
AcDbArc
 50
182.0000000000042
 51
270.0
  0
ARC
  5
15C
330
2
100
AcDbEntity
  8
0
  6
Continuous
 62
     7
100
AcDbCircle
 10
65954.21711675695
 20
-18490.35396633188
 30
0.0
 40
150.0
100
AcDbArc
 50
270.0
 51
282.1917906060388
  0
ARC
  5
15D
330
2
100
AcDbEntity
  8
0
  6
Continuous
 62
     7
100
AcDbCircle
 10
65877.68339030705
 20
-18613.48995702188
 30
0.0
 40
45.2484006795
100
AcDbArc
 50
25.74428388915601
 51
27.06641956292334
  0
ARC
  5
15E
330
2
100
AcDbEntity
  8
0
  6
Continuous
 62
     7
100
AcDbCircle
 10
65918.65196425395
 20
-18630.35396801778
 30
0.0
 40
10.0000000041
100
AcDbArc
 50
189.9999904676706
 51
269.9999998853576
  0
ARC
  5
15F
330
2
100
AcDbEntity
  8
0
  6
Continuous
 62
     7
100
AcDbCircle
 10
66082.56017715615
 20
-18657.36932057508
 30
0.0
 40
5.049277543999999
100
AcDbArc
 50
68.29023063192439
 51
87.59479049718457
  0
ARC
  5
160
330
2
100
AcDbEntity
  8
0
  6
Continuous
 62
     7
100
AcDbCircle
 10
66082.56991759586
 20
-18657.32084684768
 30
0.0
 40
5.0006469291
100
AcDbArc
 50
5.00447797494936
 51
68.18847340888483
  0
ARC
  5
161
330
2
100
AcDbEntity
  8
0
  6
Continuous
 62
     7
100
AcDbCircle
 10
66093.14197770404
 20
-18133.89344302658
 30
0.0
 40
518.4572501192
100
AcDbArc
 50
268.856414771088
 51
269.6119295040294
  0
ARC
  5
162
330
2
100
AcDbEntity
  8
0
  6
Continuous
 62
     7
100
AcDbCircle
 10
66167.96174781985
 20
-18657.36931771678
 30
0.0
 40
5.049272366
100
AcDbArc
 50
92.39463267661463
 51
111.7096803393976
  0
ARC
  5
163
330
2
100
AcDbEntity
  8
0
  6
Continuous
 62
     7
100
AcDbCircle
 10
66332.86806449745
 20
-18590.35396633188
 30
0.0
 40
50.0
100
AcDbArc
 50
270.0
 51
286.8214098899521
  0
ARC
  5
164
330
2
100
AcDbEntity
  8
0
  6
Continuous
 62
     7
100
AcDbCircle
 10
66323.49217457545
 20
-18601.41032325808
 30
0.0
 40
40.4065565852
100
AcDbArc
 50
292.5386898441223
 51
294.4246624400794
  0
ARC
  5
165
330
2
100
AcDbEntity
  8
0
  6
Continuous
 62
     7
100
AcDbCircle
 10
66331.38032510355
 20
-18628.87445308238
 30
0.0
 40
18.0918414783
100
AcDbArc
 50
345.2375353517291
 51
349.8472108320336
  0
ARC
  5
166
330
2
100
AcDbEntity
  8
0
  6
Continuous
 62
     7
100
AcDbCircle
 10
66331.78826865295
 20
-18625.08389376378
 30
0.0
 40
15.2691563194
100
AcDbArc
 50
274.1976655028263
 51
277.9124339335377
  0
ARC
  5
167
330
2
100
AcDbEntity
  8
0
  6
Continuous
 62
     7
100
AcDbCircle
 10
66331.87323348864
 20
-18626.24285719568
 30
0.0
 40
14.1070826342
100
AcDbArc
 50
269.9867541432381
 51
274.1980569622904
  0
ARC
  5
168
330
2
100
AcDbEntity
  8
0
  6
Continuous
 62
     7
100
AcDbCircle
 10
66331.86662352575
 20
-18630.31515704638
 30
0.0
 40
10.03478904
100
AcDbArc
 50
270.0191197400605
 51
281.6060866564264
  0
ARC
  5
169
330
2
100
AcDbEntity
  8
0
  6
Continuous
 62
     7
100
AcDbCircle
 10
66331.88106367415
 20
-18630.38555759158
 30
0.0
 40
9.9629228149
100
AcDbArc
 50
281.6061925760165
 51
350.0038145773079
  0
ARC
  5
16A
330
2
100
AcDbEntity
  8
0
  6
Continuous
 62
     7
100
AcDbCircle
 10
66296.33540774794
 20
-18490.35396633188
 30
0.0
 40
150.0
100
AcDbArc
 50
257.7906236694293
 51
270.0
  0
ARC
  5
16B
330
2
100
AcDbEntity
  8
0
  6
Continuous
 62
     7
100
AcDbCircle
 10
66304.91620985865
 20
-18552.42111902008
 30
0.0
 40
32.0
100
AcDbArc
 50
213.0973355829302
 51
280.0949314342008
  0
ARC
  5
16C
330
2
100
AcDbEntity
  8
0
  6
Continuous
 62
     7
100
AcDbCircle
 10
66305.52415121536
 20
-18555.83478469648
 30
0.0
 40
22.0001832573
100
AcDbArc
 50
190.0004780523603
 51
280.0944533817784
  0
ARC
  5
16D
330
2
100
AcDbEntity
  8
0
  6
Continuous
 62
     7
100
AcDbCircle
 10
66157.37995612915
 20
-18133.89326678018
 30
0.0
 40
518.4574263755
100
AcDbArc
 50
270.3880704538645
 51
271.1435829039167
  0
ARC
  5
16E
330
2
100
AcDbEntity
  8
0
  6
Continuous
 62
     7
100
AcDbCircle
 10
66178.72283690056
 20
-18291.91232726288
 30
0.0
 40
402.0099479096
100
AcDbArc
 50
225.5558830368568
 51
226.0559016032202
  0
ARC
  5
16F
330
2
100
AcDbEntity
  8
0
  6
Continuous
 62
     7
100
AcDbCircle
 10
66477.55655247116
 20
-18453.51535292278
 30
0.0
 40
139.1119117113
100
AcDbArc
 50
290.9414858198743
 51
291.8231052196268
  0
ARC
  5
170
330
2
100
AcDbEntity
  8
0
  6
Continuous
 62
     7
100
AcDbCircle
 10
66390.80997988695
 20
-18706.35726473698
 30
0.0
 40
84.07730073039999
100
AcDbArc
 50
119.9184813415309
 51
121.3943903987112
  0
ARC
  5
171
330
2
100
AcDbEntity
  8
0
  6
Continuous
 62
     7
100
AcDbCircle
 10
66353.41499364485
 20
-18552.89999363178
 30
0.0
 40
73.7083586084
100
AcDbArc
 50
170.1964816545661
 51
170.9533892952268
  0
ARC
  5
172
330
2
100
AcDbEntity
  8
0
  6
Continuous
 62
     7
100
AcDbCircle
 10
66372.83437664844
 20
-18613.48806189368
 30
0.0
 40
45.24382211169999
100
AcDbArc
 50
152.9333064983551
 51
154.2555817679217
  0
ARC
  5
173
330
2
100
AcDbEntity
  8
0
  6
Continuous
 62
     7
100
AcDbCircle
 10
66523.84829519756
 20
-18563.13203382918
 30
0.0
 40
20.5937790651
100
AcDbArc
 50
277.6080358433931
 51
279.5843377299184
  0
ARC
  5
174
330
2
100
AcDbEntity
  8
0
  6
Continuous
 62
     7
100
AcDbCircle
 10
66548.33606024616
 20
-18567.00053030598
 30
0.0
 40
10.0
100
AcDbArc
 50
286.8214098899521
 51
332.4953150832342
  0
ARC
  5
175
330
2
100
AcDbEntity
  8
0
  6
Continuous
 62
     7
100
AcDbCircle
 10
66621.63661182395
 20
-18493.85396633188
 30
0.0
 40
3.5
100
AcDbArc
 50
357.9999999999957
 51
90.0
  0
ARC
  5
176
330
2
100
AcDbEntity
  8
0
  6
Continuous
 62
     7
100
AcDbCircle
 10
66620.61786312316
 20
-18537.35396633188
 30
0.0
 40
3.0
100
AcDbArc
 50
270.0
 51
357.9999999999957
  0
ARC
  5
177
330
2
100
AcDbEntity
  8
0
  6
Continuous
 62
     7
100
AcDbCircle
 10
66697.16206751135
 20
-17619.26781842708
 30
0.0
 40
1244.3698065898
100
AcDbArc
 50
230.5427172133725
 51
230.7400021663778
  0
ARC
  5
178
330
2
100
AcDbEntity
  8
0
  6
Continuous
 62
     7
100
AcDbCircle
 10
83324.01064271454
 20
-75124.55642064072
 30
0.0
 40
58986.40894826789
100
AcDbArc
 50
106.5576760282352
 51
106.7251217374792
  0
LINE
  5
179
330
2
100
AcDbEntity
  8
0
  6
Continuous
 62
     7
100
AcDbLine
 10
66167.74300987936
 20
-18652.32420964098
 30
0.0
 11
66166.74553631606
 21
-18652.32973544668
 31
0.0
  0
LINE
  5
17A
330
2
100
AcDbEntity
  8
0
  6
Continuous
 62
     7
100
AcDbLine
 10
66166.74553631606
 20
-18652.32973544668
 30
0.0
 11
66160.89179755456
 21
-18652.33880087418
 31
0.0
  0
LINE
  5
17B
330
2
100
AcDbEntity
  8
0
  6
Continuous
 62
     7
100
AcDbLine
 10
66089.63013711465
 20
-18652.33880086578
 30
0.0
 11
66082.77548555995
 21
-18652.32417180378
 31
0.0
  0
SPLINE
  5
17C
330
2
100
AcDbEntity
  8
0
  6
Continuous
 62
     7
100
AcDbSpline
210
0.0
220
0.0
230
1.0
 70
     8
 71
     3
 72
     8
 73
     4
 74
     0
 42
0.0000000001
 43
0.0000000001
 40
0.0
 40
0.0
 40
0.0
 40
0.0
 40
1.0
 40
1.0
 40
1.0
 40
1.0
 10
66166.09400312544
 20
-18652.67818979458
 30
0.0
 10
66165.54645114795
 20
-18652.89699115708
 30
0.0
 10
66165.03073539736
 20
-18653.21955702088
 30
0.0
 10
66164.59378287324
 20
-18653.61548592348
 30
0.0
  0
SPLINE
  5
17D
330
2
100
AcDbEntity
  8
0
  6
Continuous
 62
     7
100
AcDbSpline
210
0.0
220
0.0
230
1.0
 70
     8
 71
     3
 72
     8
 73
     4
 74
     0
 42
0.0000000001
 43
0.0000000001
 40
0.0
 40
0.0
 40
0.0
 40
0.0
 40
1.0
 40
1.0
 40
1.0
 40
1.0
 10
66164.59378287324
 20
-18653.61548592348
 30
0.0
 10
66164.13073973186
 20
-18654.03505590608
 30
0.0
 10
66163.74106120245
 20
-18654.55163095138
 30
0.0
 10
66163.46534915286
 20
-18655.11237223478
 30
0.0
  0
SPLINE
  5
17E
330
2
100
AcDbEntity
  8
0
  6
Continuous
 62
     7
100
AcDbSpline
210
0.0
220
0.0
230
1.0
 70
     8
 71
     3
 72
     8
 73
     4
 74
     0
 42
0.0000000001
 43
0.0000000001
 40
0.0
 40
0.0
 40
0.0
 40
0.0
 40
1.0
 40
1.0
 40
1.0
 40
1.0
 10
66163.46534915286
 20
-18655.11237223478
 30
0.0
 10
66163.19471376495
 20
-18655.66278863848
 30
0.0
 10
66163.02388551095
 20
-18656.27360302098
 30
0.0
 10
66162.97042817065
 20
-18656.88462187778
 30
0.0
  0
LINE
  5
17F
330
2
100
AcDbEntity
  8
0
  6
Continuous
 62
     7
100
AcDbLine
 10
66350.61487657895
 20
-18581.60656104738
 30
0.0
 11
66350.23378906965
 21
-18583.76910932628
 31
0.0
  0
LINE
  5
180
330
2
100
AcDbEntity
  8
0
  6
Continuous
 62
     7
100
AcDbLine
 10
66350.23378906965
 20
-18583.76910932628
 30
0.0
 11
66350.17648144945
 21
-18584.09430820848
 31
0.0
  0
SPLINE
  5
181
330
2
100
AcDbEntity
  8
0
  6
Continuous
 62
     7
100
AcDbSpline
210
0.0
220
0.0
230
1.0
 70
     8
 71
     3
 72
     8
 73
     4
 74
     0
 42
0.0000000001
 43
0.0000000001
 40
0.0
 40
0.0
 40
0.0
 40
0.0
 40
1.0
 40
1.0
 40
1.0
 40
1.0
 10
66350.17648144945
 20
-18584.09430820848
 30
0.0
 10
66347.35748515345
 20
-18600.09101554798
 30
0.0
 10
66344.53795773914
 20
-18616.08762929628
 30
0.0
 10
66341.71805001566
 20
-18632.08417599398
 30
0.0
  0
LINE
  5
182
330
2
100
AcDbEntity
  8
0
  6
Continuous
 62
     7
100
AcDbLine
 10
66331.86997215905
 20
-18640.34994005848
 30
0.0
 11
66332.87543971976
 21
-18640.35170685768
 31
0.0
  0
SPLINE
  5
183
330
2
100
AcDbEntity
  8
0
  6
Continuous
 62
     7
100
AcDbSpline
210
0.0
220
0.0
230
1.0
 70
     8
 71
     3
 72
     8
 73
     4
 74
     0
 42
0.0000000001
 43
0.0000000001
 40
0.0
 40
0.0
 40
0.0
 40
0.0
 40
1.0
 40
1.0
 40
1.0
 40
1.0
 10
66333.89020213845
 20
-18640.20762980898
 30
0.0
 10
66333.56186224034
 20
-18640.30204816308
 30
0.0
 10
66333.21708563405
 20
-18640.35150467778
 30
0.0
 10
66332.87543979655
 20
-18640.35169444058
 30
0.0
  0
SPLINE
  5
184
330
2
100
AcDbEntity
  8
0
  6
Continuous
 62
     7
100
AcDbSpline
210
0.0
220
0.0
230
1.0
 70
     8
 71
     3
 72
    16
 73
    12
 74
     0
 42
0.0000000001
 43
0.0000000001
 40
0.0
 40
0.0
 40
0.0
 40
0.0
 40
0.4020002413000001
 40
0.5751601324
 40
0.7228345843000001
 40
0.8417248642
 40
0.9287646293999999
 40
0.9596734518000001
 40
0.9819547023
 40
0.9954472854999998
 40
1.0
 40
1.0
 40
1.0
 40
1.0
 10
66514.04123880535
 20
-18584.11636321958
 30
0.0
 10
66514.17911439226
 20
-18584.57041762578
 30
0.0
 10
66514.37673133204
 20
-18585.22005044498
 30
0.0
 10
66514.62640381694
 20
-18586.03570647868
 30
0.0
 10
66514.77856186596
 20
-18586.53250207118
 30
0.0
 10
66514.90249750044
 20
-18586.92961550638
 30
0.0
 10
66514.98425646946
 20
-18587.20009030038
 30
0.0
 10
66515.03629485445
 20
-18587.35297313438
 30
0.0
 10
66515.05708847195
 20
-18587.43609218448
 30
0.0
 10
66515.07815647166
 20
-18587.46659972958
 30
0.0
 10
66515.07908770436
 20
-18587.50196722728
 30
0.0
 10
66515.08422985775
 20
-18587.50040549308
 30
0.0
  0
SPLINE
  5
185
330
2
100
AcDbEntity
  8
0
  6
Continuous
 62
     7
100
AcDbSpline
210
0.0
220
0.0
230
1.0
 70
     8
 71
     3
 72
    13
 73
     9
 74
     0
 42
0.0000000001
 43
0.0000000001
 40
0.0
 40
0.0
 40
0.0
 40
0.0
 40
0.1708838011
 40
0.3804130809
 40
0.5183424926
 40
0.6699644881
 40
0.8229135826999998
 40
1.0
 40
1.0
 40
1.0
 40
1.0
 10
66350.77639628865
 20
-18581.36640960498
 30
0.0
 10
66350.49484098125
 20
-18581.54904301018
 30
0.0
 10
66349.84764850346
 20
-18581.92965660198
 30
0.0
 10
66348.88146647686
 20
-18582.26314435798
 30
0.0
 10
66348.00362536195
 20
-18582.69857873558
 30
0.0
 10
66347.20314451995
 20
-18583.04559549238
 30
0.0
 10
66346.22014192486
 20
-18583.10499040808
 30
0.0
 10
66345.62919922784
 20
-18582.74310588088
 30
0.0
 10
66345.37947943925
 20
-18582.50104603238
 30
0.0
  0
SPLINE
  5
186
330
2
100
AcDbEntity
  8
0
  6
Continuous
 62
     7
100
AcDbSpline
210
0.0
220
0.0
230
1.0
 70
     8
 71
     3
 72
    11
 73
     7
 74
     0
 42
0.0000000001
 43
0.0000000001
 40
0.0
 40
0.0
 40
0.0
 40
0.0
 40
0.0824786183
 40
0.226312345
 40
0.4936333932000001
 40
1.0
 40
1.0
 40
1.0
 40
1.0
 10
66345.37947943925
 20
-18582.50104603238
 30
0.0
 10
66345.24659093975
 20
-18582.37214697958
 30
0.0
 10
66344.73750944505
 20
-18582.18761893378
 30
0.0
 10
66343.62314891045
 20
-18582.28549217448
 30
0.0
 10
66341.64191963055
 20
-18582.88297821278
 30
0.0
 10
66340.07619687976
 20
-18583.65269472458
 30
0.0
 10
66339.08135224695
 20
-18584.20237315478
 30
0.0
  0
SPLINE
  5
187
330
2
100
AcDbEntity
  8
0
  6
Continuous
 62
     7
100
AcDbSpline
210
0.0
220
0.0
230
1.0
 70
     8
 71
     3
 72
    15
 73
    11
 74
     0
 42
0.0000000001
 43
0.0000000001
 40
0.0
 40
0.0
 40
0.0
 40
0.0
 40
0.1161366136
 40
0.2346465472
 40
0.3548347236
 40
0.4768568705
 40
0.6011159765000001
 40
0.7297472017000001
 40
0.8635556014
 40
1.0
 40
1.0
 40
1.0
 40
1.0
 10
66327.75478688045
 20
-18593.25278933978
 30
0.0
 10
66322.44951723395
 20
-18597.39682277678
 30
0.0
 10
66311.55763080035
 20
-18605.55533822688
 30
0.0
 10
66294.31074499545
 20
-18616.79587639338
 30
0.0
 10
66275.95098353904
 20
-18626.84512364368
 30
0.0
 10
66256.56301876345
 20
-18635.58270477498
 30
0.0
 10
66236.03356166725
 20
-18642.79563082528
 30
0.0
 10
66214.24895872196
 20
-18648.24045535358
 30
0.0
 10
66191.29925366305
 20
-18651.38826156398
 30
0.0
 10
66175.63478006704
 20
-18652.08763768568
 30
0.0
 10
66167.72730962155
 20
-18652.24742682867
 30
0.0
  0
SPLINE
  5
188
330
2
100
AcDbEntity
  8
0
  6
Continuous
 62
     7
100
AcDbSpline
210
0.0
220
0.0
230
1.0
 70
     8
 71
     3
 72
     9
 73
     5
 74
     0
 42
0.0000000001
 43
0.0000000001
 40
0.0
 40
0.0
 40
0.0
 40
0.0
 40
0.2567161987
 40
1.0
 40
1.0
 40
1.0
 40
1.0
 10
66327.75480579576
 20
-18593.25278588388
 30
0.0
 10
66327.67494349935
 20
-18593.33557569488
 30
0.0
 10
66327.36221859624
 20
-18593.65649495628
 30
0.0
 10
66327.05593455204
 20
-18593.98362361148
 30
0.0
 10
66326.82935102615
 20
-18594.22772559358
 30
0.0
  0
SPLINE
  5
189
330
2
100
AcDbEntity
  8
0
  6
Continuous
 62
     7
100
AcDbSpline
210
0.0
220
0.0
230
1.0
 70
     8
 71
     3
 72
     9
 73
     5
 74
     0
 42
0.0000000001
 43
0.0000000001
 40
0.0
 40
0.0
 40
0.0
 40
0.0
 40
0.5308750757000001
 40
1.0
 40
1.0
 40
1.0
 40
1.0
 10
66326.82935102615
 20
-18594.22772559358
 30
0.0
 10
66323.46652899895
 20
-18597.82873759998
 30
0.0
 10
66317.13061347055
 20
-18604.61413173948
 30
0.0
 10
66310.31903149706
 20
-18610.93617694878
 30
0.0
 10
66306.99951319364
 20
-18613.75356624368
 30
0.0
  0
SPLINE
  5
18A
330
2
100
AcDbEntity
  8
0
  6
Continuous
 62
     7
100
AcDbSpline
210
0.0
220
0.0
230
1.0
 70
     8
 71
     3
 72
    11
 73
     7
 74
     0
 42
0.0000000001
 43
0.0000000001
 40
0.0
 40
0.0
 40
0.0
 40
0.0
 40
0.3875196947
 40
0.6596853121000001
 40
0.8557269955999998
 40
1.0
 40
1.0
 40
1.0
 40
1.0
 10
66306.99951319364
 20
-18613.75356624368
 30
0.0
 10
66305.54904754995
 20
-18614.98429949518
 30
0.0
 10
66303.11240500805
 20
-18617.11714277958
 30
0.0
 10
66299.91376134506
 20
-18619.84084521598
 30
0.0
 10
66297.58719557295
 20
-18621.74400296068
 30
0.0
 10
66296.21633291055
 20
-18622.70799008608
 30
0.0
 10
66295.60104864335
 20
-18623.05867419388
 30
0.0
  0
SPLINE
  5
18B
330
2
100
AcDbEntity
  8
0
  6
Continuous
 62
     7
100
AcDbSpline
210
0.0
220
0.0
230
1.0
 70
     8
 71
     3
 72
     9
 73
     5
 74
     0
 42
0.0000000001
 43
0.0000000001
 40
0.0
 40
0.0
 40
0.0
 40
0.0
 40
0.2160101122
 40
1.0
 40
1.0
 40
1.0
 40
1.0
 10
66160.89174944124
 20
-18652.33873828478
 30
0.0
 10
66160.22237133175
 20
-18652.33954098398
 30
0.0
 10
66157.12354333775
 20
-18652.34300774888
 30
0.0
 10
66154.02471331565
 20
-18652.34427625528
 30
0.0
 10
66151.59526213505
 20
-18652.34501286698
 30
0.0
  0
SPLINE
  5
18C
330
2
100
AcDbEntity
  8
0
  6
Continuous
 62
     7
100
AcDbSpline
210
0.0
220
0.0
230
1.0
 70
     8
 71
     3
 72
     9
 73
     5
 74
     0
 42
0.0000000001
 43
0.0000000001
 40
0.0
 40
0.0
 40
0.0
 40
0.0
 40
0.2890622649
 40
1.0
 40
1.0
 40
1.0
 40
1.0
 10
66339.08135435116
 20
-18584.20237134438
 30
0.0
 10
66337.85730902065
 20
-18584.88269134528
 30
0.0
 10
66333.76521294296
 20
-18587.49568853458
 30
0.0
 10
66330.15162908525
 20
-18590.77935831778
 30
0.0
 10
66327.75479053255
 20
-18593.25279816848
 30
0.0
  0
LINE
  5
18D
330
2
100
AcDbEntity
  8
0
  6
Continuous
 62
     7
100
AcDbLine
 10
66151.59526164524
 20
-18652.34501286968
 30
0.0
 11
66125.26096792344
 21
-18652.35191814848
 31
0.0
  0
LINE
  5
18E
330
2
100
AcDbEntity
  8
0
  6
Continuous
 62
     7
100
AcDbLine
 10
66093.76401558455
 20
-18656.90289906888
 30
0.0
 11
66087.55150120894
 21
-18656.88461812508
 31
0.0
  0
SPLINE
  5
18F
330
2
100
AcDbEntity
  8
0
  6
Continuous
 62
     7
100
AcDbSpline
210
0.0
220
0.0
230
1.0
 70
     8
 71
     3
 72
     9
 73
     5
 74
     0
 42
0.0000000001
 43
0.0000000001
 40
0.0
 40
0.0
 40
0.0
 40
0.0
 40
0.5061522648
 40
1.0
 40
1.0
 40
1.0
 40
1.0
 10
66514.04123661766
 20
-18584.11635931728
 30
0.0
 10
66515.60898765885
 20
-18584.00583522998
 30
0.0
 10
66518.71187198865
 20
-18583.85834191038
 30
0.0
 10
66521.81741979934
 20
-18583.84213373128
 30
0.0
 10
66523.34991729605
 20
-18583.78850434548
 30
0.0
  0
SPLINE
  5
190
330
2
100
AcDbEntity
  8
0
  6
Continuous
 62
     7
100
AcDbSpline
210
0.0
220
0.0
230
1.0
 70
     8
 71
     3
 72
     8
 73
     4
 74
     0
 42
0.0000000001
 43
0.0000000001
 40
0.0
 40
0.0
 40
0.0
 40
0.0
 40
1.0
 40
1.0
 40
1.0
 40
1.0
 10
66523.34991729605
 20
-18583.78850434548
 30
0.0
 10
66524.42729633685
 20
-18583.75080172198
 30
0.0
 10
66525.50631068315
 20
-18583.68756862548
 30
0.0
 10
66526.57481699645
 20
-18583.54452547178
 30
0.0
  0
SPLINE
  5
191
330
2
100
AcDbEntity
  8
0
  6
Continuous
 62
     7
100
AcDbSpline
210
0.0
220
0.0
230
1.0
 70
     8
 71
     3
 72
     8
 73
     4
 74
     0
 42
0.0000000001
 43
0.0000000001
 40
0.0
 40
0.0
 40
0.0
 40
0.0
 40
1.0
 40
1.0
 40
1.0
 40
1.0
 10
66333.89021302096
 20
-18640.20768180048
 30
0.0
 10
66334.56116399786
 20
-18640.11409665468
 30
0.0
 10
66335.22690636135
 20
-18639.97591528808
 30
0.0
 10
66335.88165764225
 20
-18639.80203557918
 30
0.0
  0
SPLINE
  5
192
330
2
100
AcDbEntity
  8
0
  6
Continuous
 62
     7
100
AcDbSpline
210
0.0
220
0.0
230
1.0
 70
     8
 71
     3
 72
     8
 73
     4
 74
     0
 42
0.0000000001
 43
0.0000000001
 40
0.0
 40
0.0
 40
0.0
 40
0.0
 40
1.0
 40
1.0
 40
1.0
 40
1.0
 10
66335.88165764225
 20
-18639.80203557918
 30
0.0
 10
66336.93792218795
 20
-18639.52152758018
 30
0.0
 10
66337.97049956684
 20
-18639.14861670538
 30
0.0
 10
66338.98029899466
 20
-18638.73066378498
 30
0.0
  0
SPLINE
  5
193
330
2
100
AcDbEntity
  8
0
  6
Continuous
 62
     7
100
AcDbSpline
210
0.0
220
0.0
230
1.0
 70
     8
 71
     3
 72
     9
 73
     5
 74
     0
 42
0.0000000001
 43
0.0000000001
 40
0.0
 40
0.0
 40
0.0
 40
0.0
 40
0.2419878913
 40
1.0
 40
1.0
 40
1.0
 40
1.0
 10
66340.20013973154
 20
-18638.20072574858
 30
0.0
 10
66340.76681916065
 20
-18637.94400377058
 30
0.0
 10
66343.08666480085
 20
-18636.83563179898
 30
0.0
 10
66345.34834469475
 20
-18635.60368191948
 30
0.0
 10
66347.01192274825
 20
-18634.58872922878
 30
0.0
  0
SPLINE
  5
194
330
2
100
AcDbEntity
  8
0
  6
Continuous
 62
     7
100
AcDbSpline
210
0.0
220
0.0
230
1.0
 70
     8
 71
     3
 72
     9
 73
     5
 74
     0
 42
0.0000000001
 43
0.0000000001
 40
0.0
 40
0.0
 40
0.0
 40
0.0
 40
0.2530045853
 40
1.0
 40
1.0
 40
1.0
 40
1.0
 10
65897.23109687405
 20
-18578.92158701198
 30
0.0
 10
65894.04502444335
 20
-18575.80519692188
 30
0.0
 10
65881.65653030045
 20
-18563.27710879708
 30
0.0
 10
65869.91095752205
 20
-18550.13910292948
 30
0.0
 10
65861.11439369505
 20
-18540.35285978428
 30
0.0
  0
SPLINE
  5
195
330
2
100
AcDbEntity
  8
0
  6
Continuous
 62
     7
100
AcDbSpline
210
0.0
220
0.0
230
1.0
 70
     8
 71
     3
 72
    19
 73
    15
 74
     0
 42
0.0000000001
 43
0.0000000001
 40
0.0
 40
0.0
 40
0.0
 40
0.0
 40
0.2958782672
 40
0.5554535317
 40
0.6722882352
 40
0.7255628069000001
 40
0.7725040175000001
 40
0.7918650716000001
 40
0.807143557
 40
0.8144932498000001
 40
0.8272375048999998
 40
0.8581090037999999
 40
0.9028792709000001
 40
1.0
 40
1.0
 40
1.0
 40
1.0
 10
66527.27841492795
 20
-18583.43785850848
 30
0.0
 10
66526.99509371995
 20
-18583.54619123518
 30
0.0
 10
66526.46670783506
 20
-18583.75860990838
 30
0.0
 10
66525.83434293735
 20
-18584.03342460078
 30
0.0
 10
66525.43404826676
 20
-18584.21651409728
 30
0.0
 10
66525.23391095435
 20
-18584.31496957208
 30
0.0
 10
66525.12506250644
 20
-18584.36891913828
 30
0.0
 10
66525.05269119664
 20
-18584.41503984318
 30
0.0
 10
66525.01753147105
 20
-18584.43235958448
 30
0.0
 10
66524.98952328955
 20
-18584.47219635998
 30
0.0
 10
66525.07140734326
 20
-18584.46422286468
 30
0.0
 10
66525.13999146674
 20
-18584.45076908928
 30
0.0
 10
66525.32375999365
 20
-18584.40405031678
 30
0.0
 10
66525.45812910565
 20
-18584.36412697448
 30
0.0
 10
66525.55343440474
 20
-18584.33531385448
 30
0.0
  0
SPLINE
  5
196
330
2
100
AcDbEntity
  8
0
  6
Continuous
 62
     7
100
AcDbSpline
210
0.0
220
0.0
230
1.0
 70
     8
 71
     3
 72
     9
 73
     5
 74
     0
 42
0.0000000001
 43
0.0000000001
 40
0.0
 40
0.0
 40
0.0
 40
0.0
 40
0.4936041785
 40
1.0
 40
1.0
 40
1.0
 40
1.0
 10
65906.35706833816
 20
-18580.04455593978
 30
0.0
 10
65898.57846121636
 20
-18573.94555257698
 30
0.0
 10
65882.84616683935
 20
-18561.55687300348
 30
0.0
 10
65868.12447099955
 20
-18547.89595773228
 30
0.0
 10
65861.23465418056
 20
-18540.45521881538
 30
0.0
  0
LINE
  5
197
330
2
100
AcDbEntity
  8
0
  6
Continuous
 62
     7
100
AcDbLine
 10
66162.97043443085
 20
-18656.88462242548
 30
0.0
 11
66156.75792025955
 21
-18656.90289906888
 31
0.0
  0
LINE
  5
198
330
2
100
AcDbEntity
  8
0
  6
Continuous
 62
     7
100
AcDbLine
 10
65908.80388670385
 20
-18632.09044810858
 30
0.0
 11
65908.64603881555
 21
-18588.48355542568
 31
0.0
  0
LINE
  5
199
330
2
100
AcDbEntity
  8
0
  6
Continuous
 62
     7
100
AcDbLine
 10
66341.87589859214
 20
-18588.48355584478
 30
0.0
 11
66341.71805001566
 21
-18632.08417599398
 31
0.0
  0
LINE
  5
19A
330
2
100
AcDbEntity
  8
0
  6
Continuous
 62
     7
100
AcDbLine
 10
66332.08143103685
 20
-18593.83607044288
 30
0.0
 11
66331.86996899734
 21
-18640.35397229748
 31
0.0
  0
SPLINE
  5
19B
330
2
100
AcDbEntity
  8
0
  6
Continuous
 62
     7
100
AcDbSpline
210
0.0
220
0.0
230
1.0
 70
     8
 71
     3
 72
    11
 73
     7
 74
     0
 42
0.0000000001
 43
0.0000000001
 40
0.0
 40
0.0
 40
0.0
 40
0.0
 40
0.1533358113
 40
0.3555948143
 40
0.6271692132
 40
1.0
 40
1.0
 40
1.0
 40
1.0
 10
65954.16811053964
 20
-18622.59249136218
 30
0.0
 10
65953.57875026895
 20
-18622.20110003448
 30
0.0
 10
65952.27005307746
 20
-18621.20796110258
 30
0.0
 10
65950.04020633016
 20
-18619.36426894628
 30
0.0
 10
65947.07490256555
 20
-18616.82063028878
 30
0.0
 10
65944.83410796235
 20
-18614.86637031667
 30
0.0
 10
65943.52239877055
 20
-18613.75345460068
 30
0.0
  0
LINE
  5
19C
330
2
100
AcDbEntity
  8
0
  6
Continuous
 62
     7
100
AcDbLine
 10
65909.67295560066
 20
-18582.76081970378
 30
0.0
 11
65911.44077002144
 21
-18584.20242969898
 31
0.0
  0
SPLINE
  5
19D
330
2
100
AcDbEntity
  8
0
  6
Continuous
 62
     7
100
AcDbSpline
210
0.0
220
0.0
230
1.0
 70
     8
 71
     3
 72
     9
 73
     5
 74
     0
 42
0.0000000001
 43
0.0000000001
 40
0.0
 40
0.0
 40
0.0
 40
0.0
 40
0.4717277388000001
 40
1.0
 40
1.0
 40
1.0
 40
1.0
 10
65938.44779371045
 20
-18612.90683980468
 30
0.0
 10
65935.07738852285
 20
-18610.15903831598
 30
0.0
 10
65928.19967178215
 20
-18604.00058567758
 30
0.0
 10
65921.81443836815
 20
-18597.34772333358
 30
0.0
 10
65918.44050610164
 20
-18593.83607113868
 30
0.0
  0
LINE
  5
19E
330
2
100
AcDbEntity
  8
0
  6
Continuous
 62
     7
100
AcDbLine
 10
65938.44779371045
 20
-18612.90683980468
 30
0.0
 11
65936.09768043246
 21
-18640.35390481618
 31
0.0
  0
SPLINE
  5
19F
330
2
100
AcDbEntity
  8
0
  6
Continuous
 62
     7
100
AcDbSpline
210
0.0
220
0.0
230
1.0
 70
     8
 71
     3
 72
    11
 73
     7
 74
     0
 42
0.0000000001
 43
0.0000000001
 40
0.0
 40
0.0
 40
0.0
 40
0.0
 40
0.5067400612
 40
0.7738465086000001
 40
0.9175664659999998
 40
1.0
 40
1.0
 40
1.0
 40
1.0
 10
65911.44059940995
 20
-18584.20238570238
 30
0.0
 10
65910.44493248916
 20
-18583.65244051788
 30
0.0
 10
65908.87900717725
 20
-18582.88218376928
 30
0.0
 10
65906.89752009624
 20
-18582.28523204838
 30
0.0
 10
65905.78390593415
 20
-18582.18766807078
 30
0.0
 10
65905.27531265355
 20
-18582.37225379698
 30
0.0
 10
65905.14245744494
 20
-18582.50104426368
 30
0.0
  0
SPLINE
  5
1A0
330
2
100
AcDbEntity
  8
0
  6
Continuous
 62
     7
100
AcDbSpline
210
0.0
220
0.0
230
1.0
 70
     8
 71
     3
 72
    13
 73
     9
 74
     0
 42
0.0000000001
 43
0.0000000001
 40
0.0
 40
0.0
 40
0.0
 40
0.0
 40
0.1770844064
 40
0.3300461253
 40
0.4816555120000001
 40
0.6195809142000001
 40
0.8291121838999998
 40
1.0
 40
1.0
 40
1.0
 40
1.0
 10
65905.14245744494
 20
-18582.50104426368
 30
0.0
 10
65904.89274907574
 20
-18582.74311035058
 30
0.0
 10
65904.30181274714
 20
-18583.10504911598
 30
0.0
 10
65903.31877291745
 20
-18583.04560789348
 30
0.0
 10
65902.51841516705
 20
-18582.69834660548
 30
0.0
 10
65901.64038731696
 20
-18582.26338319998
 30
0.0
 10
65900.67431637694
 20
-18581.92963399978
 30
0.0
 10
65900.02709983906
 20
-18581.54904999158
 30
0.0
 10
65899.74553955576
 20
-18581.36640960498
 30
0.0
  0
SPLINE
  5
1A1
330
2
100
AcDbEntity
  8
0
  6
Continuous
 62
     7
100
AcDbSpline
210
0.0
220
0.0
230
1.0
 70
     8
 71
     3
 72
     9
 73
     5
 74
     0
 42
0.0000000001
 43
0.0000000001
 40
0.0
 40
0.0
 40
0.0
 40
0.0
 40
0.2495026272
 40
1.0
 40
1.0
 40
1.0
 40
1.0
 10
66517.04085676545
 20
-18575.83899719298
 30
0.0
 10
66516.25270358796
 20
-18573.59437893898
 30
0.0
 10
66513.09292079335
 20
-18564.59831865898
 30
0.0
 10
66509.92967668094
 20
-18555.60347419348
 30
0.0
 10
66507.55385831886
 20
-18548.85350508738
 30
0.0
  0
SPLINE
  5
1A2
330
2
100
AcDbEntity
  8
0
  6
Continuous
 62
     7
100
AcDbSpline
210
0.0
220
0.0
230
1.0
 70
     8
 71
     3
 72
     9
 73
     5
 74
     0
 42
0.0000000001
 43
0.0000000001
 40
0.0
 40
0.0
 40
0.0
 40
0.0
 40
0.4691321216
 40
1.0
 40
1.0
 40
1.0
 40
1.0
 10
65943.52239877055
 20
-18613.75345460068
 30
0.0
 10
65940.20253696975
 20
-18610.93638965328
 30
0.0
 10
65933.39137835926
 20
-18604.61388608628
 30
0.0
 10
65927.05535718145
 20
-18597.82867180218
 30
0.0
 10
65923.69258606606
 20
-18594.22772651108
 30
0.0
  0
SPLINE
  5
1A3
330
2
100
AcDbEntity
  8
0
  6
Continuous
 62
     7
100
AcDbSpline
210
0.0
220
0.0
230
1.0
 70
     8
 71
     3
 72
     9
 73
     5
 74
     0
 42
0.0000000001
 43
0.0000000001
 40
0.0
 40
0.0
 40
0.0
 40
0.0
 40
0.2429864897
 40
1.0
 40
1.0
 40
1.0
 40
1.0
 10
65923.69258606606
 20
-18594.22772651108
 30
0.0
 10
65923.61851226556
 20
-18594.14792945468
 30
0.0
 10
65923.31468940785
 20
-18593.81856667048
 30
0.0
 10
65923.00264303275
 20
-18593.49692414558
 30
0.0
 10
65922.76714037715
 20
-18593.25279512508
 30
0.0
  0
SPLINE
  5
1A4
330
2
100
AcDbEntity
  8
0
  6
Continuous
 62
     7
100
AcDbSpline
210
0.0
220
0.0
230
1.0
 70
     8
 71
     3
 72
     9
 73
     5
 74
     0
 42
0.0000000001
 43
0.0000000001
 40
0.0
 40
0.0
 40
0.0
 40
0.0
 40
0.2823500605
 40
1.0
 40
1.0
 40
1.0
 40
1.0
 10
66098.92667370944
 20
-18652.34501286698
 30
0.0
 10
66098.05171895096
 20
-18652.34474757828
 30
0.0
 10
66094.95288926194
 20
-18652.34377633518
 30
0.0
 10
66091.85405989785
 20
-18652.34140511328
 30
0.0
 10
66089.63018643485
 20
-18652.33873828478
 30
0.0
  0
SPLINE
  5
1A5
330
2
100
AcDbEntity
  8
0
  6
Continuous
 62
     7
100
AcDbSpline
210
0.0
220
0.0
230
1.0
 70
     8
 71
     3
 72
     9
 73
     5
 74
     0
 42
0.0000000001
 43
0.0000000001
 40
0.0
 40
0.0
 40
0.0
 40
0.0
 40
0.2062460648
 40
1.0
 40
1.0
 40
1.0
 40
1.0
 10
65922.76715561884
 20
-18593.25280739358
 30
0.0
 10
65922.07251265284
 20
-18592.53592439658
 30
0.0
 10
65918.64453893415
 20
-18589.12543917948
 30
0.0
 10
65914.79841970735
 20
-18586.06893143708
 30
0.0
 10
65911.44059762515
 20
-18584.20238415188
 30
0.0
  0
SPLINE
  5
1A6
330
2
100
AcDbEntity
  8
0
  6
Continuous
 62
     7
100
AcDbSpline
210
0.0
220
0.0
230
1.0
 70
     8
 71
     3
 72
     9
 73
     5
 74
     0
 42
0.0000000001
 43
0.0000000001
 40
0.0
 40
0.0
 40
0.0
 40
0.0
 40
0.4916119478
 40
1.0
 40
1.0
 40
1.0
 40
1.0
 10
65943.52232361736
 20
-18613.75358148118
 30
0.0
 10
65942.76726350555
 20
-18613.35613445558
 30
0.0
 10
65941.08691325625
 20
-18612.80055916288
 30
0.0
 10
65939.32234397196
 20
-18612.78927146748
 30
0.0
 10
65938.44779551905
 20
-18612.90667571998
 30
0.0
  0
SPLINE
  5
1A7
330
2
100
AcDbEntity
  8
0
  6
Continuous
 62
     7
100
AcDbSpline
210
0.0
220
0.0
230
1.0
 70
     8
 71
     3
 72
    10
 73
     6
 74
     0
 42
0.0000000001
 43
0.0000000001
 40
0.0
 40
0.0
 40
0.0
 40
0.0
 40
0.4215538330000001
 40
0.6803231785
 40
1.0
 40
1.0
 40
1.0
 40
1.0
 10
65917.97616992946
 20
-18592.90089015708
 30
0.0
 10
65917.37816553644
 20
-18591.72926021008
 30
0.0
 10
65916.33274889516
 20
-18589.86685628248
 30
0.0
 10
65914.45817481925
 20
-18587.38637859848
 30
0.0
 10
65913.05852552564
 20
-18586.13716743968
 30
0.0
 10
65912.14157048045
 20
-18585.74443126988
 30
0.0
  0
SPLINE
  5
1A8
330
2
100
AcDbEntity
  8
0
  6
Continuous
 62
     7
100
AcDbSpline
210
0.0
220
0.0
230
1.0
 70
     8
 71
     3
 72
    12
 73
     8
 74
     0
 42
0.0000000001
 43
0.0000000001
 40
0.0
 40
0.0
 40
0.0
 40
0.0
 40
0.2294554591
 40
0.3689120055
 40
0.5849632057000001
 40
0.7907644159000001
 40
1.0
 40
1.0
 40
1.0
 40
1.0
 10
65912.14157048045
 20
-18585.74443126988
 30
0.0
 10
65911.77022543264
 20
-18585.58610569198
 30
0.0
 10
65911.11304214326
 20
-18585.41550844278
 30
0.0
 10
65910.08225931625
 20
-18585.66112626318
 30
0.0
 10
65909.33694837056
 20
-18586.38661602108
 30
0.0
 10
65908.87968747875
 20
-18587.40747773228
 30
0.0
 10
65908.70921663135
 20
-18588.12090046108
 30
0.0
 10
65908.64604529325
 20
-18588.48355431528
 30
0.0
  0
LINE
  5
1A9
330
2
100
AcDbEntity
  8
0
  6
Continuous
 62
     7
100
AcDbLine
 10
66125.26096792344
 20
-18652.35191814838
 30
0.0
 11
66098.92667419926
 21
-18652.34501286968
 31
0.0
  0
SPLINE
  5
1AA
330
2
100
AcDbEntity
  8
0
  6
Continuous
 62
     7
100
AcDbSpline
210
0.0
220
0.0
230
1.0
 70
     8
 71
     3
 72
     9
 73
     5
 74
     0
 42
0.0000000001
 43
0.0000000001
 40
0.0
 40
0.0
 40
0.0
 40
0.0
 40
0.2495193338
 40
1.0
 40
1.0
 40
1.0
 40
1.0
 10
66508.97038859656
 20
-18576.36793085488
 30
0.0
 10
66508.22515106255
 20
-18574.19086294708
 30
0.0
 10
66505.23651299396
 20
-18565.46648203248
 30
0.0
 10
66502.24027973166
 20
-18556.74470325438
 30
0.0
 10
66499.98771561225
 20
-18550.20053750918
 30
0.0
  0
SPLINE
  5
1AB
330
2
100
AcDbEntity
  8
0
  6
Continuous
 62
     7
100
AcDbSpline
210
0.0
220
0.0
230
1.0
 70
     8
 71
     3
 72
     9
 73
     5
 74
     0
 42
0.0000000001
 43
0.0000000001
 40
0.0
 40
0.0
 40
0.0
 40
0.0
 40
0.5011454625999999
 40
1.0
 40
1.0
 40
1.0
 40
1.0
 10
66514.04118907395
 20
-18584.11631287388
 30
0.0
 10
66512.88631343335
 20
-18583.06866039468
 30
0.0
 10
66510.84609698594
 20
-18580.66822672928
 30
0.0
 10
66509.47278829115
 20
-18577.83651177318
 30
0.0
 10
66508.97038859656
 20
-18576.36793085488
 30
0.0
  0
SPLINE
  5
1AC
330
2
100
AcDbEntity
  8
0
  6
Continuous
 62
     7
100
AcDbSpline
210
0.0
220
0.0
230
1.0
 70
     8
 71
     3
 72
     8
 73
     4
 74
     0
 42
0.0000000001
 43
0.0000000001
 40
0.0
 40
0.0
 40
0.0
 40
0.0
 40
1.0
 40
1.0
 40
1.0
 40
1.0
 10
66359.37849156605
 20
-18575.22418329168
 30
0.0
 10
66355.97975284465
 20
-18594.17025108358
 30
0.0
 10
66352.58322434945
 20
-18613.11671549708
 30
0.0
 10
66349.18886985405
 20
-18632.06356925258
 30
0.0
  0
SPLINE
  5
1AD
330
2
100
AcDbEntity
  8
0
  6
Continuous
 62
     7
100
AcDbSpline
210
0.0
220
0.0
230
1.0
 70
     8
 71
     3
 72
    12
 73
     8
 74
     0
 42
0.0000000001
 43
0.0000000001
 40
0.0
 40
0.0
 40
0.0
 40
0.0
 40
0.2093385696
 40
0.4152340617000001
 40
0.6314026436
 40
0.7709772013
 40
1.0
 40
1.0
 40
1.0
 40
1.0
 10
66341.87589171965
 20
-18588.48355366198
 30
0.0
 10
66341.81267499275
 20
-18588.12073768908
 30
0.0
 10
66341.64212329725
 20
-18587.40699416768
 30
0.0
 10
66341.18449920745
 20
-18586.38575089828
 30
0.0
 10
66340.43817551216
 20
-18585.66011636628
 30
0.0
 10
66339.40747393915
 20
-18585.41637363468
 30
0.0
 10
66338.75081107065
 20
-18585.58596376628
 30
0.0
 10
66338.38036842266
 20
-18585.74442614438
 30
0.0
  0
SPLINE
  5
1AE
330
2
100
AcDbEntity
  8
0
  6
Continuous
 62
     7
100
AcDbSpline
210
0.0
220
0.0
230
1.0
 70
     8
 71
     3
 72
    10
 73
     6
 74
     0
 42
0.0000000001
 43
0.0000000001
 40
0.0
 40
0.0
 40
0.0
 40
0.0
 40
0.3195692553
 40
0.5783934638
 40
1.0
 40
1.0
 40
1.0
 40
1.0
 10
66338.38036842266
 20
-18585.74442614438
 30
0.0
 10
66337.46364619425
 20
-18586.13685627458
 30
0.0
 10
66336.06413273426
 20
-18587.38604025348
 30
0.0
 10
66334.18944428215
 20
-18589.86639419608
 30
0.0
 10
66333.14384484774
 20
-18591.72910409378
 30
0.0
 10
66332.54577257716
 20
-18592.90088575728
 30
0.0
  0
SPLINE
  5
1AF
330
2
100
AcDbEntity
  8
0
  6
Continuous
 62
     7
100
AcDbSpline
210
0.0
220
0.0
230
1.0
 70
     8
 71
     3
 72
    11
 73
     7
 74
     0
 42
0.0000000001
 43
0.0000000001
 40
0.0
 40
0.0
 40
0.0
 40
0.0
 40
0.2677165823
 40
0.5224657040000001
 40
0.7646373381
 40
1.0
 40
1.0
 40
1.0
 40
1.0
 10
66529.27037733665
 20
-18582.65812380468
 30
0.0
 10
66527.95483118226
 20
-18583.05354960608
 30
0.0
 10
66525.17208304725
 20
-18583.24273933648
 30
0.0
 10
66521.41076724004
 20
-18581.79803502258
 30
0.0
 10
66518.59344579966
 20
-18579.19572565538
 30
0.0
 10
66517.42785954064
 20
-18576.98298721168
 30
0.0
 10
66517.04085599646
 20
-18575.83899733648
 30
0.0
  0
SPLINE
  5
1B0
330
2
100
AcDbEntity
  8
0
  6
Continuous
 62
     7
100
AcDbSpline
210
0.0
220
0.0
230
1.0
 70
     8
 71
     3
 72
     9
 73
     5
 74
     0
 42
0.0000000001
 43
0.0000000001
 40
0.0
 40
0.0
 40
0.0
 40
0.0
 40
0.4977463819
 40
1.0
 40
1.0
 40
1.0
 40
1.0
 10
66274.99934218145
 20
-18559.44336143138
 30
0.0
 10
66274.97681832815
 20
-18561.27237627118
 30
0.0
 10
66275.50634934635
 20
-18564.97487151638
 30
0.0
 10
66277.10023426866
 20
-18568.34875194608
 30
0.0
 10
66278.10823769135
 20
-18569.89490862068
 30
0.0
  0
SPLINE
  5
1B1
330
2
100
AcDbEntity
  8
0
  6
Continuous
 62
     7
100
AcDbSpline
210
0.0
220
0.0
230
1.0
 70
     8
 71
     3
 72
     9
 73
     5
 74
     0
 42
0.0000000001
 43
0.0000000001
 40
0.0
 40
0.0
 40
0.0
 40
0.0
 40
0.5045760509
 40
1.0
 40
1.0
 40
1.0
 40
1.0
 10
66280.62351153424
 20
-18541.31024553758
 30
0.0
 10
66280.29104920774
 20
-18541.18068097648
 30
0.0
 10
66279.58024441706
 20
-18541.01800338108
 30
0.0
 10
66278.86512332345
 20
-18541.20856963068
 30
0.0
 10
66278.55616617986
 20
-18541.37375709728
 30
0.0
  0
SPLINE
  5
1B2
330
2
100
AcDbEntity
  8
0
  6
Continuous
 62
     7
100
AcDbSpline
210
0.0
220
0.0
230
1.0
 70
     8
 71
     3
 72
    12
 73
     8
 74
     0
 42
0.0000000001
 43
0.0000000001
 40
0.0
 40
0.0
 40
0.0
 40
0.0
 40
0.1266411885
 40
0.2521120153
 40
0.5018828912
 40
0.7511374431000001
 40
1.0
 40
1.0
 40
1.0
 40
1.0
 10
66276.94813767465
 20
-18543.21202001168
 30
0.0
 10
66276.62876943075
 20
-18543.82972965478
 30
0.0
 10
66276.14794481645
 20
-18545.13833462288
 30
0.0
 10
66275.52032324064
 20
-18547.82347057138
 30
0.0
 10
66275.11235273625
 20
-18551.23718427858
 30
0.0
 10
66274.93559438555
 20
-18555.34117220828
 30
0.0
 10
66274.96012732494
 20
-18558.07753197818
 30
0.0
 10
66274.99906786566
 20
-18559.44347924528
 30
0.0
  0
SPLINE
  5
1B3
330
2
100
AcDbEntity
  8
0
  6
Continuous
 62
     7
100
AcDbSpline
210
0.0
220
0.0
230
1.0
 70
     8
 71
     3
 72
     9
 73
     5
 74
     0
 42
0.0000000001
 43
0.0000000001
 40
0.0
 40
0.0
 40
0.0
 40
0.0
 40
0.2603513612
 40
1.0
 40
1.0
 40
1.0
 40
1.0
 10
66278.55616617986
 20
-18541.37375709728
 30
0.0
 10
66278.36740850654
 20
-18541.47480415808
 30
0.0
 10
66277.69350400046
 20
-18541.96044959628
 30
0.0
 10
66277.22716177796
 20
-18542.67153575868
 30
0.0
 10
66276.94813767465
 20
-18543.21202001168
 30
0.0
  0
CIRCLE
  5
1B4
330
2
100
AcDbEntity
  8
0
370
     0
100
AcDbCircle
 10
66124.77722478645
 20
-19064.35913431319
 30
0.0
 40
22.25
  0
CIRCLE
  5
1B5
330
2
100
AcDbEntity
  8
0
370
     0
100
AcDbCircle
 10
66124.77722478645
 20
-19064.35913431319
 30
0.0
 40
34.0
  0
MTEXT
  5
1F2
330
2
100
AcDbEntity
  8
尺寸标注
100
AcDbMText
 10
66219.77049162349
 20
-18027.51476031337
 30
0.0
 40
75.0
 41
801.6353349369019
 71
     2
 72
     5
  1
SCALE\P1:1
 73
     1
 44
1.0
  0
ENDSEC
  0
SECTION
  2
OBJECTS
  0
DICTIONARY
  5
9
330
0
100
AcDbDictionary
281
     1
  3
ACAD_COLOR
350
34
  3
ACAD_GROUP
350
2F
  3
ACAD_LAYOUT
350
F
  3
ACAD_MATERIAL
350
B
  3
ACAD_MLEADERSTYLE
350
232
  3
ACAD_MLINESTYLE
350
30
  3
ACAD_PLOTSETTINGS
350
31
  3
ACAD_PLOTSTYLENAME
350
8
  3
ACAD_SCALELIST
350
210
  3
ACAD_TABLESTYLE
350
35
  3
ACAD_VISUALSTYLE
350
28
  3
ACDB_RECOMPOSE_DATA
350
23F
  3
ACDBHEADERROUNDTRIPXREC
350
239
  3
AcDbVariableDictionary
350
1F6
  0
DICTIONARY
  5
29
330
25
100
AcDbDictionary
280
     1
281
     1
  0
DICTIONARY
  5
18
330
17
100
AcDbDictionary
280
     1
281
     1
  3
ACAD_LAYERFILTERS
360
19
  3
ACAD_LAYERSTATES
360
1A
  3
ACLYDICTIONARY
360
1B
  0
DICTIONARY
  5
3
330
2
100
AcDbDictionary
280
     1
281
     1
  3
ACAD_SORTENTS
360
1F4
  0
DICTIONARY
  5
34
102
{ACAD_REACTORS
330
9
102
}
330
9
100
AcDbDictionary
281
     1
  0
DICTIONARY
  5
2F
102
{ACAD_REACTORS
330
9
102
}
330
9
100
AcDbDictionary
281
     1
  0
DICTIONARY
  5
F
102
{ACAD_REACTORS
330
9
102
}
330
9
100
AcDbDictionary
281
     1
  3
Model
350
E
  3
布局1
350
14
  0
DICTIONARY
  5
B
102
{ACAD_REACTORS
330
9
102
}
330
9
100
AcDbDictionary
281
     1
  3
ByBlock
350
33
  3
ByLayer
350
32
  3
Global
350
A
  0
DICTIONARY
  5
232
102
{ACAD_REACTORS
330
9
102
}
330
9
100
AcDbDictionary
281
     1
  3
Standard
350
233
  0
DICTIONARY
  5
30
102
{ACAD_REACTORS
330
9
102
}
330
9
100
AcDbDictionary
281
     1
  3
Standard
350
38
  0
DICTIONARY
  5
31
102
{ACAD_REACTORS
330
9
102
}
330
9
100
AcDbDictionary
281
     1
  0
ACDBDICTIONARYWDFLT
  5
8
102
{ACAD_REACTORS
330
9
102
}
330
9
100
AcDbDictionary
281
     1
  3
Normal
350
7
100
AcDbDictionaryWithDefault
340
7
  0
DICTIONARY
  5
210
102
{ACAD_REACTORS
330
9
102
}
330
9
100
AcDbDictionary
281
     1
  3
A0
350
211
  3
A1
350
212
  3
A2
350
213
  3
A3
350
214
  3
A4
350
215
  3
A5
350
216
  3
A6
350
217
  3
A7
350
218
  3
A8
350
219
  3
A9
350
21A
  3
B0
350
21B
  3
B1
350
21C
  3
B2
350
21D
  3
B3
350
21E
  3
B4
350
21F
  3
B5
350
220
  3
B6
350
221
  3
B7
350
222
  3
B8
350
223
  3
B9
350
224
  3
C0
350
225
  3
C1
350
226
  3
C2
350
227
  3
C3
350
228
  3
C4
350
229
  3
C5
350
22A
  3
C6
350
22B
  3
C7
350
22C
  3
C8
350
22D
  3
C9
350
22E
  3
D0
350
22F
  3
D1
350
230
  3
D2
350
231
  0
DICTIONARY
  5
35
102
{ACAD_REACTORS
330
9
102
}
330
9
100
AcDbDictionary
281
     1
  3
Standard
350
39
  0
DICTIONARY
  5
28
102
{ACAD_REACTORS
330
9
102
}
330
9
100
AcDbDictionary
281
     1
  3
2dWireframe
350
27
  3
3D Hidden
350
1FE
  3
3dWireframe
350
3B
  3
Basic
350
1FD
  3
Brighten
350
201
  3
ColorChange
350
205
  3
Conceptual
350
1FF
  3
Dim
350
200
  3
Facepattern
350
204
  3
Flat
350
1F9
  3
FlatWithEdges
350
1FA
  3
Gouraud
350
1FB
  3
GouraudWithEdges
350
1FC
  3
Linepattern
350
203
  3
Realistic
350
3A
  3
Thicken
350
202
  0
XRECORD
  5
23F
102
{ACAD_REACTORS
330
9
102
}
330
9
100
AcDbXrecord
280
     1
 90
        1
330
39
  0
DICTIONARY
  5
239
102
{ACAD_REACTORS
330
9
102
}
330
9
100
AcDbDictionary
281
     1
  0
DICTIONARY
  5
1F6
102
{ACAD_REACTORS
330
9
102
}
330
9
100
AcDbDictionary
281
     1
  3
CMLEADERSTYLE
350
237
  3
CTABLESTYLE
350
1F7
  0
DICTIONARY
  5
19
102
{ACAD_REACTORS
330
18
102
}
330
18
100
AcDbDictionary
281
     1
  0
DICTIONARY
  5
1A
102
{ACAD_REACTORS
330
18
102
}
330
18
100
AcDbDictionary
281
     1
  0
DICTIONARY
  5
1B
102
{ACAD_REACTORS
330
18
102
}
330
18
100
AcDbDictionary
281
     1
1001
ACAD
1000
<All
  0
SORTENTSTABLE
  5
1F4
102
{ACAD_REACTORS
330
3
102
}
330
3
100
AcDbSortentsTable
330
2
  0
LAYOUT
  5
E
102
{ACAD_REACTORS
330
F
102
}
330
F
100
AcDbPlotSettings
  1

  2
none_device
  4
ISO_A4_(210.00_x_297.00_MM)
  6

 40
7.5
 41
20.0
 42
7.5
 43
20.0
 44
210.0
 45
297.0
 46
11.54999923706054
 47
-13.65000009536743
 48
0.0
 49
0.0
140
0.0
141
0.0
142
1.0
143
8.704084754739808
 70
 11952
 72
     1
 73
     0
 74
     0
  7
acad.ctb
 75
     0
147
0.1148885871608098
 76
     0
 77
     2
 78
   300
148
0.0
149
0.0
100
AcDbLayout
  1
Model
 70
     1
 71
     0
 10
0.0
 20
0.0
 11
12.0
 21
9.0
 12
0.0
 22
0.0
 32
0.0
 14
0.0
 24
0.0
 34
0.0
 15
0.0
 25
0.0
 35
0.0
146
0.0
 13
0.0
 23
0.0
 33
0.0
 16
1.0
 26
0.0
 36
0.0
 17
0.0
 27
1.0
 37
0.0
 76
     0
330
2
331
26
1001
ACAD_PSEXT
1000
None
1000
None
1000
Not applicable
1000
The layout will not be plotted unless a new plotter configuration name is selected.
1070
     0
  0
LAYOUT
  5
14
102
{ACAD_XDICTIONARY
360
15
102
}
102
{ACAD_REACTORS
330
F
102
}
330
F
100
AcDbPlotSettings
  1

  2
none_device
  4
ISO_A4_(210.00_x_297.00_MM)
  6

 40
7.5
 41
20.0
 42
7.5
 43
20.0
 44
210.0
 45
297.0
 46
0.0
 47
0.0
 48
0.0
 49
0.0
140
0.0
141
0.0
142
1.0
143
1.0
 70
   688
 72
     1
 73
     1
 74
     5
  7
acad.ctb
 75
    16
147
1.0
 76
     0
 77
     2
 78
   300
148
0.0
149
0.0
100
AcDbLayout
  1
布局1
 70
     1
 71
     1
 10
-20.0
 20
-7.5
 11
277.0
 21
202.5
 12
0.0
 22
0.0
 32
0.0
 14
25.69999999999999
 24
19.5
 34
0.0
 15
231.3
 25
175.5
 35
0.0
146
0.0
 13
0.0
 23
0.0
 33
0.0
 16
1.0
 26
0.0
 36
0.0
 17
0.0
 27
1.0
 37
0.0
 76
     0
330
11
1001
ACAD_PSEXT
1000
无
1000
无
1000
不可用
1000
在选择新的绘图仪配置名称之前，不能打印该布局。
1070
     0
  0
MATERIAL
  5
33
102
{ACAD_REACTORS
330
B
102
}
330
B
100
AcDbMaterial
  1
ByBlock
  2

  0
MATERIAL
  5
32
102
{ACAD_REACTORS
330
B
102
}
330
B
100
AcDbMaterial
  1
ByLayer
  2

  0
MATERIAL
  5
A
102
{ACAD_REACTORS
330
B
102
}
330
B
100
AcDbMaterial
  1
Global
  2

  0
MLEADERSTYLE
  5
233
102
{ACAD_REACTORS
330
232
102
}
330
232
100
AcDbMLeaderStyle
170
     2
171
     1
172
     0
 90
        2
 40
0.0
 41
0.0
173
     1
 91
-1056964608
340
21
 92
       -2
290
     1
 42
0.09
291
     1
 43
8.0
  3
Standard
341
0
 44
0.18
300

342
1E
174
     1
178
     1
175
     1
176
     0
 93
-1056964608
 45
0.18
292
     0
297
     0
 46
0.18
343
0
 94
-1056964608
 47
1.0
 49
1.0
140
1.0
293
     1
141
0.0
294
     1
177
     0
142
1.0
295
     0
296
     0
143
3.75
1001
ACAD_MLEADERVER
1070
     2
  0
MLINESTYLE
  5
38
102
{ACAD_REACTORS
330
30
102
}
330
30
100
AcDbMlineStyle
  2
STANDARD
 70
     0
  3

 62
   256
 51
90.0
 52
90.0
 71
     2
 49
0.5
 62
   256
  6
BYLAYER
 49
-0.5
 62
   256
  6
BYLAYER
  0
ACDBPLACEHOLDER
  5
7
102
{ACAD_REACTORS
330
8
102
}
330
8
  0
SCALE
  5
211
102
{ACAD_REACTORS
330
210
102
}
330
210
100
AcDbScale
 70
     0
300
1:1
140
1.0
141
1.0
290
     1
  0
SCALE
  5
212
102
{ACAD_REACTORS
330
210
102
}
330
210
100
AcDbScale
 70
     0
300
1:2
140
1.0
141
2.0
290
     0
  0
SCALE
  5
213
102
{ACAD_REACTORS
330
210
102
}
330
210
100
AcDbScale
 70
     0
300
1:4
140
1.0
141
4.0
290
     0
  0
SCALE
  5
214
102
{ACAD_REACTORS
330
210
102
}
330
210
100
AcDbScale
 70
     0
300
1:5
140
1.0
141
5.0
290
     0
  0
SCALE
  5
215
102
{ACAD_REACTORS
330
210
102
}
330
210
100
AcDbScale
 70
     0
300
1:8
140
1.0
141
8.0
290
     0
  0
SCALE
  5
216
102
{ACAD_REACTORS
330
210
102
}
330
210
100
AcDbScale
 70
     0
300
1:10
140
1.0
141
10.0
290
     0
  0
SCALE
  5
217
102
{ACAD_REACTORS
330
210
102
}
330
210
100
AcDbScale
 70
     0
300
1:16
140
1.0
141
16.0
290
     0
  0
SCALE
  5
218
102
{ACAD_REACTORS
330
210
102
}
330
210
100
AcDbScale
 70
     0
300
1:20
140
1.0
141
20.0
290
     0
  0
SCALE
  5
219
102
{ACAD_REACTORS
330
210
102
}
330
210
100
AcDbScale
 70
     0
300
1:30
140
1.0
141
30.0
290
     0
  0
SCALE
  5
21A
102
{ACAD_REACTORS
330
210
102
}
330
210
100
AcDbScale
 70
     0
300
1:40
140
1.0
141
40.0
290
     0
  0
SCALE
  5
21B
102
{ACAD_REACTORS
330
210
102
}
330
210
100
AcDbScale
 70
     0
300
1:50
140
1.0
141
50.0
290
     0
  0
SCALE
  5
21C
102
{ACAD_REACTORS
330
210
102
}
330
210
100
AcDbScale
 70
     0
300
1:100
140
1.0
141
100.0
290
     0
  0
SCALE
  5
21D
102
{ACAD_REACTORS
330
210
102
}
330
210
100
AcDbScale
 70
     0
300
2:1
140
2.0
141
1.0
290
     0
  0
SCALE
  5
21E
102
{ACAD_REACTORS
330
210
102
}
330
210
100
AcDbScale
 70
     0
300
4:1
140
4.0
141
1.0
290
     0
  0
SCALE
  5
21F
102
{ACAD_REACTORS
330
210
102
}
330
210
100
AcDbScale
 70
     0
300
8:1
140
8.0
141
1.0
290
     0
  0
SCALE
  5
220
102
{ACAD_REACTORS
330
210
102
}
330
210
100
AcDbScale
 70
     0
300
10:1
140
10.0
141
1.0
290
     0
  0
SCALE
  5
221
102
{ACAD_REACTORS
330
210
102
}
330
210
100
AcDbScale
 70
     0
300
100:1
140
100.0
141
1.0
290
     0
  0
SCALE
  5
222
102
{ACAD_REACTORS
330
210
102
}
330
210
100
AcDbScale
 70
     0
300
1/128" = 1'-0"
140
0.0078125
141
12.0
290
     0
  0
SCALE
  5
223
102
{ACAD_REACTORS
330
210
102
}
330
210
100
AcDbScale
 70
     0
300
1/64" = 1'-0"
140
0.015625
141
12.0
290
     0
  0
SCALE
  5
224
102
{ACAD_REACTORS
330
210
102
}
330
210
100
AcDbScale
 70
     0
300
1/32" = 1'-0"
140
0.03125
141
12.0
290
     0
  0
SCALE
  5
225
102
{ACAD_REACTORS
330
210
102
}
330
210
100
AcDbScale
 70
     0
300
1/16" = 1'-0"
140
0.0625
141
12.0
290
     0
  0
SCALE
  5
226
102
{ACAD_REACTORS
330
210
102
}
330
210
100
AcDbScale
 70
     0
300
3/32" = 1'-0"
140
0.09375
141
12.0
290
     0
  0
SCALE
  5
227
102
{ACAD_REACTORS
330
210
102
}
330
210
100
AcDbScale
 70
     0
300
1/8" = 1'-0"
140
0.125
141
12.0
290
     0
  0
SCALE
  5
228
102
{ACAD_REACTORS
330
210
102
}
330
210
100
AcDbScale
 70
     0
300
3/16" = 1'-0"
140
0.1875
141
12.0
290
     0
  0
SCALE
  5
229
102
{ACAD_REACTORS
330
210
102
}
330
210
100
AcDbScale
 70
     0
300
1/4" = 1'-0"
140
0.25
141
12.0
290
     0
  0
SCALE
  5
22A
102
{ACAD_REACTORS
330
210
102
}
330
210
100
AcDbScale
 70
     0
300
3/8" = 1'-0"
140
0.375
141
12.0
290
     0
  0
SCALE
  5
22B
102
{ACAD_REACTORS
330
210
102
}
330
210
100
AcDbScale
 70
     0
300
1/2" = 1'-0"
140
0.5
141
12.0
290
     0
  0
SCALE
  5
22C
102
{ACAD_REACTORS
330
210
102
}
330
210
100
AcDbScale
 70
     0
300
3/4" = 1'-0"
140
0.75
141
12.0
290
     0
  0
SCALE
  5
22D
102
{ACAD_REACTORS
330
210
102
}
330
210
100
AcDbScale
 70
     0
300
1" = 1'-0"
140
1.0
141
12.0
290
     0
  0
SCALE
  5
22E
102
{ACAD_REACTORS
330
210
102
}
330
210
100
AcDbScale
 70
     0
300
1-1/2" = 1'-0"
140
1.5
141
12.0
290
     0
  0
SCALE
  5
22F
102
{ACAD_REACTORS
330
210
102
}
330
210
100
AcDbScale
 70
     0
300
3" = 1'-0"
140
3.0
141
12.0
290
     0
  0
SCALE
  5
230
102
{ACAD_REACTORS
330
210
102
}
330
210
100
AcDbScale
 70
     0
300
6" = 1'-0"
140
6.0
141
12.0
290
     0
  0
SCALE
  5
231
102
{ACAD_REACTORS
330
210
102
}
330
210
100
AcDbScale
 70
     0
300
1'-0" = 1'-0"
140
12.0
141
12.0
290
     0
  0
TABLESTYLE
  5
39
102
{ACAD_XDICTIONARY
360
23C
102
}
102
{ACAD_REACTORS
330
35
102
}
330
35
100
AcDbTableStyle
  3
Standard
 70
     0
 71
     0
 40
1.5
 41
1.5
280
     0
281
     0
  7
Standard
140
4.5
170
     2
 62
     0
 63
   257
283
     0
274
    -2
284
     1
 64
     0
275
    -2
285
     1
 65
     0
276
    -2
286
     1
 66
     0
277
    -2
287
     1
 67
     0
278
    -2
288
     1
 68
     0
279
    -2
289
     1
 69
     0
  7
Standard
140
6.0
170
     5
 62
     0
 63
   257
283
     0
274
    -2
284
     1
 64
     0
275
    -2
285
     1
 65
     0
276
    -2
286
     1
 66
     0
277
    -2
287
     1
 67
     0
278
    -2
288
     1
 68
     0
279
    -2
289
     1
 69
     0
  7
Standard
140
4.5
170
     5
 62
     0
 63
   257
283
     0
274
    -2
284
     1
 64
     0
275
    -2
285
     1
 65
     0
276
    -2
286
     1
 66
     0
277
    -2
287
     1
 67
     0
278
    -2
288
     1
 68
     0
279
    -2
289
     1
 69
     0
  0
VISUALSTYLE
  5
27
102
{ACAD_XDICTIONARY
360
23A
102
}
102
{ACAD_REACTORS
330
28
102
}
330
28
100
AcDbVisualStyle
  2
2dWireframe
 70
     4
 71
     0
 72
     2
 73
     1
 90
        0
 40
-0.6
 41
-30.0
 62
     5
 63
     7
 74
     1
 91
        4
 64
     7
 65
   257
 75
     1
175
     1
 42
1.0
 92
        0
 66
   257
 43
1.0
 76
     1
 77
     6
 78
     2
 67
     7
 79
     5
170
     0
171
     0
290
     0
174
     0
 93
        1
 44
0.0
173
     0
291
     0
 45
0.0
1001
ACAD
1000
AcDbSavedByObjectVersion
1070
     0
  0
VISUALSTYLE
  5
1FE
102
{ACAD_XDICTIONARY
360
24E
102
}
102
{ACAD_REACTORS
330
28
102
}
330
28
100
AcDbVisualStyle
  2
3D Hidden
 70
     6
 71
     1
 72
     2
 73
     2
 90
        0
 40
-0.6
 41
-30.0
 62
     5
 63
     7
421
 16777215
 74
     2
 91
        2
 64
     7
 65
   257
 75
     2
175
     1
 42
40.0
 92
        0
 66
   257
 43
1.0
 76
     1
 77
     6
 78
     2
 67
     7
 79
     3
170
     0
171
     0
290
     0
174
     0
 93
        1
 44
0.0
173
     0
291
     0
 45
0.0
1001
ACAD
1000
AcDbSavedByObjectVersion
1070
     0
  0
VISUALSTYLE
  5
3B
102
{ACAD_XDICTIONARY
360
242
102
}
102
{ACAD_REACTORS
330
28
102
}
330
28
100
AcDbVisualStyle
  2
3dWireframe
 70
     5
 71
     0
 72
     2
 73
     1
 90
        0
 40
-0.6
 41
-30.0
 62
     5
 63
     7
 74
     1
 91
        4
 64
     7
 65
   257
 75
     1
175
     1
 42
1.0
 92
        0
 66
   257
 43
1.0
 76
     1
 77
     6
 78
     2
 67
     7
 79
     5
170
     0
171
     0
290
     0
174
     0
 93
        1
 44
0.0
173
     0
291
     0
 45
0.0
1001
ACAD
1000
AcDbSavedByObjectVersion
1070
     0
  0
VISUALSTYLE
  5
1FD
102
{ACAD_XDICTIONARY
360
24C
102
}
102
{ACAD_REACTORS
330
28
102
}
330
28
100
AcDbVisualStyle
  2
Basic
 70
     7
 71
     1
 72
     0
 73
     1
 90
        0
 40
-0.6
 41
-30.0
 62
     5
 63
     7
421
 16777215
 74
     0
 91
        4
 64
     7
 65
   257
 75
     1
175
     1
 42
1.0
 92
        8
 66
     7
 43
1.0
 76
     1
 77
     6
 78
     2
 67
     7
 79
     5
170
     0
171
     0
290
     0
174
     0
 93
        1
 44
0.0
173
     0
291
     1
 45
0.0
1001
ACAD
1000
AcDbSavedByObjectVersion
1070
     0
  0
VISUALSTYLE
  5
201
102
{ACAD_XDICTIONARY
360
254
102
}
102
{ACAD_REACTORS
330
28
102
}
330
28
100
AcDbVisualStyle
  2
Brighten
 70
    12
 71
     2
 72
     2
 73
     0
 90
        0
 40
-0.6
 41
-30.0
 62
     5
 63
     7
421
 16777215
 74
     1
 91
        4
 64
     7
 65
   257
 75
     1
175
     1
 42
1.0
 92
        8
 66
     7
 43
1.0
 76
     1
 77
     6
 78
     2
 67
     7
 79
     5
170
     0
171
     0
290
     0
174
     0
 93
        1
 44
50.0
173
     0
291
     1
 45
0.0
1001
ACAD
1000
AcDbSavedByObjectVersion
1070
     0
  0
VISUALSTYLE
  5
205
102
{ACAD_XDICTIONARY
360
25C
102
}
102
{ACAD_REACTORS
330
28
102
}
330
28
100
AcDbVisualStyle
  2
ColorChange
 70
    16
 71
     2
 72
     2
 73
     3
 90
        0
 40
-0.6
 41
-30.0
 62
     5
 63
     8
421
  8421504
 74
     1
 91
        4
 64
     7
 65
   257
 75
     1
175
     1
 42
1.0
 92
        8
 66
     8
424
  8421504
 43
1.0
 76
     1
 77
     6
 78
     2
 67
     7
 79
     5
170
     0
171
     0
290
     0
174
     0
 93
        1
 44
0.0
173
     0
291
     1
 45
0.0
1001
ACAD
1000
AcDbSavedByObjectVersion
1070
     0
  0
VISUALSTYLE
  5
1FF
102
{ACAD_XDICTIONARY
360
250
102
}
102
{ACAD_REACTORS
330
28
102
}
330
28
100
AcDbVisualStyle
  2
Conceptual
 70
     9
 71
     3
 72
     2
 73
     0
 90
        0
 40
-0.6
 41
-30.0
 62
     5
 63
     7
421
 16777215
 74
     2
 91
        2
 64
     7
 65
   257
 75
     1
175
     1
 42
40.0
 92
        8
 66
     7
 43
1.0
 76
     1
 77
     6
 78
     2
 67
     7
 79
     3
170
     0
171
     0
290
     0
174
     0
 93
        1
 44
0.0
173
     0
291
     0
 45
0.0
1001
ACAD
1000
AcDbSavedByObjectVersion
1070
     0
  0
VISUALSTYLE
  5
200
102
{ACAD_XDICTIONARY
360
252
102
}
102
{ACAD_REACTORS
330
28
102
}
330
28
100
AcDbVisualStyle
  2
Dim
 70
    11
 71
     2
 72
     2
 73
     0
 90
        0
 40
-0.6
 41
-30.0
 62
     5
 63
     7
421
 16777215
 74
     1
 91
        4
 64
     7
 65
   257
 75
     1
175
     1
 42
1.0
 92
        8
 66
     7
 43
1.0
 76
     1
 77
     6
 78
     2
 67
     7
 79
     5
170
     0
171
     0
290
     0
174
     0
 93
        1
 44
-50.0
173
     0
291
     1
 45
0.0
1001
ACAD
1000
AcDbSavedByObjectVersion
1070
     0
  0
VISUALSTYLE
  5
204
102
{ACAD_XDICTIONARY
360
25A
102
}
102
{ACAD_REACTORS
330
28
102
}
330
28
100
AcDbVisualStyle
  2
Facepattern
 70
    15
 71
     2
 72
     2
 73
     0
 90
        0
 40
-0.6
 41
-30.0
 62
     5
 63
     7
421
 16777215
 74
     1
 91
        4
 64
     7
 65
   257
 75
     1
175
     1
 42
1.0
 92
        8
 66
     7
 43
1.0
 76
     1
 77
     6
 78
     2
 67
     7
 79
     5
170
     0
171
     0
290
     0
174
     0
 93
        1
 44
0.0
173
     0
291
     1
 45
0.0
1001
ACAD
1000
AcDbSavedByObjectVersion
1070
     0
  0
VISUALSTYLE
  5
1F9
102
{ACAD_XDICTIONARY
360
244
102
}
102
{ACAD_REACTORS
330
28
102
}
330
28
100
AcDbVisualStyle
  2
Flat
 70
     0
 71
     2
 72
     1
 73
     1
 90
        2
 40
-0.6
 41
30.0
 62
     5
 63
     7
421
 16777215
 74
     0
 91
        4
 64
     7
 65
   257
 75
     1
175
     1
 42
1.0
 92
        8
 66
     7
 43
1.0
 76
     1
 77
     6
 78
     2
 67
     7
 79
     5
170
     0
171
     0
290
     0
174
     0
 93
       13
 44
0.0
173
     0
291
     1
 45
0.0
1001
ACAD
1000
AcDbSavedByObjectVersion
1070
     0
  0
VISUALSTYLE
  5
1FA
102
{ACAD_XDICTIONARY
360
246
102
}
102
{ACAD_REACTORS
330
28
102
}
330
28
100
AcDbVisualStyle
  2
FlatWithEdges
 70
     1
 71
     2
 72
     1
 73
     1
 90
        2
 40
-0.6
 41
30.0
 62
     5
 63
     7
421
 16777215
 74
     1
 91
        4
 64
     7
 65
   257
 75
     1
175
     1
 42
1.0
 92
        0
 66
   257
 43
1.0
 76
     1
 77
     6
 78
     2
 67
     7
 79
     5
170
     0
171
     0
290
     0
174
     0
 93
       13
 44
0.0
173
     0
291
     1
 45
0.0
1001
ACAD
1000
AcDbSavedByObjectVersion
1070
     0
  0
VISUALSTYLE
  5
1FB
102
{ACAD_XDICTIONARY
360
248
102
}
102
{ACAD_REACTORS
330
28
102
}
330
28
100
AcDbVisualStyle
  2
Gouraud
 70
     2
 71
     2
 72
     2
 73
     1
 90
        2
 40
-0.6
 41
30.0
 62
     5
 63
     7
421
 16777215
 74
     0
 91
        4
 64
     7
 65
   257
 75
     1
175
     1
 42
1.0
 92
        0
 66
     7
 43
1.0
 76
     1
 77
     6
 78
     2
 67
     7
 79
     5
170
     0
171
     0
290
     0
174
     0
 93
       13
 44
0.0
173
     0
291
     1
 45
0.0
1001
ACAD
1000
AcDbSavedByObjectVersion
1070
     0
  0
VISUALSTYLE
  5
1FC
102
{ACAD_XDICTIONARY
360
24A
102
}
102
{ACAD_REACTORS
330
28
102
}
330
28
100
AcDbVisualStyle
  2
GouraudWithEdges
 70
     3
 71
     2
 72
     2
 73
     1
 90
        2
 40
-0.6
 41
30.0
 62
     5
 63
     7
421
 16777215
 74
     1
 91
        4
 64
     7
 65
   257
 75
     1
175
     1
 42
1.0
 92
        0
 66
   257
 43
1.0
 76
     1
 77
     6
 78
     2
 67
     7
 79
     5
170
     0
171
     0
290
     0
174
     0
 93
       13
 44
0.0
173
     0
291
     1
 45
0.0
1001
ACAD
1000
AcDbSavedByObjectVersion
1070
     0
  0
VISUALSTYLE
  5
203
102
{ACAD_XDICTIONARY
360
258
102
}
102
{ACAD_REACTORS
330
28
102
}
330
28
100
AcDbVisualStyle
  2
Linepattern
 70
    14
 71
     2
 72
     2
 73
     0
 90
        0
 40
-0.6
 41
-30.0
 62
     5
 63
     7
421
 16777215
 74
     1
 91
        4
 64
     7
 65
   257
 75
     7
175
     7
 42
1.0
 92
        8
 66
     7
 43
1.0
 76
     1
 77
     6
 78
     2
 67
     7
 79
     5
170
     0
171
     0
290
     0
174
     0
 93
        1
 44
0.0
173
     0
291
     1
 45
0.0
1001
ACAD
1000
AcDbSavedByObjectVersion
1070
     0
  0
VISUALSTYLE
  5
3A
102
{ACAD_XDICTIONARY
360
240
102
}
102
{ACAD_REACTORS
330
28
102
}
330
28
100
AcDbVisualStyle
  2
Realistic
 70
     8
 71
     2
 72
     2
 73
     1
 90
        0
 40
-0.6
 41
-30.0
 62
     5
 63
     7
 74
     1
 91
        0
 64
     7
 65
   257
 75
     1
175
     1
 42
1.0
 92
        8
 66
     8
 43
1.0
 76
     1
 77
     6
 78
     2
 67
     7
 79
     5
170
     0
171
     0
290
     0
174
     0
 93
       13
 44
0.0
173
     0
291
     0
 45
0.0
1001
ACAD
1000
AcDbSavedByObjectVersion
1070
     0
  0
VISUALSTYLE
  5
202
102
{ACAD_XDICTIONARY
360
256
102
}
102
{ACAD_REACTORS
330
28
102
}
330
28
100
AcDbVisualStyle
  2
Thicken
 70
    13
 71
     2
 72
     2
 73
     0
 90
        0
 40
-0.6
 41
-30.0
 62
     5
 63
     7
421
 16777215
 74
     1
 91
        4
 64
     7
 65
   257
 75
     1
175
     1
 42
1.0
 92
       12
 66
     7
 43
1.0
 76
     1
 77
     6
 78
     2
 67
     7
 79
     5
170
     0
171
     0
290
     0
174
     0
 93
        1
 44
0.0
173
     0
291
     1
 45
0.0
1001
ACAD
1000
AcDbSavedByObjectVersion
1070
     0
  0
DICTIONARYVAR
  5
237
102
{ACAD_REACTORS
330
1F6
102
}
330
1F6
100
DictionaryVariables
280
     0
  1
STANDARD
  0
DICTIONARYVAR
  5
1F7
102
{ACAD_REACTORS
330
1F6
102
}
330
1F6
100
DictionaryVariables
280
     0
  1
STANDARD
  0
DICTIONARY
  5
15
330
14
100
AcDbDictionary
280
     1
281
     1
  3
ADSK_XREC_LAYOUTTHUMBNAIL
360
16
  0
DICTIONARY
  5
23C
330
39
100
AcDbDictionary
280
     1
281
     1
  3
ACAD_ROUNDTRIP_2008_TABLESTYLE_CELLSTYLEMAP
360
23E
  3
ACAD_XREC_ROUNDTRIP
360
23D
  0
DICTIONARY
  5
23A
330
27
100
AcDbDictionary
280
     1
281
     1
  3
ACAD_XREC_ROUNDTRIP
360
23B
  0
DICTIONARY
  5
24E
330
1FE
100
AcDbDictionary
280
     1
281
     1
  3
ACAD_XREC_ROUNDTRIP
360
24F
  0
DICTIONARY
  5
242
330
3B
100
AcDbDictionary
280
     1
281
     1
  3
ACAD_XREC_ROUNDTRIP
360
243
  0
DICTIONARY
  5
24C
330
1FD
100
AcDbDictionary
280
     1
281
     1
  3
ACAD_XREC_ROUNDTRIP
360
24D
  0
DICTIONARY
  5
254
330
201
100
AcDbDictionary
280
     1
281
     1
  3
ACAD_XREC_ROUNDTRIP
360
255
  0
DICTIONARY
  5
25C
330
205
100
AcDbDictionary
280
     1
281
     1
  3
ACAD_XREC_ROUNDTRIP
360
25D
  0
DICTIONARY
  5
250
330
1FF
100
AcDbDictionary
280
     1
281
     1
  3
ACAD_XREC_ROUNDTRIP
360
251
  0
DICTIONARY
  5
252
330
200
100
AcDbDictionary
280
     1
281
     1
  3
ACAD_XREC_ROUNDTRIP
360
253
  0
DICTIONARY
  5
25A
330
204
100
AcDbDictionary
280
     1
281
     1
  3
ACAD_XREC_ROUNDTRIP
360
25B
  0
DICTIONARY
  5
244
330
1F9
100
AcDbDictionary
280
     1
281
     1
  3
ACAD_XREC_ROUNDTRIP
360
245
  0
DICTIONARY
  5
246
330
1FA
100
AcDbDictionary
280
     1
281
     1
  3
ACAD_XREC_ROUNDTRIP
360
247
  0
DICTIONARY
  5
248
330
1FB
100
AcDbDictionary
280
     1
281
     1
  3
ACAD_XREC_ROUNDTRIP
360
249
  0
DICTIONARY
  5
24A
330
1FC
100
AcDbDictionary
280
     1
281
     1
  3
ACAD_XREC_ROUNDTRIP
360
24B
  0
DICTIONARY
  5
258
330
203
100
AcDbDictionary
280
     1
281
     1
  3
ACAD_XREC_ROUNDTRIP
360
259
  0
DICTIONARY
  5
240
330
3A
100
AcDbDictionary
280
     1
281
     1
  3
ACAD_XREC_ROUNDTRIP
360
241
  0
DICTIONARY
  5
256
330
202
100
AcDbDictionary
280
     1
281
     1
  3
ACAD_XREC_ROUNDTRIP
360
257
  0
XRECORD
  5
16
102
{ACAD_REACTORS
330
15
102
}
330
15
100
AcDbXrecord
280
     1
310
28000000B40000007F00000001000800000000004C59000000000000000000000001000000000000FFFFFF0000000000FFFFFF000000000000000000000000000000000000000000000000000000000000000000330000006600000099000000CC000000FF00000000330000333300006633000099330000CC330000FF3300
310
0000660000336600006666000099660000CC660000FF66000000990000339900006699000099990000CC990000FF99000000CC000033CC000066CC000099CC0000CCCC0000FFCC000000FF000033FF000066FF000099FF0000CCFF0000FFFF000000003300330033006600330099003300CC003300FF003300003333003333
310
33006633330099333300CC333300FF33330000663300336633006666330099663300CC663300FF66330000993300339933006699330099993300CC993300FF99330000CC330033CC330066CC330099CC3300CCCC3300FFCC330000FF330033FF330066FF330099FF3300CCFF3300FFFF330000006600330066006600660099
310
006600CC006600FF00660000336600333366006633660099336600CC336600FF33660000666600336666006666660099666600CC666600FF66660000996600339966006699660099996600CC996600FF99660000CC660033CC660066CC660099CC6600CCCC6600FFCC660000FF660033FF660066FF660099FF6600CCFF6600
310
FFFF660000009900330099006600990099009900CC009900FF00990000339900333399006633990099339900CC339900FF33990000669900336699006666990099669900CC669900FF66990000999900339999006699990099999900CC999900FF99990000CC990033CC990066CC990099CC9900CCCC9900FFCC990000FF99
310
0033FF990066FF990099FF9900CCFF9900FFFF99000000CC003300CC006600CC009900CC00CC00CC00FF00CC000033CC003333CC006633CC009933CC00CC33CC00FF33CC000066CC003366CC006666CC009966CC00CC66CC00FF66CC000099CC003399CC006699CC009999CC00CC99CC00FF99CC0000CCCC0033CCCC0066CC
310
CC0099CCCC00CCCCCC00FFCCCC0000FFCC0033FFCC0066FFCC0099FFCC00CCFFCC00FFFFCC000000FF003300FF006600FF009900FF00CC00FF00FF00FF000033FF003333FF006633FF009933FF00CC33FF00FF33FF000066FF003366FF006666FF009966FF00CC66FF00FF66FF000099FF003399FF006699FF009999FF00CC
310
99FF00FF99FF0000CCFF0033CCFF0066CCFF0099CCFF00CCCCFF00FFCCFF0000FFFF0033FFFF0066FFFF0099FFFF00CCFFFF00FFFFFF00000000000D0D0D001A1A1A00282828003535350043434300505050005D5D5D006B6B6B00787878008686860093939300A1A1A100AEAEAE00BBBBBB00C9C9C900D6D6D600E4E4E400
310
F1F1F100FFFFFF0000000000000000000000000000000000000000000000000000000000000000000000000000000000E2E2E2E2E2E2E2E2E2E2E2E2E2E2E2E2E2E2E2E2E2E2E2E2E2E2E2E2E2E2E2E2E2E2E2E2E2E2E2E2E2E2E2E2E2E2E2E2E2E2E2E2E2E2E2E2E2E2E2E2E2E2E2E2E2E2E2E2E2E2E2E2E2E2E2E2E2E2E2
310
E2E2E2E2E2E2E2E2E2E2E2E2E2E2E2E2E2E2E2E2E2E2E2E2E2E2E2E2E2E2E2E2E2E2E2E2E2E2E2E2E2E2E2E2E2E2E2E2E2E2E2E2E2E2E2E2E2E2E2E2E2E2E2E2E2E2E2E2E2E2E2E2E2E2E2E2E2E2E2E2E2E2E2E2E2E2E2E2E2E2E2E2E2E2E2E2E2E2E2E2E2E2F5F5F5F5F5F5F5F5F5F5F5F5F5F5F5F5F5F5F5F5F5F5F5F5F5
310
F5F5F5F5F5F5F5F5F5F5F5F5F5F5F5F5F5F5F5F5F5F5F5F5F5F5F5F5F5F5F5F5F5F5F5F5F5F5F5F5F5F5F5F5F5F5F5F5F5F5F5F5F5F5F5F5F5F5F5F5F5F5F5F5F5F5F5F5F5F5F5F5F5F5F5F5F5F5F5F5F5F5F5F5F5F5F5F5F5F5F5F5F5F5F5F5F5F5F5F5F5F5F5F5F5F5F5F5F5F5F5F5F5F5F5F5F5F5F5F5F5F5F5F5F5F5F5
310
F5F5F5F5F5F5F5F5F5F5F5F5F5F5F5F5F5F5F5F5F5F5F5F5F5F5E2E2F5F5F5F5F5F5F5F5F5F5F5F5F5F5F5F5F5F5F5F5F5F5F5F5F5F5F5F5F5F5F5F5F5F5F5F5F5F5F5F5F5F5F5F5F5F5F5F5F5F5F5F5F5F5F5F5F5F5F5F5F5F5F5F5F5F5F5F5F5F5F5F5F5F5F5F5F5F5F5F5F5F5F5F5F5F5F5F5F5F5F5F5F5F5F5F5F5F5F5
310
F5F5F5F5F5F5F5F5F5F5F5F5F5F5F5F5F5F5F5F5F5F5F5F5F5F5F5F5F5F5F5F5F5F5F5F5F5F5F5F5F5F5F5F5F5F5F5F5F5F5F5F5F5F5F5F5F5F5F5F5F5F5F5F5F5F5F5F5F5F5F5F5F5F5F5F5F5F5F5E2E2F5F5F5F5F5F5F5F5F5F5F5F5F5F5F5F5F5F5F5F5F5F5F5F5F5F5F5F5F5F5F5F5F5F5F5F5F5F5F5F5F5F5F5F5F5F5
310
F5F5F5F5F5F5F5F5F5F5F5F5F5F5F5F5F5F5F5F5F5F5F5F5F5F5F5F5F5F5F5F5F5F5F5F5F5F5F5F5F5F5F5F5F5F5F5F5F5F5F5F5F5F5F5F5F5F5F5F5F5F5F5F5F5F5F5F5F5F5F5F5F5F5F5F5F5F5F5F5F5F5F5F5F5F5F5F5F5F5F5F5F5F5F5F5F5F5F5F5F5F5F5F5F5F5F5F5F5F5F5F5F5F5F5F5F5F5F5F5F5F5F5F5F5F5F5
310
F5F5F5F5F5E2E2F5F5F5F5F5F5F5F5F5F5F5F5F5F5F5F5F5F5F5F5F5F5F5F5F5F5F5F5F5F5F5F5F5F5F5F5F5F5F5F5F5F5F5F5F5F5F5F5F5F5F5F5F5F5F5F5F5F5F5F5F5F5F5F5F5F5F5F5F5F5F5F5F5F5F5F5F5F5F5F5F5F5F5F5F5F5F5F5F5F5F5F5F5F5F5F5F5F5F5F5F5F5F5F5F5F5F5F5F5F5F5F5F5F5F5F5F5F5F5F5
310
F5F5F5F5F5F5F5F5F5F5F5F5F5F5F5F5F5F5F5F5F5F5F5F5F5F5F5F5F5F5F5F5F5F5F5F5F5F5F5F5F5F5F5F5F5F5F5F5F5F5F5F5F5F5F5F5F5F5E2E2F5F5F5F5F5F5F5F5F5F5F5E2E2E2E2E2E2E2E2E2F5F5F5F5F5F5F5F5F5E2E2E2E2E2E2E2E2E2E2E2E2E2E2E2E2E2F5F5F5F5F5F5F5F5F5E2E2E2E2E2E2E2E2E2E2E2E2
310
E2E2E2E2F5F5F5F5F5F5F5F5F5F5E2E2E2E2E2E2E2E2E2E2E2E2E2E2E2E2F5F5F5F5F5F5F5F5F5F5E2E2E2E2E2E2E2E2E2E2E2E2E2E2E2E2F5F5F5F5F5F5F5F5F5E2E2E2E2E2E2E2E2E2E2E2E2E2E2E2E2E2F5F5F5F5F5F5F5F5F5E2E2E2E2E2E2E2E2E2F5F5F5F5F5F5F5F5F5F5F5E2E2F5F5F5F5F5F5F5F5F5F5F5E2F5F5
310
F5F5F5F5F5F5F5F5F5F5F5F5F5F5F5F5F5F5F5F5F5F5F5F5F5F5F5F5F5F5F5F5F5F5F5F5F5F5F5F5F5F5F5F5F5F5F5F5F5F5F5F5F5F5F5F5F5F5F5F5F5F5F5F5F5F5F5F5F5F5F5F5F5F5F5F5F5F5F5F5F5F5F5F5F5F5F5F5F5F5F5F5F5F5F5F5F5F5F5F5F5F5F5F5F5F5F5F5F5F5F5F5F5F5F5F5F5F5F5F5F5F5F5F5F5F5F5
310
F5F5F5F5F5F5F5F5F5F5F5F5F5F5F5F5F5F5F5F5F5F5F5F5F5E2F5F5F5F5F5F5F5F5F5F5F5E2E2F5F5F5F5F5F5F5F5F5F5F5E2F5F5F5F5F5F5F5F5F5F5F5F5F5F5F5F5F5F5F5F5F5F5F5F5F5F5F5F5F5F5F5F5F5F5F5F5F5F5F5F5F5F5F5F5F5F5F5F5F5F5F5F5F5F5F5F5F5F5F5F5F5F5F5F5F5F5F5F5F5F5F5F5F5F5F5F5
310
F5F5F5F5F5F5F5F5F5F5F5F5F5F5F5F5F5F5F5F5F5F5F5F5F5F5F5F5F5F5F5F5F5F5F5F5F5F5F5F5F5F5F5F5F5F5F5F5F5F5F5F5F5F5F5F5F5F5F5F5F5F5F5F5F5F5F5F5F5F5F5F5F5F5F5F5F5F5E2F5F5F5F5F5F5F5F5F5F5F5E2E2F5F5F5F5F5F5F5F5F5F5F5E2F5F5F5F5F5F5F5F5F5F5F5F5F5F5F5F5F5F5F5F5F5F5F5
310
F5F5F5F5F5F5F5F5F5F5F5F5F5F5F5F5F5F5F5F5F5F5F5F5F5F5F5F5F5F5F5F5F5F5F5F5F5F5F5F5F5F5F5F5F5F5F5F5F5F5F5F5F5F5F5F5F5F5F5F5F5F5F5F5F5F5F5F5F5F5F5F5F5F5F5F5F5F5F5F5F5F5F5F5F5F5F5F5F5F5F5F5F5F5F5F5F5F5F5F5F5F5F5F5F5F5F5F5F5F5F5F5F5F5F5F5F5F5F5F5F5F5F5F5F5F5F5
310
F5F5F5F5E2F5F5F5F5F5F5F5F5F5F5F5E2E2F5F5F5F5F5F5F5F5F5F5F5E2F5F5F5F5F5F5F5F5F5F5F5F5F5F5F5F5F5F5F5F5F5F5F5F5F5F5F5F5F5F5F5F5F5F5F5F5F5F5F5F5F5F5F5F5F5F5F5F5F5F5F5F5F5F5F5F5F5F5F5F5F5F5F5F5F5F5F5F5F5F5F5F5F5F5F5F5F5F5F5F5F5F5F5F5F5F5F5F5F5F5F5F5F5F5F5F5F5
310
F5F5F5F5F5F5F5F5F5F5F5F5F5F5F5F5F5F5F5F5F5F5F5F5F5F5F5F5F5F5F5F5F5F5F5F5F5F5F5F5F5F5F5F5F5F5F5F5F5F5F5F5F5F5F5F5F5E2F5F5F5F5F5F5F5F5F5F5F5E2E2F5F5F5F5F5F5F5F5F5F5F5E2F5F5F5F5F5F5F5F5F5F5F5F5F5F5F5F5F5F5F5F5F5F5F5F5F5F5F5F5F5F5F5F5F5F5F5F5F5F5F5F5F5F5F5F5
310
F5F5F5F5F5F5F5F5F5F5F5F5F5F5F5F5F5F5F5F5F5F5F5F5F5F5F5F5F5F5F5F5F5F5F5F5F5F5F5F5F5F5F5F5F5F5F5F5F5F5F5F5F5F5F5F5F5F5F5F5F5F5F5F5F5F5F5F5F5F5F5F5F5F5F5F5F5F5F5F5F5F5F5F5F5F5F5F5F5F5F5F5F5F5F5F5F5F5F5F5F5F5F5F5F5F5F5F5F5F5E2F5F5F5F5F5F5F5F5F5F5F5E2E2F5F5F5
310
F5F5F5F5F5F5F5F5E2F5F5F5F5F5F5F5F5F5F5F5F5F5F5F5F5F5F5F5F5F5F5F5F5F5F5F5F5F5F5F5F5F5F5F5F5F5F5F5F5F5F5F5F5F5F5F5F5F5F5F5F5F5F5F5F5F5F5F5F5F5F5F5F5F5F5F5F5F5F5F5F5F5F5F5F5F5F5F5F5F5F5F5F5F5F5F5F5F5F5F5F5F5F5F5F5F5F5F5F5F5F5F5F5F5F5F5F5F5F5F5F5F5F5F5F5F5F5
310
F5F5F5F5F5F5F5F5F5F5F5F5F5F5F5F5F5F5F5F5F5F5F5F5F5F5F5F5F5F5F5F5F5F5F5F5E2F5F5F5F5F5F5F5F5F5F5F5E2E2F5F5F5F5F5F5F5F5F5F5F5E2F5F5F5F5F5F5F5F5F5F5F5F5F5F5F5F5F5F5F5F5F5F5F5F5F5F5F5F5F5F5F5F5F5F5F5F5F5F5F5F5F5F5F5F5F5F5F5F5F5F5F5F5F5F5F5F5F5F5F5F5F5F5F5F5F5
310
F5F5F5F5F5F5F5F5F5F5F5F5F5F5F5F5F5F5F5F5F5F5F5F5F5F5F5F5F5F5F5F5F5F5F5F5F5F5F5F5F5F5F5F5F5F5F5F5F5F5F5F5F5F5F5F5F5F5F5F5F5F5F5F5F5F5F5F5F5F5F5F5F5F5F5F5F5F5F5F5F5F5F5F5F5F5F5F5F5E2F5F5F5F5F5F5F5F5F5F5F5E2E2F5F5F5F5F5F5F5F5F5F5F5F5F5F5F5F5F5F5F5F5F5F5F5F5
310
F5F5F5F5F5F5F5F5F5F5F5F5F5F5F5F5F5F5F5F5F5F5F5F5F5F5F5F5F5F5F5F5F5F5F5F5F5F5F5F5F5F5F5F5F5F5F5F5F5F5F5F5F5F5F5F5F5F5F5F5F5F5F5F5F5F5F5F5F5F5F5F5F5F5F5F5F5F5F5F5F5F5F5F5F5F5F5F5F5F5F5F5F5F5F5F5F5F5F5F5F5F5F5F5F5F5F5F5F5F5F5F5F5F5F5F5F5F5F5F5F5F5F5F5F5F5F5
310
F5F5F5F5F5F5F5F5F5F5F5F5F5F5F5F5F5F5F5F5F5F5F5F5F5F5F5E2E2F5F5F5F5F5F5F5F5F5F5F5F5F5F5F5F5F5F5F5F5F5F5F5F5F5F5F5F5F5F5F5F5F5F5F5F5F5F5F5F5F5F5F5F5F5F5F5F5F5F5F5F5F5F5F5F5F5F5F5F5F5F5F5F5F5F5F5F5F5F5F5F5F5F5F5F5F5F5F5F5F5F5F5F5F5F5F5F5F5F5F5F5F5F5F5F5F5F5
310
F5F5F5F5F5F5F5F5F5F5F5F5F5F5F5F5F5F5F5F5F5F5F5F5F5F5F5F5F5F5F5F5F5F5F5F5F5F5F5F5F5F5F5F5F5F5F5F5F5F5F5F5F5F5F5F5F5F5F5F5F5F5F5F5F5F5F5F5F5F5F5F5F5F5F5F5F5F5F5F5E2E2F5F5F5F5F5F5F5F5F5F5F5F5F5F5F5F5F5F5F5F5F5F5F5F5F5F5F5F5F5F5F5F5F5F5F5F5F5F5F5F5F5F5F5F5F5
310
F5F5F5F5F5F5F5F5F5F5F5F5F5F5F5F5F5F5F5F5F5F5F5F5F5F5F5F5F5F5F5F5F5F5F5F5F5F5F5F5F5F5F5F5F5F5F5F5F5F5F5F5F5F5F5F5F5F5F5F5F5F5F5F5F5F5F5F5F5F5F5F5F5F5F5F5F5F5F5F5F5F5F5F5F5F5F5F5F5F5F5F5F5F5F5F5F5F5F5F5F5F5F5F5F5F5F5F5F5F5F5F5F5F5F5F5F5F5F5F5F5F5F5F5F5F5F5
310
F5F5F5F5F5F5E2E2F5F5F5F5F5F5F5F5F5F5F5F5F5F5F5F5F5F5F5F5F5F5F5F5F5F5F52828282828282828282828282828282828282828282828282828282828282828282828282828282828282828282828282828282828282828282828282828282828282828282828282828282828282828282828282828282828282828
310
2828282828282828282828282828282828282828282828282828282828282828F5F5F5F5F5F5F5F5F5F5F5F5F5F5F5F5F5F5F5F5F5F5F5F5F5F5F5E2E2F5F5F5F5F5F5F5F5F5F5F5F5F5F5F5F5F5F5F5F5F5F5F5F5F5F5F528F5F5F5F5F5F5F5F5F5F5F5F5F5F5F5F5F5F5F5F5F5F5F5F5F5F5F5F5F5F5F5F5F5F5F5F5F5F5
310
F5F5F5F5F5F5F5F5F5F5F5F5F5F5F5F5F5F5F5F5F5F5F5F5F5F5F5F5F5F5F5F5F5F5F5F5F5F5F5F5F5F5F5F5F5F5F5F5F5F5F5F5F5F5F5F5F5F5F5F5F5F5F5F5F5F5F5F5F5F5F5F5F5F5F5F5F5F5F5F5F5F5F5F528F5F5F5F5F5F5F5F5F5F5F5F5F5F5F5F5F5F5F5F5F5F5F5F5F5F5F5E2E2F5F5F5F5F5F5F5F5F5F5F5F5F5
310
F5F5F5F5F5F5F5F5F5F5F5F5F5F528F5F5F5F5F5F5F5F5F5F5F5F5F5F5F5F5F5F5F5F5F5F5F5F5F5F5F5F5F5F5F5F5F5F5F5F5F5F5F5F5F5F5F5F5F5F5F5F5F5F5F5F5F5F5F5F5F5F5F5F5F5F5F5F5F5F5F5F5F5F5F5F5F5F5F5F5F5F5F5F5F5F5F5F5F5F5F5F5F5F5F5F5F5F5F5F5F5F5F5F5F5F5F5F5F5F5F5F5F5F5F5F5
310
F5F5F5F5F5F5F5F5F5F528F5F5F5F5F5F5F5F5F5F5F5F5F5F5F5F5F5F5F5F5F5F5F5F5F5F5F5E2E2F5F5F5F5F5F5F5F5F5F5F5F5F5F5F5F5F5F5F5F5F5F5F5F5F5F5F528F5F5F5F5F5F5F5F5F5F5F5F5F5F5F5F5F5F5F5F5F5F5F5F5F5F5F5F5F5F5F5F5F5F5F5F5F5F5F5F5F5F5F5F5F5F5F5F5F5F5F5F5F5F5F5F5F5F5F5
310
F5F5F5F5F5F5F5F5F5F5F5F5F5F5F5F5F5F5F5F5F5F5F5F5F5F5F5F5F5F5F5F5F5F5F5F5F5F5F5F5F5F5F5F5F5F5F5F5F5F5F5F5F5F5F5F5F5F5F5F5F5F5F528F5F5F5F5F5F5F5F5F5F5F5F5F5F5F5F5F5F5F5F5F5F5F5F5F5F5F5E2E2F5F5F5F5F5F5F5F5F5F5F5F5F5F5F5F5F5F5F5F5F5F5F5F5F5F5F528F5F5F5F5F5F5
310
F5F5F5F5F5F5F5F5F5F5F5F5F5F5F5F5F5F5F5F5F5F5F5F5F5F5F5F5F5F5F5F5F5F5F5F5F5F5F5F5F5F5F5F5F5F5F5F5F5F5F5F5F5F5F5F5F5F5F5F5F5F5F5F5F5F5F5F5F5F5F5F5F5F5F5F5F5F5F5F5F5F5F5F5F5F5F5F5F5F5F5F5F5F5F5F5F5F5F5F5F5F5F5F5F5F5F5F5F5F5F5F5F5F5F5F528F5F5F5F5F5F5F5F5F5F5
310
F5F5F5F5F5F5F5F5F5F5F5F5F5F5F5F5F5E2E2F5F5F5F5F5F5F5F5F5F5F5E2F5F5F5F5F5F5F5F5F5F5F5F5F5F5F528F5F5F5F5F5F5F5F5F5F5F5F5F5F5F5F5F5E2E2E2E2E2E2E2E2E2E2E2E2E2E2E2F5F5F5F5F5F5F5F5F5F5F5F5F5F5F5F5F5F5F5F5F5F5F5F5F5F5F5F5F5F5F5F5F5F5F5F5F5F5F5F5F5F5F5F5F5F5F5F5
310
F5F5F5F5F5F5F5F5F5F5F5F5F5F5F5F5F5F5F5F5F5F5F5F5F5F5F5F5F5F5F5F5F5F5F5F5F5F5F5F5F5F528F5F5F5F5F5F5F5F5F5F5F5F5F5F5F5E2F5F5F5F5F5F5F5F5F5F5F5E2E2F5F5F5F5F5F5F5F5F5F5F5E2F5F5F5F5F5F5F5F5F5F5F5F5F5F5F528F5F5F5F5F5F5F5F5F5F5F5F5F5F5F5E2E2E20F0F0F0F0FF5F5F5F5
310
F5E2E2F5E2F5F5F5F5F5F5F5F5F5F5F5F5F5F5F5F5F5F5F5F5F5F5F5F5F5F5F5F5F5F5F5F5F5F5F5F5F5F5F5F5F5F5F5F5F5F5F5F5F5F5F5F5F5F5F5F5F5F5F5F5F5F5F5F5F5F5F5F5F5F5F5F5F5F5F5F5F5F5F5F5F5F5F5F5F5F5F5F5F5F528F5F5F5F5F5F5F5F5F5F5F5F5F5F5F5E2F5F5F5F5F5F5F5F5F5F5F5E2E2F5F5
310
F5F5F5F5F5F5F5F5F5E2F5F5F5F5F5F5F5F5F5F5F5F5F5F5F528F5F5F5F5F5F5F5F5F5F5F5F5F5F5F5E20F0F0F0F0F0F0F0FF5E2F5F5E2F5E2E2F5F5F5F5F5F5F5F5F5F5F5F5F5F5F5F5F5F5F5F5F5F5F5F5F5F5F5F5F5F5F5F5F5F5F5F5F5F5F5F5F5F5F5F5F5F5F5F5F5F5F5F5F5F5F5F5F5F5F5F5F5F5F5F5F5F5F5F5F5
310
F5F5F5F5F5F5F5F5F5F5F5F5F5F5F5F5F5F5F5F5F528F5F5F5F5F5F5F5F5F5F5F5F5F5F5F5E2F5F5F5F5F5F5F5F5F5F5F5E2E2F5F5F5F5F5F5F5F5F5F5F5E2F5F5F5F5F5F5F5F5F5F5F5F5F5F5F528F5F5F5F5F5F5F5F5F5F5F5F5F5F5E2E20F0FF5F5E2E2E2E20FE2F5F5E2E2E2E2F5F5F5F5F5F5F5F5F5F5F5F5F5F5F5F5
310
F5F5F5F5F5F5F5F5F5F5F5F5F5F5F5F5F5F5F5F5F5F5F5F5F5F5F5F5F5F5F5F5F5F5F5F5F5F5F5F5F5F5F5F5F5F5F5F5F5F5F5F5F5F5F5F5F5F5F5F5F5F5F5F5F5F5F5F5F5F5F5F5F5F528F5F5F5F5F5F5F5F5F5F5F5F5F5F5F5E2F5F5F5F5F5F5F5F5F5F5F5E2E2F5F5F5F5F5F5F5F5F5F5F5E2F5F5F5F5F5F5F5F5F5F5F5
310
F5F5F5F528F5F5F5F5F5F5F5F5F5F5F5F5F5F5E20F0FF5F5E2E2F5F5E20FF5F5F5E2E2E2E2F5F5F5F5F5F5F5F5F5F5F5F5F5F5F5F5F5F5F5E2E2F5F5F5F5F5F5F5F5F5F5F5F5F5F5F5F5F5F5F5F5F5F5F5F5F5F5F5F5F5F5F5F5F5F5F5F5F5F5F5F5F5F5F5F5F5F5F5F5F5F5F5F5F5F5F5F5F5F5F5F5F5F5F5F5F5F5F5F5F5
310
28F5F5F5F5F5F5F5F5F5F5F5F5F5F5F5E2F5F5F5F5F5F5F5F5F5F5F5E2E2F5F5F5F5F5F5F5F5F5F5F5E2F5F5F5F5F5F5F5F5F5F5F5F5F5F5F528F5F5F5F5F5F5F5F5F5F5F5F5F5F5E20F0FF5F5E2E2F5F5E20FF5F5F5E2E2E2E2F5F5F5F5F5F5F5F5F5F5F5F5F5F5F5F5F5E2E2F5F5E2F5F5F5F5F5F5F5F5F5F5F5F5F5F5F5
310
F5F5F5F5F5F5F5F5F5F5F5F5F5F5F5F5F5F5F5F5F5F5F5F5F5F5F5F5F5F5F5F5F5F5F5F5F5F5F5F5F5F5F5F5F5F5F5F5F5F5F5F5F528F5F5F5F5F5F5F5F5F5F5F5F5F5F5F5E2F5F5F5F5F5F5F5F5F5F5F5E2E2F5F5F5F5F5F5F5F5F5F5F5E2F5F5F5F5F5F5F5F5F5F5F5F5F5F5F528F5F5F5F5F5F5F5F5F5F5F5F5F5F5E2F5
310
0FE2F5F5E2E2E2E20FF5F5F5E2E2E2E2F5F5F5F5F5F5F5F5F5F5F5F5F5F5E2E2E2E2E2E2E2E2F5F5F5F5F5F5F5F5F5F5F5F5F5F5F5F5F5F5F5F5F5F5F5F5F5F5F5F5E2E2E2E2E2E2E2E2E2E2E2F5F5F5F5F5F5F5F5F5F5F5F5F5F5F5F5F5F5F5F5F5F5F5F5F5F5F5F5F528F5F5F5F5F5F5F5F5F5F5F5F5F5F5F5E2F5F5F5F5
310
F5F5F5F5F5F5F5E2E2F5F5F5F5F5F5F5F5F5F5F5E2F5F5F5F5F5F5F5F5F5F5F5F5F5F5F528F5F5F5F5F5F5F5F5F5F5F5F5F5F5F5E20F0FE2E2E2E2E20F0FE2F5F5E2F5E2E2F5F5F5F5F5F5F5F5F5F5F5F5E2E2E2E2E2F5F5F5E2F5E2F5F5F5F5F5F5F5F5F5F5F5F5F5F5F5F5F5F5F5F5F5F5F5F5F5F5F5E2E2E2E2E2E2E2E2
310
F5F5E2F5F5F5F5F5F5F5F5F5F5F5F5F5F5F5F5F5F5F5F5F5F5F5F5F5F5F5F5F528F5F5F5F5F5F5F5F5F5F5F5F5F5F5F5E2F5F5F5F5F5F5F5F5F5F5F5E2E2F5F5F5F5F5F5F5F5F5F5F5E2F5F5F5F5F5F5F5F5F5F5F5F5F5F5F528F5F5F5F5F5F5F5F5F5F5F5F5F5F5F5E2E20F0F0F0F0F0F0FF5F5F5F5E2E2F5E2F5F5F5F5F5
310
F5F5F5F5F5E2E2E2E2E2E2F5F5F5F5E2E2E2F5F5F5F5F5F5F5F5F5F5F5F5F5F5F5F5F5F5F5F5F5F5F5F5F5F5F5E2E2E2E2E2F5E2E2E2F5E2F5F5F5F5F5F5F5F5F5F5F5F5F5F5F5F5F5F5F5F5F5F5F5F5F5F5F5F5F528F5F5F5F5F5F5F5F5F5F5F5F5F5F5F5E2F5F5F5F5F5F5F5F5F5F5F5E2E2F5F5F5F5F5F5F5F5F5F5F5E2
310
F5F5F5F5F5F5F5F5F5F5F5F5F5F5F528F5F5F5F5F5F5F5F5F5F5F5F5F5F5F5F5E2E2E2E2E2E2E2E2E2E2E2E2E2E2E2E2F5F5F5F5F5F5F5F5F5F5F5E2E2F5F5F5F5F5F5F5F5E2F5F5F5F5F5F5F5F5F5F5F5F5F5F5F5F5F5F5F5F5F5F5F5F5F5F5F5F5F5E2E2E2E2F5E2E2E2E2E2F5F5F5F5F5F5F5F5F5F5F5F5F5F5F5F5F5F5
310
F5F5F5F5F5F5F5F5F5F5F528F5F5F5F5F5F5F5F5F5F5F5F5F5F5F5E2F5F5F5F5F5F5F5F5F5F5F5E2E2F5F5F5F5F5F5F5F5F5F5F5E2F5F5F5F5F5F5F5F5F5F5F5F5F5F5F528F5F5F5F5F5F5F5F5F5F5F5F5F5F5F5F5F5F5F5F5F5F5F5F5F5F5F5F5F5F5F5F5F5F5F5F5F5F5F5F5F5F5F5E2E2F5F5F5F5F5F5F5F5E2F5F5F5F5
310
F5F5F5F5F5F5F5F5F5F5F5F5F5F5F5F5F5F5F5F5F5F5F5F5F52828282828E2E2F5E2E2F5F5F5F5F5F5F5F5F5F5F5F5F5F5F5F5F5F5F5F5F5F5F5F5F5F5F5F5F528F5F5F5F5F5F5F5F5F5F5F5F5F5F5F5E2F5F5F5F5F5F5F5F5F5F5F5E2E2F5F5F5F5F5F5F5F5F5F5F5E2F5F5F5F5F5F5F5F5F5F5F5F5F5F5F528F5F5F5F5F5
310
F5F5F5F5F5F5F5F5F5F5F5F5F5F5F5F5F5F5F5F5F5F5F5F5F5F5F5F5F5F5F5F5F5F5F5F5F5F5E2F5F5F5F5E2E2E2E2E2E2F5F5F5F5F5F5F5F5F5F5F5F5F5F5F5F5F5F5F5F5F5F5F5F5F5F5F5F5F5F5E2E2F5F5E2E2E2E2E2F5F5F5F5F5F5F5F5F5F5F5F5F5F5F5F5F5F5F5F5F5F5F5F5F5F5F5F5F528F5F5F5F5F5F5F5F5F5
310
F5F5F5F5F5F5E2F5F5F5F5F5F5F5F5F5F5F5E2E2F5F5F5F5F5F5F5F5F5F5F5E2F5F5F5F5F5F5F5F5F5F5F5F5F5F5F528F5F5F5F5F5F5F5F5F5F5F5F5F5F5F5F5F5F5F5F5F5F5F5F5F5F5F5F5F5F5F5F5F5F5F5F5F5F5F5F5F5F5F5E2F5F5F5E2E2E2F5F5E2E2E2F5F5F5F5F5F5F5F5F5F5F5F5F5F5F5F5F5F5F5F5F5F5F5F5
310
F5F5F5F5E2E2E2E2F5E2E2E2E2E2F5F5F5F5F5F5F5F5F5F5F5F5F5F5F5F5F5F5F5F5F5F5F5F5F5F5F5F5F528F5F5F5F5F5F5F5F5F5F5F5F5F5F5F5E2F5F5F5F5F5F5F5F5F5F5F5E2E2F5F5F5F5F5F5F5F5F5F5F5E2F5F5F5F5F5F5F5F5F5F5F5F5F5F5F528F5F5F5F5F5F5F5F5F5F5F5F5F5F5F5F5F5E2E2E2E2E2E2E2E2E2
310
E2E2E2E2E2E2F5F5F5F5F5F5F5F5F5F5F5E2F5E2E2E2E2E2E2E2E2E2F5F5F5F5F5F5F5F5F5F5F5F5F5F5F5F5F5F5F5F5F5F5F5F5F5F5F5F5E2E2E2E2E2F5E2E2E2F5E2F5F5F5F5F5F5F5F5F5F5F5F5F5F5F5F5F5F5F5F5F5F5F5F5F5F5F5F5F528F5F5F5F5F5F5F5F5F5F5F5F5F5F5F5E2F5F5F5F5F5F5F5F5F5F5F5E2E2F5
310
F5F5F5F5F5F5F5F5F5F5E2F5F5F5F5F5F5F5F5F5F5F5F5F5F5F528F5F5F5F5F5F5F5F5F5F5F5F5F5F5F5F5F5E2E2F5F5E2E2E2E2E2F5F5F5F5E2E2F5F5F5F5F5F5F5F5F5F5F5E2E2E2E2E2E2E2E2E2E2F5F5F5F5F5F5F5F5F5F5F5F5F5F5F5F5F5F5F5F5F5F5F5F5F5F5F5F5F5E2E2F5F5F5F5E2E2F5F5E2F5F5F5F5F5F5F5
310
F5F5F5F5F5F5F5F5F5F5F5F5F5F5F5F5F5F5F5F5F5F528F5F5F5F5F5F5F5F5F5F5F5F5F5F5F5E2F5F5F5F5F5F5F5F5F5F5F5E2E2F5F5F5F5F5F5F5F5F5F5F5F5F5F5F5F5F5F5F5F5F5F5F5F5F5F5F528F5F5F5F5F5F5F5F5F5F5F5F5F5F5F5F5F5E2E2E2F5E2E2F5F5E2F5F5F5F5F5E2F5F5F5F5F5F5F5F5F5F5F5F5E2E2E2
310
E2E2E2E2F5F5F5F5F5F5F5F5F5F5F5F5F5F5F5F5F5F5F5F5F5F5F5F5F5F5F5F5F5F5F5E2E2E2E2E2E2E2E2E2E2E2F5F5F5F5F5F5F5F5F5F5F5F5F5F5F5F5F5F5F5F5F5F5F5F5F5F5F5F5F528F5F5F5F5F5F5F5F5F5F5F5F5F5F5F5F5F5F5F5F5F5F5F5F5F5F5F5E2E2F5F5F5F5F5F5F5F5F5F5F5F5F5F5F5F5F5F5F5F5F5F5
310
F5F5F5F5F528F5F5F5F5F5F5F5F5F5F5F5F5F5F5F5F5E2E2F5E2E2E2F528F5E2F5F5F5F5F5E2F5F5F5F5F5F5F5F5F5F5F5F5F5F5E2E2E2F5F5F5F5F5F5F5F5F5F5F5F5F5F5F5F5F5F5F5F5F5F5F5F5F5F5F5F5F5F5F5F5F5F5F5F5F5F5F5F5F5F5F5F5F5F5F5F5F5F5F5F5F5F5F5F5F5F5F5F5F5F5F5F5F5F5F5F5F5F5F5F5
310
F528F5F5F5F5F5F5F5F5F5F5F5F5F5F5F5F5F5F5F5F5F5F5F5F5F5F5F5E2E2F5F5F5F5F5F5F5F5F5F5F5F5F5F5F5F5F5F5F5F5F5F5F5F5F5F5F528F5F5F5F5F5F5F5F5F5F5F5F5F5F5F5F5E2F5F5E2E2F5F5E2F5E2E2E2F5F5F5E2F5F5F5F5F5F5F5F5F5F5F5F5F5F5F5F5F5F5F5F5F5F5F5F5F5F5F5F5F5F5F5F5F5F5F5F5
310
F5F5F5F5F5F5F5F5F5F5F5F5F5F5F5F5F5F5F5F5F5F5F5F5F5F5F5F5F5F5F5F5F5F5F5F5F5F5F5F5F5F5F5F5F5F5F5F5F5F5F5F5F5F528F5F5F5F5F5F5F5F5F5F5F5F5F5F5F5F5F5F5F5F5F5F5F5F5F5F5F5E2E2F5F5F5F5F5F5F5F5F5F5F5F5F5F5F5F5F5F5F5F5F5F5F5F5F5F5F528F5F5F5F5F5F5F5F5F5F5F5F5F5F5F5
310
E2E2F5E2E2F5F5F5E2E2F5E2E2F5F5F5E2F5F5F5F5F5F5F5F5F5F5F5F5F5F5F5F5F5F5F5F5F5F5F5F5F5F5F5F5F5F5F5F5F5F5F5F5F5F5F5F5F5F5F5F5F5F5F5F5F5F5F5F5F5F5F5F5F5F5F5F5F5F5F5F5F5F5F5F5F5F5F5F5F5F5F5F5F5F5F5F5F5F5F5F5F5F5F5F5F5F528F5F5F5F5F5F5F5F5F5F5F5F5F5F5F5F5F5F5F5
310
F5F5F5F5F5F5F5F5E2E2F5F5F5F5F5F5F5F5F5F5F5F5F5F5F5F5F5F5F5F5F5F5F5F5F5F5F528F5F5F5F5F5F5F5F5F5F5F5F5F5F5F5E2E2E2E2F5F5F5F5E2E2E2E2E2F5F5F5E2F5F5F5F5F5F5F5F5F5F5F5F5F5F5F5F5F5F5F5F5F5F5F5F5F5F5F5F5F5F5F5F5F5F5F5F5F5F5F5F5F5F5F5F5F5F5F5F5F5F5F5F5F5F5F5F5F5
310
F5F5F5F5F5F5F5F5F5F5F5F5F5F5F5F5F5F5F5F5F5F5F5F5F5F5F5F5F5F5F5F5F528F5F5F5F5F5F5F5F5F5F5F5F5F5F5F5F5F5F5F5F5F5F5F5F5F5F5F5E2E2F5F5F5F5F5F5F5F5F5F5F5F5F5F5F5F5F5F5F5F5F5F5F5F5F5F5F528F5F5F5F5F5F5F5F5F5F5F5F5F5F5F5E2E2E2F5F5F5F5F5F5E2E2E2E2F5F5F5E2F5F5F5F5
310
F5F5F5F5F5F5F5F5F5F5F5F5F5F5F5F5F5F5F5F5F5F5F5F5F5F5F5F5F5F5F5F5F5F5F5F5F5F5F5F5F5F5F5F5F5F5F5F5F5F5F5F5F5F5F5F5F5F5F5F5F5F5F5F5F5F5F5F5F5F5F5F5F5F5F5F5F5F5F5F5F5F5F5F5F5F528F5F5F5F5F5F5F5F5F5F5F5F5F5F5F5F5F5F5F5F5F5F5F5F5F5F5F5E2E2F5F5F5F5F5F5F5F5F5F5F5
310
F5F5F5F5F5F5F5F5F5F5F5F5F5F5F5F528F5F5F5F5F5F5F5F5F5F5F5F5F5F5F5E2E2F5F5F5F5F5F5F5E2E2E2E2E2E2E2E2F5F5F5F5F5F5F5F5F5F5F5F5F5F5F5F5F5F5F5F5F5F5F5F5F5F5F5F5F5F5F5F5F5F5F5F5F5F5F5F5F5F5F5F5F5F5F5F5F5F5F5F5F5F5F5F5F5F5F5F5F5F5F5F5F5F5F5F5F5F5F5F5F5F5F5F5F5F5
310
F5F5F5F5F5F5F5F5F5F5F5F528F5F5F5F5F5F5F5F5F5F5F5F5F5F5F5F5F5F5F5F5F5F5F5F5F5F5F5E2E2F5F5F5F5F5F5F5F5F5F5F5F5F5F5F5F5F5F5F5F5F5F5F5F5F5F5F528F5F5F5F5F5F5F5F5F5F5F5F5F5F5E2E2F5F5F5F5F5F5F5F5E2E2F5F5F5F5E2E2F5F5F5F5F5F5F5F5F5F5F5F5F5F5F5F5F5F5F5F5F5F5F5F5F5
310
F5F5F5F5F5F5F5F5F5F5F5F5F5F5F5F5F5F5F5F5F5F5F5F5F5F5F5F5F5F5F5F5F5F5F5F5F5F5F5F5F5F5F5F5F5F5F5F5F5F5F5F5F5F5F5F5F5F5F5F5F5F5F5F5F528F5F5F5F5F5F5F5F5F5F5F5F5F5F5F5F5F5F5F5F5F5F5F5F5F5F5F5E2E2F5F5F5F5F5F5F5F5F5F5F5E2F5F5F5F5F5F5F5F5F5F5F5F5F5F5F528F5F5F5F5
310
F5F5F5F5F5F5F5F5F5F5E2E2F5E2E2E2E2E2E2E2E2E2E2E2E2E2E2E2F5F5F5F5F5F5F5F5F5F5F5F5F5F5F5F5F5F5F5F5F5F5F5F5F5F5F5F5F5F5F5F5F5F5F5F5F5F5F5F5F5F5F5F5F5F5F5F5F5F5F5F5F5F5F5F5F5F5F5F5F5F5F5F5F5F5F5F5F5F5F5F5F5F5F5F5F5F5F5F5F5F5F5F5F5F5F5F5F5F528F5F5F5F5F5F5F5F5
310
F5F5F5F5F5F5F5E2F5F5F5F5F5F5F5F5F5F5F5E2E2F5F5F5F5F5F5F5F5F5F5F5E2F5F5F5F5F5F5F5F5F5F5F5F5F5F5F528F5F5F5F5F5F5F5F5F5F5F5F5F5F5E2E2E2E2E2E2E2F5F5F5E2F5F5F5F5F5E2E2F5F5F5F5F5F5F5F5F5F5F5F5F5F5F5F5F5F5F5F5F5F5F5F5F5F5F5F5F5F5F5F5F5F5F5F5F5F5F5F5F5F5F5F5F5F5
310
F5F5F5F5F5F5F5F5F5F5F5F5F5F5F5F5F5F5F5F5F5F5F5F5F5F5F5F5F5F5F5F5F5F5F5F5F5F5F5F5F5F5F5F528F5F5F5F5F5F5F5F5F5F5F5F5F5F5F5E2F5F5F5F5F5F5F5F5F5F5F5E2E2F5F5F5F5F5F5F5F5F5F5F5E2F5F5F5F5F5F5F5F5F5F5F5F5F5F5F528F5F5F5F5F5F5F5F5F5F5F5F5F5F5E2E2E2E2E2E2E2E2E2E2E2
310
E2E2E2E2E2E2E2F5F5F5F5F5F5F5F5F5F5F5F5F5F5F5F5F5F5F5F5F5F5F5F5F5F5F5F5F5F5F5F5F5F5F5F5F5F5F5F5F5F5F5F5F5F5F5F5F5F5F5F5F5F5F5F5F5F5F5F5F5F5F5F5F5F5F5F5F5F5F5F5F5F5F5F5F5F5F5F5F5F5F5F5F5F5F5F5F5F528F5F5F5F5F5F5F5F5F5F5F5F5F5F5F5E2F5F5F5F5F5F5F5F5F5F5F5E2E2
310
F5F5F5F5F5F5F5F5F5F5F5E2F5F5F5F5F5F5F5F5F5F5F5F5F5F5F528F5F5F5F5F5F5F5F5F5F5F5F5F5F5F5F5F5F5F5F5F5F5F5F5F5F5F5F5F5F5F5F5F5F5F5F5F5F5F5F5F5F5F5F5F5F5F5F5F5F5F5F5F5F5F5F5F5F5F5F5F5F5F5F5F5F5F5F5F5F5F5F5F5F5F5F5F5F5F5F5F5F5F5F5F5F5F5F5F5F5F5F5F5F5F5F5F5F5F5
310
F5F5F5F5F5F5F5F5F5F5F5F5F5F5F5F5F5F5F5F5F5F5F528F5F5F5F5F5F5F5F5F5F5F5F5F5F5F5E2F5F5F5F5F5F5F5F5F5F5F5E2E2F5F5F5F5F5F5F5F5F5F5F5E2F5F5F5F5F5F5F5F5F5F5F5F5F5F5F528F5F5F5F5F5F5F5F5F5F5F5F5F5F5F5F5F5F5F5F5F5F5F5F5F5F5F5F5F5F5F5F5F5F5F5F5F5F5F5F5F5F5F5F5F5F5
310
F5F5F5F5F5F5F5F5F5F5F5F5F5F5F5F5F5F5F5F5F5F5F5F5F5F5F5F5F5F5F5F5F5F5F5F5F5F5F5F5F5F5F5F5F5F5F5F5F5F5F5F5F5F5F5F5F5F5F5F5F5F5F5F5F5F5F5F5F5F5F5F5F5F5F5F528F5F5F5F5F5F5F5F5F5F5F5F5F5F5F5E2F5F5F5F5F5F5F5F5F5F5F5E2E2F5F5F5F5F5F5F5F5F5F5F5E2F5F5F5F5F5F5F5F5F5
310
F5F5F5F5F5F528F5F5F5F5F5F5F5F5F5F5F5F5F5F5F5F5F5F5F5F5F5F5F5F5F5F5F5F5F5F5F5F5F5F5F5F5F5F5F5F5F5F5F5F5F5F5F5F5F5F5F5F5F5F5F5F5F5F5F5F5F5F5F5F5F5F5F5F5F5F5F5F5F5F5F5F5F5F5F5F5F5F5F5F5F5F5F5F5F5F5F5F5F5F5F5F5F5F5F5F5F5F5F5F5F5F5F5F5F5F5F5F5F5F5F5F5F5F5F5F5
310
F5F528F5F5F5F5F5F5F5F5F5F5F5F5F5F5F5E2F5F5F5F5F5F5F5F5F5F5F5E2E2F5F5F5F5F5F5F5F5F5F5F5E2F5F5F5F5F5F5F5F5F5F5F5F5F5F5F528F5F5F5F5F5F5F5F5F5F5F5F5F5F5F5F5F5F5F5F5F5F5F5F5F5F5F5F5F5F5F5F5F5F5F5F5F5F5F5F5F5F5F5F5F5F5F5F5F5F5F5F5F5F5F5F5F5F5F5F5F5F5F5F5F5F5F5
310
F5F5F5F5F5F5F5F5F5F5F5F5F5F5F5F5F5F5F5F5F5F5F5F5F5F5F5F5F5F5F5F5F5F5F5F5F5F5F5F5F5F5F5F5F5F5F5F5F5F5F5F5F5F5F528F5F5F5F5F5F5F5F5F5F5F5F5F5F5F5E2F5F5F5F5F5F5F5F5F5F5F5E2E2F5F5F5F5F5F5F5F5F5F5F5E2F5F5F5F5F5F5F5F5F5F5F5F5F5F5F528F5F5F5F5F5F5F5F5F5F5F5F5F5F5
310
F5F5F5F5F5F5F5F5F5F5F5F5F5F5F5F5F5F5F5F5F5F5F5F5F5F5F5F5F5F5F5F5F5F5F5F5F5F5F5F5F5F5F5F5F5F5F5F5F5F5F5F5F5F5F5F5F5F5F5F5F5F5F5F5F5F5F5F5F5F5F5F5F5F5F5F5F5F5F5F5F5F5F5F5F5F5F5F5F5F5F5F5F5F5F5F5F5F5F5F5F5F5F5F5F5F5F5F528F5F5F5F5F5F5F5F5F5F5F5F5F5F5F5E2F5F5
310
F5F5F5F5F5F5F5F5F5E2E2F5F5F5F5F5F5F5F5F5F5F5E2F5F5F5F5F5F5F5F5F5F5F5F5F5F5F528F5F5F5F5F5F5F5F5F5F5F5F5F5F5F5F5F5F5F5F5F5F5F5F5F5F5F5F5F5F5F5F5F5F5F5F5F5F5F5F5F5F5F5F5F5F5F5F5F5F5F5F5F5F5F5F5F5F5F5F5F5F5F5F5F5F5F5F5F5F5F5F5F5F5F5F5F5F5F5F5F5F5F5F5F5F5F5F5
310
F5F5F5F5F5F5F5F5F5F5F5F5F5F5F5F5F5F5F5F5F5F5F5F5F5F5F5F5F5F5F5F5F5F528F5F5F5F5F5F5F5F5F5F5F5F5F5F5F5E2F5F5F5F5F5F5F5F5F5F5F5E2E2F5F5F5F5F5F5F5F5F5F5F5E2F5F5F5F5F5F5F5F5F5F5F5F5F5F5F528F5F5F5F5F5F5F5F5F5F5F5F5F5F5F5F5F5F5F5F5F5F5F5F5F5F5F5F5F5F5F5F5F5F5F5
310
F5F5F5F5F5F5F5F5F5F5F5F5F5F5F5F5F5F5F5F5F5F5F5F5F5F5F5F5F5F5F5F5F5F5F5F5F5F5F5F5F5F5F5F5F5F5F5F5F5F5F5F5F5F5F5F5F5F5F5F5F5F5F5F5F5F5F5F5F5F5F5F5F5F5F5F5F5F5F5F5F5F5F5F5F5F5F528F5F5F5F5F5F5F5F5F5F5F5F5F5F5F5E2F5F5F5F5F5F5F5F5F5F5F5E2E2F5F5F5F5F5F5F5F5F5F5
310
F5E2F5F5F5F5F5F5F5F5F5F5F5F5F5F5F528F5F5F5F5F5F5F5F5F5F5F5F5F5F5F5F5F5F5F5F5F5F5F5F5F5F5F5F5F5F5F5F5F5F5F5F5F5F5F5F5F5F5F5F5F5F5F5F5F5F5F5F5F5F5F5F5F5F5F5F5F5F5F5F5F5F5F5F5F5F5F5F5F5F5F5F5F5F5F5F5F5F5F5F5F5F5F5F5F5F5F5F5F5F5F5F5F5F5F5F5F5F5F5F5F5F5F5F5F5
310
F5F5F5F5F5F5F5F5F5F5F5F5F528F5F5F5F5F5F5F5F5F5F5F5F5F5F5F5E2F5F5F5F5F5F5F5F5F5F5F5E2E2F5F5F5F5F5F5F5F5F5F5F5E2F5F5F5F5F5F5F5F5F5F5F5F5F5F5F528F5F5F5F5F5F5F5F5F5F5F5F5F5F5F5F5F5F5F5F5F5F5F5F5F5F5F5F5F5F5F5F5F5F5F5F5F5F5F5F5F5F5F5F5F5F5F5F5F5F5CACACACACACA
310
CACACACACACACACACACACACACACACACACACACACACACACACACACACACACACACACACACACACACACACACACACACACACACACACACACACACACACACACACAC3C3C3C3C3C3C3CACA28F5F5F5F5F5F5F5F5F5F5F5F5F5F5F5E2F5F5F5F5F5F5F5F5F5F5F5E2E2F5F5F5F5F5F5F5F5F5F5F5E2F5F5F5F5F5F5F5F5F5F5F5F5F5F5F528F5F5F5
310
F5F5F5F5F5F5F5F5F5F5F5F5F5F5F5F5F5F5F5F5F5F5F5F5F5F5F5F5F5F5F5F5F5F5F5F5F5F5F5F5F5F5F5F5F5F5F5CAF5F5F5EFEFEFEFEFEFEFEFEF4CEFEF4CEFEFEFEFEFEFEFEFEFEFEFEFEFEFEFEF4CEFEF4CEFEFEFC3C3C34CEFEFEF4CEFEFEF4CC3EFEFEFEFC3EF4CEFEFEFEFEFEFEFEFEFEFEFF528F5F5F5F5F5F5F5
310
F5F5F5F5F5F5F5F5E2F5F5F5F5F5F5F5F5F5F5F5E2E2F5F5F5F5F5F5F5F5F5F5F5E2F5F5F5F5F5F5F5F5F5F5F5F5F5F5F528F5F5F5F5F5F5F5F5F5F5F5F5F5F5F5F5F5F5F5F5F5F5F5F5F5F5F5F5F5F5F5F5F5F5F5F5F5F5F5F5F5F5F5F5F5F5F5F5F5F5CAF5F5F5EFF5F5F5F5F5F5F5F54CC3C34CF5F5F5F5F5F5F5F5F5F5
310
F5F5F5F5F5F54CF5F54CF5F5F54CC3C34CF5F5F54CF5F5F5C3C3C3F5F5C3C3C34CF5F5F5C3C3C3C3C3F5F5EFF528F5F5F5F5F5F5F5F5F5F5F5F5F5F5F5E2F5F5F5F5F5F5F5F5F5F5F5E2E2F5F5F5F5F5F5F5F5F5F5F5E2F5F5F5F5F5F5F5F5F5F5F5F5F5F5F528F5F5F5F5F5F5F5F5F5F5F5F5F5F5F5F5F5F5F5F5F5F5F5F5
310
F5F5F5F5F5F5F5F5F5F5F5F5F5F5F5F5F5F5F5F5F5F5F5F5F5F5CAF5F5F5EFF5F5F5F5F5F5F5F54CC3C34C4C4C4C4C4C4C4C4C4C4C4C4C4C4C4C4C4C4C4C4C4C4C4C4CC3C34C4C4C4C4C4C4C4CBEBEC3C3BEC34CC34CF5F5F5EFEFEFEFEFEFF5EFF528F5F5F5F5F5F5F5F5F5F5F5F5F5F5F5E2F5F5F5F5F5F5F5F5F5F5F5E2
310
E2F5F5F5F5F5F5F5F5F5F5F5F5F5F5F5F5F5F5F5F5F5F5F5F5F5F5F528F5F5F5F5F5F5F5F5F5F5F5F5F5F5F5F5F5F5F5F5F5F5F5F5F5F5F5F5F5F5F5F5F5F5F5F5F5F5F5F5F5F5F5F5F5F5F5F5F5F5CAF5F5F5EFF5F5F5F5F5F5F5F54CC3C34C4C4C4C4C4C4C4C4C4C4C4C4C4C4C4C4C4C4C4C4C4C4C4CC3C3C34C4C4C4C4C
310
4C4C4CC3BEC3C34CC34CC34CC3C34C4C4CC3C34C4C4CEFF528F5F5F5F5F5F5F5F5F5F5F5F5F5F5F5F5F5F5F5F5F5F5F5F5F5F5F5E2E2F5F5F5F5F5F5F5F5F5F5F5F5F5F5F5F5F5F5F5F5F5F5F5F5F5F5F528F5F5F5F5F5F5F5F5F5F5F5F5F5F5F5F5F5F5F5F5F5F5F5F5F5F5F5F5F5F5F5F5F5F5F5F5F5F5F5F5F5F5F5F5F5
310
F5F5F5F5F5CAF5F5F5EFF5F5F5F5F5F5F5F54CC3C34C4C4C4C4C4C4C4C4C4C4C4C4C4C4C4C4C4C4C4C4C4C4C4CC3C3C34C4C4C4C4C4C4C4CC3C34C4C4C4C4C4C4CC3C34C4C4C4C4C4C4C4CEFF528F5F5F5F5F5F5F5F5F5F5F5F5F5F5F5F5F5F5F5F5F5F5F5F5F5F5F5E2E2F5F5F5F5F5F5F5F5F5F5F5F5F5F5F5F5F5F5F5F5
310
F5F5F5F5F5F5F528F5F5F5F5F5F5F5F5F5F5F5F5F5F5F5F5F5F5F5F5F5F5F5F5F5F5F5F5F5F5F5F5F5F5F5F5F5F5F5F5F5F5F5F5F5F5F5F5F5F5CAF5F5F5EFF5F5F5F5F5F5F5F54CC3C34CF5F5F5F5F5F5F5F5F5F5F5F5F5F5F5F54CF5F54CF5F5F54CC3C34CF5F5F54CF5F5F5C3C34CF5F5F5F5F54CC3C34CF5F5F5F5F5F5
310
F5EFF528F5F5F5F5F5F5F5F5F5F5F5F5F5F5F5F5F5F5F5F5F5F5F5F5F5F5F5E2E2F5F5F5F5F5F5F5F5F5F5F5F5F5F5F5F5F5F5F5F5F5F5F5F5F5F5F528F5F5F5F5F5F5F5F5F5F5F5F5F5F5F5F5F5F5F5F5F5F5F5F5F5F5F5F5F5F5F5F5F5F5F5F5F5F5F5F5F5F5F5F5F5F5F5F5F5F5CAF5F5F5EFF5F5F5F5F5F5F5F54CC34C
310
4C4C4C4C4C4C4C4C4C4C4C4C4C4C4C4C4C4C4C4C4C4C4C4C4C4C4C4C4C4C4C4C4C4C4C4C4C4C4C4C4C4C4C4C4C4C4C4C4C4C4C4C4C4CEFF528F5F5F5F5F5F5F5F5F5F5F5F5F5F5F5F5F5F5F5F5F5F5F5F5F5F5F5E2E2F5F5F5F5F5F5F5F5F5F5F5F5F5F5F5F5F5F5F5F5F5F5F5F5F5F5F528F5F5F5F5F5F5F5F5F5F5F5F5F5
310
F5F5F5F5F5F5F5F5F5F5F5F5F5F5F5F5F5F5F5F5F5F5F5F5F5F5F5F5F5F5F5F5F5F5F5F5F5CAF5F5F5EFF5F5F5F5282828282828F5F5F5F5F5F5F5F5F5F5F5F5F5F5F5F5F5F5F5F5282828F528282828F5F5F5F5F5F5F5F54C4C4C4C4C4C4C4C4C4CF5F5F5F5F5F5F5F5F5EFF528F5F5F5F5F5F5F5F5F5F5F5F5F5F5F5F5F5
310
F5F5F5F5F5F5F5F5F5F5E2E2F5F5F5F5F5F5F5F5F5F5F5F5F5F5F5F5F5F5F5F5F5F5F5F5F5F5F528F5F5F5F5F5F5F5F5F5F5F5F5F5F5F5F5F5F5F5F5F5F5F5F5F5F5F5F5F5F5F5F5F5F5F5F5F5F5F5F5F5F5F5F5F5F5F5F5F5F5CAF5F5F5EFF5F5F5F5F5E2E2E2E2E2E2E2E2F5F5F5F5F5F528282828282828E2E2E2E22828
310
282828E2E2E2E2F5F5F5F5F5F5F54C4C4C4C4C4C4C4C4C4C4C4C4C4C4C4C4CF5F5EFF528F5F5F5F5F5F5F5F5F5F5F5F5F5F5F5F5F5F5F5F5F5F5F5F5F5F5F5E2E2F5F5F5F5F5F5F5F5F5F5F5F5F5F5F5F5F5F5F5F5F5F5F5F5F5F5F528F5F5F5F5F5F5F5F5F5F5F5F5F5F5F5F5F5F5F5F5F5F5F5F5F5F5F5F5F5F5F5F5F5F5
310
F5F5F5F5F5F5F5F5F5F5F5F5F5F5F5F5CAC3C3C3C3F5F5F5E2E2E2E2E2E2E2E2E2E2F5F5F5F5F5F528F5F5E2E2F5F5F5F5F5F52828F528E2E2E2F5E2F5F5F5F5F5F5F54C4C4C4C4C4C4CF5F5F5F5F5F5F5F5F5F5F5F5EFF528F5F5F5F5F5F5F5F5F5F5F5F5F5F5F5F5F5F5F5F5F5F5F5F5F5F5F5E2E2F5F5F5F5F5F5F5F5F5
310
F5F5F5F5F5F5F5F5F5F5F5F5F5F5F5F5F5F528F5F5F5F5F5F5F5F5F5F5F5F5F5F5F5F5F5F5F5F5F5F5F5F5F5F5F5F5F5F5F5F5F5F5F5F5F5F5F5F5F5F5F5F5F5F5F5F5F5F5CAC3C3C3C3F5F5E2E2E2E2E2E2E2E2E2E2E2F5F5F5F5F5F528F5E2E2E2E2E2E2E2E2E22828F528E2E2F5F5E2F5F5F5F5F5F5F5F5F5F5F5F5F5F5
310
F5F5F5F5F5F5F5F5F5F5F5F5EFF528F5F5F5F5F5F5F5F5F5F5F5F5F5F5F5F5F5F5F5F5F5F5F5F5F5F5F5E2E2F5F5F5F5F5F5F5F5F5F5F5F5F5F5F5F5F5F5F5F5F5F5F5F5F5F5F528F5F5F5F5F5F5F5F5F5F5F5F5F5F5F5F5F5F5F5F5F5F5F5F5F5F5F5F5F5F5F5F5F5F5F5F5F5F5F5F5F5F5F5F5F5F5F5F5F5F5CAC3C3C3C3
310
F5F5E2E2E2E2F5F5F5F5E2E2E2F5F5F5F5F5F528E2E2E2E2282828282828282828F528E2E2282828F5F5F5F5F5F54C4C4C4C4C4C4C4C4C4C4C4C4C4C4C4C4CF5F5EFF528F5F5F5F5F5F5F5F5F5F5F5F5F5F5F5F5F5F5F5F5F5F5F5F5F5F5F5E2E2F5F5F5F5F5F5F5F5F5F5F5E2F5F5F5F5F5F5F5F5F5F5F5F5F5F5F528F5F5
310
F5F5F5F5F5F5F5F5F5F5F5F5F5F5F5F5F5F5F5F5F5F5F5F5F5F5F5F5F5F5F5F5F5F5F5F5F5F5F5F5F5F5F5F5F5F5F5F5CAC3C3C3C3F5F5E2E2E2F5F5F5F5F5F5BE2828F5F5F5F5F528E2F5E2F52828E2E2F528282828F5E228E2E22828F5F5F5F5F5F54C4C4C4C4C4C4C4C4C4C4C4C4C4C4C4C4C4C4CEFF528F5F5F5F5F5F5
310
F5F5F5F5F5F5F5F5F5E2F5F5F5F5F5F5F5F5F5F5F5E2E2F5F5F5F5F5F5F5F5F5F5F5E2F5F5F5F5F5F5F5F5F5F5F5F5F5F5F528F5F5F5F5F5F5F5F5F5F5F5F5F5F5F5F5F5F5F5F5F5F5F5F5F5F5F5F5F5F5F5F5F5F5F5F5F5F5F5F5F5F5F5F5F5F5F5F5F5F5CAF5F5F5EFF5BEBEBEBEBEBEBEBEBEBEBEBE28F5F5F5F5F52828
310
E2E2BE2828E2BEBE28282828BEE2E228E22828F5F5F5F5F5F54C4C4C4C4C4C4C4C4C4C4C4C4C4C4C4C4C4CF5EFF528F5F5F5F5F5F5F5F5F5F5F5F5F5F5F5E2F5F5F5F5F5F5F5F5F5F5F5E2E2F5F5F5F5F5F5F5F5F5F5F5E2F5F5F5F5F5F5F5F5F5F5F5F5F5F5F528F5F5F5F5F5F5F5F5F5F5F5F5F5F5F5F5F5F5F5F5F5F5F5
310
F5F5F5F5F5F5F5F5F5F5F5F5F5F5F5F5F5F5F5F5F5F5F5F5F5F5F5CAF5F5F5EF282828E2E2F5F5F5F5F5F5282828F5F5F5F5F52828F5E2F528282828E2E2E22828F5E2E2E228E228F5F5F5F5F5F54C4C4C4C4C4C4C4C4C4C4C4C4C4C4C4C4CF5F5EFF528F5F5F5F5F5F5F5F5F5F5F5F5F5F5F5E2F5F5F5F5F5F5F5F5F5F5F5
310
E2E2F5F5F5F5F5F5F5F5F5F5F5E2F5F5F5F5F5F5F5F5F5F5F5F5F5F5F528F5F5F5F5F5F5F5F5F5F5F5F5F5F5F5F5F5F5F5F5F5F5F5F5F5F5F5F5F5F5F5F5F5F5F5F5F5F5F5F5F5F5F5F5F5F5F5F5F5F5CAF5F5F5EFF528E22828E2F5F5F5F5E2E2E228F5F5F5F5F52828E2E2E2E2F5F5F5E2E2E22828F5E2F528282828F5F5
310
F5F5F5F54C4C4C4C4C4C4C4C4C4C4C4C4C4CF5F5F5F5F5EFF528F5F5F5F5F5F5F5F5F5F5F5F5F5F5F5E2F5F5F5F5F5F5F5F5F5F5F5E2E2F5F5F5F5F5F5F5F5F5F5F5E2F5F5F5F5F5F5F5F5F5F5F5F5F5F5F528F5F5F5F5F5F5F5F5F5F5F5F5F5F5F5F5F5F5F5F5F5F5F5F5F5F5F5F5F5F5F5F5F5F5F5F5F5F5F5F5F5F5F5F5
310
F5F5F5F5F5F5CAF5F5F5EFF5F528E2282828E2E2E2E2E2E2282828F5F5F52828E2E2E2E2E2E2E2E2E2F528F5F5E2E22828282828F5F5F5F5F5F5F5F5F5F5F5F5F5F5F5F5F5F5F5F5F5F5F5F5EFF528F5F5F5F5F5F5F5F5F5F5F5F5F5F5F5E2F5F5F5F5F5F5F5F5F5F5F5E2E2F5F5F5F5F5F5F5F5F5F5F5E2F5F5F5F5F5F5F5
310
F5F5F5F5F5F5F5F528F5F5F5F5F5F5F5F5F5F5F5F5F5F5F5F5F5F5F5F5F5F5F5F5F5F5F5F5F5F5F5F5F5F5F5F5F5F5F5F5F5F5F5F5F5F5F5F5F5F5CAF5F5F5EFF5F5282828282828E2E2E2E2E2F5F5F5F5F5F52828F5E2E2E2E2F5F5F5F5F52828F5F5E228E22828282828F5F5F5F5F5F5F5F5F5F5F5F5F5F5F5F5F5F5F5F5
310
F5F5EFF528F5F5F5F5F5F5F5F5F5F5F5F5F5F5F5E2F5F5F5F5F5F5F5F5F5F5F5E2E2F5F5F5F5F5F5F5F5F5F5F5E2F5F5F5F5F5F5F5F5F5F5F5F5F5F5F528F5F5F5F5F5F5F5F5F5F5F5F5F5F5F5F5F5F5F5F5F5F5F5F5F5F5F5F5F5F5F5F5F5F5F5F5F5F5F5F5F5F5F5F5F5F5F5F5F5F5CAF5F5F5EF28282828F5282828E2E2
310
E2E2E2F5F5F5F5F5F52828282828282828282828282828E2E2E228282828F5F5F5F5F5F54C4C4C4CF5F5F5F5F5F5F5F5F5F5F5F5F5F5F5EFF528F5F5F5F5F5F5F5F5F5F5F5F5F5F5F5E2F5F5F5F5F5F5F5F5F5F5F5E2E2F5F5F5F5F5F5F5F5F5F5F5E2F5F5F5F5F5F5F5F5F5F5F5F5F5F5F528F5F5F5F5F5F5F5F5F5F5F5F5
310
F5F5F5F5F5F5F5F5F5F5F5F5F5F5F5F5F5F5F5F5F5F5F5F5F5F5F5F5F5F5F5F5F5F5F5F5F5F5CAF5F5F5EFF5F5F5F5F5F5F5F5282828F5F5F5F5F5F5F5F5F528F5F5F5F5F5F5F5F5F5F5F528282828282828F5F5F5F5F5F5F5F5F5F5F5F5F5F5F5F5F5F5F5F5F5F5F5F5F5F5EFF528F5F5F5F5F5F5F5F5F5F5F5F5F5F5F5E2
310
F5F5F5F5F5F5F5F5F5F5F5E2E2F5F5F5F5F5F5F5F5F5F5F5E2F5F5F5F5F5F5F5F5F5F5F5F5F5F5F528F5F5F5F5F5F5F5F5F5F5F5F5F5F5F5F5F5F5F5F5F5F5F5F5F5F5F5F5F5F5F5F5F5F5F5F5F5F5F5F5F5F5F5F5F5F5F5F5F5F5CAF5F5F5EFF5F5F5F5F5F5F5F5F5F5F5F5F5F5F5F5F5F5F5F52828282828282828282828
310
2828282828282828F5F5F5F5F5F5F5F5F5F5F5F5F5F5F5F5F5F5F5F5F5F5F5F5F5F5EFF528F5F5F5F5F5F5F5F5F5F5F5F5F5F5F5E2F5F5F5F5F5F5F5F5F5F5F5E2E2F5F5F5F5F5F5F5F5F5F5F5E2F5F5F5F5F5F5F5F5F5F5F5F5F5F5F528F5F5F5F5F5F5F5F5F5F5F5F5F5F5F5F5F5F5F5F5F5F5F5F5F5F5F5F5F5F5F5F5F5
310
F5F5F5F5F5F5F5F5F5F5F5F5F5F5F5F5F5CAF5F5F5EFF5F5F5F5F52828282828F5F5F5F5F5F5F5F5F5F5F5F5F5F5F5F5F528282828F5F5F5F5F5F5F5F5F5F5F5F5F5F5F5F5F5F5F5F5F5F5F5F5F5F5F5F5F5F5F5F5F5F5EFF528F5F5F5F5F5F5F5F5F5F5F5F5F5F5F5E2F5F5F5F5F5F5F5F5F5F5F5E2E2F5F5F5F5F5F5F5F5
310
F5F5F5E2F5F5F5F5F5F5F5F5F5F5F5F5F5F5F528F5F5F5F5F5F5F5F5F5F5F5F5F5F5F5F5F5F5F5F5F5F5F5F5F5F5F5F5F5F5F5F5F5F5F5F5F5F5F5F5F5F5F5F5F5F5F5F5F5F5CAF5F5F5EFF5F5F5F5F5F5F5F5BEF5F5F5F5F5F5F5F5F5F5F5F5F5F5F5F5F5F5F52828282828282828282828F5F5F5F5F5F5F5F5F5F5F5BEF5
310
F5F5F5F5F5F5F5F5F5F5F5F5F5EFF528F5F5F5F5F5F5F5F5F5F5F5F5F5F5F5E2F5F5F5F5F5F5F5F5F5F5F5E2E2F5F5F5F5F5F5F5F5F5F5F5E2F5F5F5F5F5F5F5F5F5F5F5F5F5F5F528F5F5F5F5F5F5F5F5F5F5F5F5F5F5F5F5F5F5F5F5F5F5F5F5F5F5F5F5F5F5F5F5F5F5F5F5F5F5F5F5F5F5F5F5F5F5F5F5F5F5CAF5F5F5
310
EFF5F5F5F5DCDCE2DCBEDCDCDCF5F5F5F5F5F5F52828282828282828282828E228E2E2E2E2E2282828F5F5F5F5F5F5E2E2E2E2E2E2E2E2E22828F5F5F5F5F5F5F5F5EFF528F5F5F5F5F5F5F5F5F5F5F5F5F5F5F5E2F5F5F5F5F5F5F5F5F5F5F5E2E2F5F5F5F5F5F5F5F5F5F5F5E2F5F5F5F5F5F5F5F5F5F5F5F5F5F5F528F5
310
F5F5F5F5F5F5F5F5F5F5F5F5F5F5F5F5F5F5F5F5F5F5F5F5F5F5F5F5F5F5F5F5F5F5F5F5F5F5F5F5F5F5F5F5F5F5F5F5F5CAF5F5F5EFF5F5F5F5DCDCE2DCBEDCDCDCF5F5F5F5F5F5F528F52828E2E2E2F5E2E2F5E2282828282828282828F5F5F5F5F5F5E2E2E2E2E2E2E2E2E2282828F5F5F5F5F5F5F5EFF528F5F5F5F5F5
310
F5F5F5F5F5F5F5F5F5F5E2F5F5F5F5F5F5F5F5F5F5F5E2E2F5F5F5F5F5F5F5F5F5F5F5E2F5F5F5F5F5F5F5F5F5F5F5F5F5F5F528F5F5F5F5F5F5F5F5F5F5F5F5F5F5F5F5F5F5F5F5F5F5F5F5F5F5F5F5F5F5F5F5F5F5F5F5F5F5F5F5F5F5F5F5F5F5F5F5F5F5CAF5F5F5EFF5F5F5F5DCDCDCDCBEDCDCDCDCF5F5F5F5F5F528
310
F5282828282828282828F528F528F5F5F5E22828F5F5F5F5F5F5E2E2F5C3C3C3E22828F5F5F5F5F5F5F5F5F5F5EFF528F5F5F5F5F5F5F5F5F5F5F5F5F5F5F5E2F5F5F5F5F5F5F5F5F5F5F5E2E2F5F5F5F5F5F5F5F5F5F5F5E2F5F5F5F5F5F5F5F5F5F5F5F5F5F5F528F5F5F5F5F5F5F5F5F5F5F5F5F5F5F5F5F5F5F5F5F5F5
310
F5F5F5F5F5F5F5F5F5F5F5F5F5F5F5F5F5F5F5F5F5F5F5F5F5F5F5F5CAF5F5F5EFF5F5F5F5DCDCDCE2BEDCDCDCDCF5F5F5F5F5F528F52828282828E2E2BEE2BE28E228F5F5F5E22828F5F5F5F5F5F5E2E2C3C3E2E228E2E2F5F5F5F5F5F5F5F5F5F5EFF528F5F5F5F5F5F5F5F5F5F5F5F5F5F5F5E2F5F5F5F5F5F5F5F5F5F5
310
F5E2E2F5F5F5F5F5F5F5F5F5F5F5F5F5F5F5F5F5F5F5F5F5F5F5F5F5F5F528F5F5F5F5F5F5F5F5F5F5F5F5F5F5F5F5F5F5F5F5F5F5F5F5F5F5F5F5F5F5F5F5F5F5F5F5F5F5F5F5F5F5F5F5F5F5F5F5F5F5CAF5F5F5EFF5F5F5F5DCDCDCF5BEDCDCDCDCF5F5F5F5F5F528F5F5E2F5E2E2F5F5BEE2E2E2E228282828282828F5
310
F5F5F5F5F5E2E2C3E22828E2C3E2F5F5F5F5F5F5F5F5F5F5EFF528F5F5F5F5F5F5F5F5F5F5F5F5F5F5F5F5F5F5F5F5F5F5F5F5F5F5F5E2E2F5F5F5F5F5F5F5F5F5F5F5F5F5F5F5F5F5F5F5F5F5F5F5F5F5F5F528F5F5F5F5F5F5F5F5F5F5F5F5F5F5F5F5F5F5F5F5F5F5F5F5F5F5F5F5F5F5F5F5F5F5F5F5F5F5F5F5F5F5F5
310
F5F5F5F5F5F5F5CAF5F5F5EFF5F5F5DCDCDCDCF5BEF5DCE2DCF5F5F5F5F5F528F5E2E2E2E2E2F5F5BEE2E2F5E2E2F5F5F5E228F5F5F5F5F5F5F5E2E2E228E2E2C3C3E2F5F5F5F5F5F5F5F5F5F5EFF528F5F5F5F5F5F5F5F5F5F5F5F5F5F5F5F5F5F5F5F5F5F5F5F5F5F5F5E2E2F5F5F5F5F5F5F5F5F5F5F5F5F5F5F5F5F5F5
310
F5F5F5F5F5F5F5F5F528F5F5F5F5F5F5F5F5F5F5F5F5F5F5F5F5F5F5F5F5F5F5F5F5F5F5F5F5F5F5F5F5F5F5F5F5F5F5F5F5F5F5F5F5F5F5F5F5F5F5CAF5F5F5EFF5F5F5DCDCDCF5F5BEF5DCDCDCF5F5F5F5F5F528F5E2E2E2F5F5F5F5BEF5E2E2E2282828282828F5F5F5F5F5F5F5E2E228E2E2C3C3E2E2E2F5F5F5F5F5F5
310
F5F5F5EFF528F5F5F5F5F5F5F5F5F5F5F5F5F5F5F5F5F5F5F5F5F5F5F5F5F5F5F5E2E2F5F5F5F5F5F5F5F5F5F5F5F5F5F5F5F5F5F5F5F5F5F5F5F5F5F5F528F5F5F5F5F5F5F5F5F5F5F5F5F5F5F5F5F5F5F5F5F5F5F5F5F5F5F5F5F5F5F5F5F5F5F5F5F5F5F5F5F5F5F5F5F5F5F5F5F5F5CAF5F5F5EFF5F5F5DCDCDCF5F5BE
310
F5F5DCDCF5F5F5F5F5F52828E2E2F5F5F5F5F5BEF5E22828E2F5F5F5E2E2F5F5F5F5F5F5F5E2E2E2C3C3C3E2E2E2E2F5F5F5F5F5F5F5F5F5EFF528F5F5F5F5F5F5F5F5F5F5F5F5F5F5F5F5F5F5F5F5F5F5F5F5F5F5F5E2E2F5F5F5F5F5F5F5F5F5F5F5F5F5F5F5F5F5F5F5F5F5F5F5F5F5F5F528F5F5F5F5F5F5F5F5F5F5F5
310
F5F5F5F5F5F5F5F5F5F5F5F5F5F5F5F5F5F5F5F5F5F5F5F5F5F5F5F5F5F5F5F5F5F5F5F5F5F5F5CAF5F5F5EFF5F5F5DCDCF5F5F5BEF5F5DCDCF5F5F5F5F5F52828E2E2F5F5F5F5F5BEF5E22828F5E2E2E2E2E2F5F5F5F5F5F5F5E2E2E2E2E2E2E2E2E2E2F5F5F5F5F5F5F5F5F5EFF528F5F5F5F5F5F5F5F5F5F5F5F5F5F5F5
310
F5F5F5F5F5F5F5F5F5F5F5F5E2E2F5F5F5F5F5F5F5F5F5F5F5F5F5F5F5F5F5F5F5F5F5F5F5F5F5F5F528F5F5F5F5F5F5F5F5F5F5F5F5F5F5F5F5F5F5F5F5F5F5F5F5F5F5F5F5F5F5F5F5F5F5F5F5F5F5F5F5F5F5F5F5F5F5F5F5F5F5CAF5F5F5EFF5F5F5DCDCF5F5F5BEF5F5DCDCF5F5F5F5F5F52828E2F5F5F5F5E2E2E2E2
310
E228E2E2E2E2E2E2E2F5F5F5F5F5F5F5E2F5F5F5BEF5F5F5E2E2F5F5F5F5F5F5F5F5F5EFF528F5F5F5F5F5F5F5F5F5F5F5F5F5F5F5F5F5F5F5F5F5F5F5F5F5F5F5E2E2F5F5F5F5F5F5F5F5F5F5F5F5F5F5F5F5F5F5F5F5F5F5F5F5F5F5F528F5F5F5F5F5F5F5F5F5F5F5F5F5F5F5F5F5F5F5F5F5F5F5F5F5F5F5F5F5F5F5F5
310
F5F5F5F5F5F5F5F5F5F5F5F5F5F5F5F5F5F5CAF5F5F5EFF5F5F5DCDCDCE2E2BEE2E2DCDCF5F5F5F5F5F52828E2E2E2E2E2E2E2E22828E2E2E2E2E2E2E2E2F5F5F5F5F5F5F5E2E2E2E2E2E2E2E2E2E2F5F5F5F5F5F5F5F5F5EFF528F5F5F5F5F5F5F5F5F5F5F5F5F5F5F5F5F5F5F5F5F5F5F5F5F5F5F5E2E2F5F5F5F5F5F5F5
310
F5F5F5F5F5F5F5F5F5F5F5F5F5F5F5F5F5F5F5F528F5F5F5F5F5F5F5F5F5F5F5F5F5F5F5F5F5F5F5F5F5F5F5F5F5F5F5F5F5F5F5F5F5F5F5F5F5F5F5F5F5F5F5F5F5F5F5F5F5F5CAF5F5F5EFF5F5F5DCDCDCE2E2BEE2E2DCDCF5F5F5F5F5F52828E228E2E2E2E2E2E22828E2282828E228282828F5F5F5F5F5F5E2E2E2E2E2
310
E2E2E2E2E2F5F5F5F5F5F5F5F5F5EFF528F5F5F5F5F5F5F5F5F5F5F5F5F5F5F5F5F5F5F5F5F5F5F5F5F5F5F5E2E2F5F5F5F5F5F5F5F5F5F5F5E2F5F5F5F5F5F5F5F5F5F5F5F5F5F5F528F5F5F5F5F5F5F5F5F5F5F5F5F5F5F5F5F5F5F5F5F5F5F5F5F5F5F5F5F5F5F5F5F5F5F5F5F5F5F5F5F5F5F5F5F5F5F5F5F5F5CAF5F5
310
F5EFF5F5F5F5F5F5F5F5BEF5F5F5F5F5F5F5F5F528282828282828282828282828F528F5282828282828F5F5F5F5F5F5F5F5F5F5BEF5F5F5F5F5F5F5F5F5F5F5F5F5F5EFF528F5F5F5F5F5F5F5F5F5F5F5F5F5F5F5E2F5F5F5F5F5F5F5F5F5F5F5E2E2F5F5F5F5F5F5F5F5F5F5F5E2F5F5F5F5F5F5F5F5F5F5F5F5F5F5F528
310
F5F5F5F5F5F5F5F5F5F5F5F5F5F5F5F5F5F5F5F5F5F5F5F5F5F5F5F5F5F5F5F5F5F5F5F5F5F5F5F5F5F5F5F5F5F5F5F5F5F5CAF5F5F5EFF5F5F5F5F5F5F5F5F5F5F5F5F5F5F5F5F5F5F5F5F5F5F5F5F5F5F5F5F5F5F5F528F5F5F5F5F5F528F5F5F5F5F5F5E2E2F5F5F5F5F5F5F5F5F5F5F5F5F5F5F5F5F5EFF528F5F5F5F5
310
F5F5F5F5F5F5F5F5F5F5F5E2F5F5F5F5F5F5F5F5F5F5F5E2E2F5F5F5F5F5F5F5F5F5F5F5E2F5F5F5F5F5F5F5F5F5F5F5F5F5F5F528F5F5F5F5F5F5F5F5F5F5F5F5F5F5F5F5F5F5F5F5F5F5F5F5F5F5F5F5F5F5F5F5F5F5F5F5F5F5F5F5F5F5F5F5F5F5F5F5F5F5CAF5F5F5EFF5F5F5F5F5F5F5F5F5F5F5F5F5F5F5F5F5F5F5
310
F5F5F5F5E2E2E2E2E2E2E2E2E2E2E2E2E2E2E2E2F5F5F5F5F5F5E2E2F5E2E2E2F5F5F5F5F5F5F5F5F5F5F5F5F5F5EFF528F5F5F5F5F5F5F5F5F5F5F5F5F5F5F5E2F5F5F5F5F5F5F5F5F5F5F5E2E2F5F5F5F5F5F5F5F5F5F5F5E2F5F5F5F5F5F5F5F5F5F5F5F5F5F5F528F5F5F5F5F5F5F5F5F5F5F5F5F5F5F5F5F5F5F5F5F5
310
F5F5F5F5F5F5F5F5F5F5F5F5F5F5F5F5F5F5F5F5F5F5F5F5F5F5F5F5F5CAF5F5F5EFF5F5F5F5F5F5F5F5F5F5F5F5F5F5F5F5F5F5F5F5F5E2E2F5F5F5F5E2E2E2E2E2E2E2E2E2E2E22828F5F5F5F5E2E2F5F5F5F5E2E2E2F5F5F5F5F5F5F5F5F5F5F5F5EFF528F5F5F5F5F5F5F5F5F5F5F5F5F5F5F5E2F5F5F5F5F5F5F5F5F5
310
F5F5E2E2F5F5F5F5F5F5F5F5F5F5F5E2F5F5F5F5F5F5F5F5F5F5F5F5F5F5F528F5F5F5F5F5F5F5F5F5F5F5F5F5F5F5F5F5F5F5F5F5F5F5F5F5F5F5F5F5F5F5F5F5F5F5F5F5F5F5F5F5F5F5F5F5F5F5F5F5F5CAF5F5F5EFF5F5F5F5F5F5F5F5F5F5F5F5F5F5F5F5F5F5F5F5F5E2F5F5E2E2E2E2E2E2E2E2E2E2E2E2E2E228F5
310
F5F5F5F5E2F5F5F5F5F5F5F5F5E2F5F5F5F5F5F5F5F5F5F5F5EFF528F5F5F5F5F5F5F5F5F5F5F5F5F5F5F5E2F5F5F5F5F5F5F5F5F5F5F5E2E2F5F5F5F5F5F5F5F5F5F5F5E2F5F5F5F5F5F5F5F5F5F5F5F5F5F5F528F5F5F5F5F5F5F5F5F5F5F5F5F5F5F5F5F5F5F5F5F5F5F5F5F5F5F5F5F5F5F5F5F5F5F5F5F5F5F5F5F5F5
310
F5F5F5F5F5F5F5F5CAF5F5F5EFF5F5F5F5F5F5F5F5F5F5F5F5F5F5F5F5F5F5F5F5E2E2F5F5E2E2E2E2E2E2E2E2E2E2E2E2E2E228F5F5F5F5F5E2F5F5F5F5F5F5F5F5E2F5F5F5F5F5F5F5F5F5F5F5EFF528F5F5F5F5F5F5F5F5F5F5F5F5F5F5F5E2F5F5F5F5F5F5F5F5F5F5F5E2E2F5F5F5F5F5F5F5F5F5F5F5E2F5F5F5F5F5
310
F5F5F5F5F5F5F5F5F5F528F5F5F5F5F5F5F5F5F5F5F5F5F5F5F5F5F5F5F5F5F5F5F5F5F5F5F5F5F5F5F5F5F5F5F5F5F5F5F5F5F5F5F5F5F5F5F5F5F5F5CAF5F5F5EFF5F5F5F5F5F5F5F5F5F5F5F5F5F5F5F5F5F5F5F5E2F5F5F5E2E2E2E2F5F5F5E2E2E2F5F5E2E228F5F5F5F5E2E2E2E2E2F5F5F5F5F5E2F5F5F5F5F5F5F5
310
F5F5F5F5EFF528F5F5F5F5F5F5F5F5F5F5F5F5F5F5F5E2F5F5F5F5F5F5F5F5F5F5F5E2E2F5F5F5F5F5F5F5F5F5F5F5E2F5F5F5F5F5F5F5F5F5F5F5F5F5F5F528F5F5F5F5F5F5F5F5F5F5F5F5F5F5F5F5F5F5F5F5F5F5F5F5F5F5F5F5F5F5F5F5F5F5F5F5F5F5F5F5F5F5F5F5F5F5F5F5F5F5CAF5F5F5EFF5F5F5F5F5F5F5F5
310
F5F5F5F5F5F5F5F5F5F5F5F5E2BEBEBE28E2BEE2BEBEBEE2E2E2BEBEE2E228F5F5F5F5E2E2E2E2E2E2E2F5F5F5E2F5F5F5F5F5F5F5F5F5F5F5EFF528F5F5F5F5F5F5F5F5F5F5F5F5F5F5F5E2F5F5F5F5F5F5F5F5F5F5F5E2E2F5F5F5F5F5F5F5F5F5F5F5E2F5F5F5F5F5F5F5F5F5F5F5F5F5F5F528F5F5F5F5F5F5F5F5F5F5
310
F5F5F5F5F5F5F5F5F5F5F5F5F5F5F5F5F5F5F5F5F5F5F5F5F5F5F5F5F5F5F5F5F5F5F5F5F5F5F5F5CAF5F5F5EFF5F5F5F5F5F5F5F5F5F5F5F5F5F5F5F5F5F5F5F5E2E2F5F528E2E2E2E2E2E2E2E2E2E2E2E2E228F5F5F5F5E2E2E2E2E2E2E2E2F5F5E2F5F54C4C4C4C4C4C4C4C4C4CF528F5F5F5F5F5F5F5F5F5F5F5F5F5F5
310
F5E2F5F5F5F5F5F5F5F5F5F5F5E2E2F5F5F5F5F5F5F5F5F5F5F5E2F5F5F5F5F5F5F5F5F5F5F5F5F5F5F528F5F5F5F5F5F5F5F5F5F5F5F5F5F5F5F5F5F5F5F5F5F5F5F5F5F5F5F5F5F5F5F5F5F5F5F5F5F5F5F5F5F5F5F5F5F5F5F5F5F5CAF5F5F5EFF5F5F5F5F5F5F5F5F5F5F5F5F5F5F5F5F5F5F5F5F5E2F5F528E2E2E2E2
310
E2E2E2E2E2E2E2E2E228F5F5F5F5F5E2E2E2E2E2E2E2E2E2E2F5F54CF54CF5F5F54CF5F5EFF528F5F5F5F5F5F5F5F5F5F5F5F5F5F5F5E2F5F5F5F5F5F5F5F5F5F5F5E2E2F5F5F5F5F5F5F5F5F5F5F5E2F5F5F5F5F5F5F5F5F5F5F5F5F5F5F528F5F5F5F5F5F5F5F5F5F5F5F5F5F5F5F5F5F5F5F5F5F5F5F5F5F5F5F5F5F5F5
310
F5F5F5F5F5F5F5F5F5F5F5F5F5F5F5F5F5F5F5CAF5F5F5EFF5F5F5F5F5F5F5F5F5F5F5F5F5F5F5F5F5F5F5F5F5E2E2F528F5F5E2E2E2E2E2E2E2E2E2E2282828F5F5F5F5F5F5E2F5E2E2E2E2E2E2F5F54C4C4C4C4C4C4C4C4C4CF528F5F5F5F5F5F5F5F5F5F5F5F5F5F5F5E2F5F5F5F5F5F5F5F5F5F5F5E2E2F5F5F5F5F5F5
310
F5F5F5F5F5E2F5F5F5F5F5F5F5F5F5F5F5F5F5F5F528F5F5F5F5F5F5F5F5F5F5F5F5F5F5F5F5F5F5F5F5F5F5F5F5F5F5F5F5F5F5F5F5F5F5F5F5F5F5F5F5F5F5F5F5F5F5F5F5F5F5CAF5F5F5EFF5F5F5F5F5F5F5F5F5F5F5F5F5F5F5F5F5F5F5F5F5F5E2E228E2E2E2E2E2E2E2E2E2E2E2E2E228F5F5F5F5F5F5F5F5E2E2E2
310
E2E2E2F5F5F54CC3C3C3C3C34CC34C4CF528F5F5F5F5F5F5F5F5F5F5F5F5F5F5F5E2F5F5F5F5F5F5F5F5F5F5F5E2E2F5F5F5F5F5F5F5F5F5F5F5E2F5F5F5F5F5F5F5F5F5F5F5F5F5F5F528F5F5F5F5F5F5F5F5F5F5F5F5F5F5F5F5F5F5F5F5F5F5F5F5F5F5F5F5F5F5F5F5F5F5F5F5F5F5F5F5F5F5F5F5F5F5F5F5F5F5CAF5
310
F5F5EFF5F5F5F5F5F5F5F5F5F5F5F5F5F5F5F5F5F5F5F5F5F5F5F5282828282828282828282828282828F5F5F5F5F5F5F5F5F5F5E2E2F5F5F5F5F54CC34CC3C34CC3C3C34CF528F5F5F5F5F5F5F5F5F5F5F5F5F5F5F5E2F5F5F5F5F5F5F5F5F5F5F5E2E2F5F5F5F5F5F5F5F5F5F5F5E2F5F5F5F5F5F5F5F5F5F5F5F5F5F5F5
310
28F5F5F5F5F5F5F5F5F5F5F5F5F5F5F5F5F5F5F5F5F5F5F5F5F5F5F5F5F5F5F5F5F5F5F5F5F5F5F5F5F5F5F5F5F5F5F5F5F5F5CAF5F5F5EFF5F5F5F5F5F5F5F5F5F5F5F5F5F5F5F5F5F5F5F5F5F5F5F5F5F5F5F5F5F5F5F5F5F5F5F5F5F5F5F5F5F5F5F5F5F5F5F5F5F5F5F5F5F5F5F5C3C34CC3C3F54CC3F5EFF528F5F5F5
310
F5F5F5F5F5F5F5F5F5F5F5F5E2F5F5F5F5F5F5F5F5F5F5F5E2E2F5F5F5F5F5F5F5F5F5F5F5E2F5F5F5F5F5F5F5F5F5F5F5F5F5F5F528F5F5F5F5F5F5F5F5F5F5F5F5F5F5F5F5F5F5F5F5F5F5F5F5F5F5F5F5F5F5F5F5F5F5F5F5F5F5F5F5F5F5F5F5F5F5F5F5F5F5CAF5F5F5EFEFEFEFEFEFEFEFEFEFEFEFEFEFEFEFEFEFEF
310
EFEFEFEFEFEFEFEFEFEFEFEFEFEFEFEFEFEFEFEFEFEFEFEFEFEFEFEFEFEFEFEFEFEFEFEFEFEFEFEFEFEFEFEFEFEFEFEFF528F5F5F5F5F5F5F5F5F5F5F5F5F5F5F5E2F5F5F5F5F5F5F5F5F5F5F5E2E2F5F5F5F5F5F5F5F5F5F5F5F5F5F5F5F5F5F5F5F5F5F5F5F5F5F5F528F5F5F5F5F5F5F5F5F5F5F5F5F5F5F5F5F5F5F5F5
310
F5F5F5F5F5F5F5F5F5F5F5F5F5F5F5F5F5F5F5F5F5F5F5F5F5F5F5F5F5F5CACACACACACACACACACACACACACACACACACACACACACACACACACACACACACACACACACACACACACACACACACACACACACACACACACACACACACACACACACACACACACACACACACACACACACACACA28F5F5F5F5F5F5F5F5F5F5F5F5F5F5F5F5F5F5F5F5F5F5F5F5
310
F5F5F5E2E2F5F5F5F5F5F5F5F5F5F5F5F5F5F5F5F5F5F5F5F5F5F5F5F5F5F5F528F5F5F5F5F5F5F5F5F5F5F5F5F5F5F5F5F5F5F5F5F5F5F5F5F5F5F5F5F5F5F5F5F5F5F5F5F5F5F5F5F5F5F5F5F5F5F5F5F5F5F5F5F5F5F5F5F5F5F5F5F5F5F5F5F5F5F5F5F5F5F5F5F5F5F5F5F5F5F5F5F5F5F5F5F5F5F5F5F5F5F5F5F5F5
310
F5F5F5F5F5F5F5F5F5F5F5F5F5F5F5F5F5F5F5F5F5F5F5F5F5F5F5F528F5F5F5F5F5F5F5F5F5F5F5F5F5F5F5F5F5F5F5F5F5F5F5F5F5F5F5E2E2F5F5F5F5F5F5F5F5F5F5F5F5F5F5F5F5F5F5F5F5F5F5F5F5F5F5F528F5F5F5F5F5F5F5F5F5F5F5F5F5F5F5F5F5F5F5F5F5F5F5F5F5F5F5F5F5F5F5F5F5F5F5F5F5F5F5F5F5
310
F5F5F5F5F5F5F5F5F5F5F5F5F5F5F5F5F5F5F5F5F5F5F5F5F5F5F5F5F5F5F5F5F5F5F5F5F5F5F5F5F5F5F5F5F5F5F5F5F5F5F5F5F5F5F5F5F5F5F5F5F5F5F5F5F5F5F5F5F5F5F5F5F5F5F5F5F5F5F5F5F528F5F5F5F5F5F5F5F5F5F5F5F5F5F5F5F5F5F5F5F5F5F5F5F5F5F5F5E2E2F5F5F5F5F5F5F5F5F5F5F5F5F5F5F5F5
310
F5F5F5F5F5F5F5F5F5F5F528F5F5F5F5F5F5F5F5F5F5F5F5F5F5F5F5F5F5F5F5F5F5F5F5F5F5F5F5F5F5F5F5F5F5F5F5F5F5F5F5F5F5F5F5F5F5F5F5F5F5F5F5F5F5F5F5F5F5F5F5F5F5F5F5F5F5F5F5F5F5F5F5F5F5F5F5F5F5F5F5F5F5F5F5F5F5F5F5F5F5F5F5F5F5F5F5F5F5F5F5F5F5F5F5F5F5F5F5F5F5F5F5F5F5F5
310
F5F5F5F5F5F5F528F5F5F5F5F5F5F5F5F5F5F5F5F5F5F5F5F5F5F5F5F5F5F5F5F5F5F5E2E2F5F5F5F5F5F5F5F5F5F5F5F5F5F5F5F5F5F5F5F5F5F5F5F5F5F5F5282828282828282828282828282828282828282828282828282828282828282828282828282828282828282828282828282828282828282828282828282828
310
28282828282828282828282828282828282828282828282828282828282828282828282828282828282828282828282828282828282828282828282828F5F5F5F5F5F5F5F5F5F5F5F5F5F5F5F5F5F5F5F5F5F5F5F5F5F5F5E2E2F5F5F5F5F5F5F5F5F5F5F5F5F5F5F5F5F5F5F5F5F5F5F5F5F5F5F5F5F5F5F5F5F5F5F5F5F5
310
F5F5F5F5F5F5F5F5F5F5F5F5F5F5F5F5F5F5F5F5F5F5F5F5F5F5F5F5F5F5F5F5F5F5F5F5F5F5F5F5F5F5F5F5F5F5F5F5F5F5F5F5F5F5F5F5F5F5F5F5F5F5F5F5F5F5F5F5F5F5F5F5F5F5F5F5F5F5F5F5F5F5F5F5F5F5F5F5F5F5F5F5F5F5F5F5F5F5F5F5F5F5F5F5F5F5F5F5F5F5F5F5F5F5F5F5F5F5F5F5F5F5F5F5F5F5F5
310
F5F5F5F5F5F5F5F5F5F5F5F5F5F5E2E2F5F5F5F5F5F5F5F5F5F5F5F5F5F5F5F5F5F5F5F5F5F5F5F5F5F5F5F5F5F5F5F5F5F5F5F5F5F5F5F5F5F5F5F5F5F5F5F5F5F5F5F5F5F5F5F5F5F5F5F5F5F5F5F5F5F5F5F5F5F5F5F5F5F5F5F5F5F5F5F5F5F5F5F5F5F5F5F5F5F5F5F5F5F5F5F5F5F5F5F5F5F5F5F5F5F5F5F5F5F5F5
310
F5F5F5F5F5F5F5F5F5F5F5F5F5F5F5F5F5F5F5F5F5F5F5F5F5F5F5F5F5F5F5F5F5F5F5F5F5F5F5F5F5F5F5F5F5F5F5F5F5F5F5F5F5F5F5F5F5F5F5F5F5F5F5F5F5F5F5E2E2F5F5F5F5F5F5F5F5F5F5F5F5F5F5F5F5F5F5F5F5F5F5F5F5F5F5F5F5F5F5F5F5F5F5F5F5F5F5F5F5F5F5F5F5F5F5F5F5F5F5F5F5F5F5F5F5F5F5
310
F5F5F5F5F5F5F5F5F5F5F5F5F5F5F5F5F5F5F5F5F5F5F5F5F5F5F5F5F5F5F5F5F5F5F5F5F5F5F5F5F5F5F5F5F5F5F5F5F5F5F5F5F5F5F5F5F5F5F5F5F5F5F5F5F5F5F5F5F5F5F5F5F5F5F5F5F5F5F5F5F5F5F5F5F5F5F5F5F5F5F5F5F5F5F5F5F5F5F5F5F5F5F5F5F5F5F5F5F5F5F5F5F5F5F5F5F5F5F5F5E2E2F5F5F5F5F5
310
F5F5F5F5F5F5E2F5F5F5F5F5F5F5F5F5F5F5F5F5F5F5F5F5F5F5F5F5F5F5F5F5F5F5F5F5F5F5F5F5F5F5F5F5F5F5F5F5F5F5F5F5F5F5F5F5F5F5F5F5F5F5F5F5F5F5F5F5F5F5F5F5F5F5F5F5F5F5F5F5F5F5F5F5F5F5F5F5F5F5F5F5F5F5F5F5F5F5F5F5F5F5F5F5F5F5F5F5F5F5F5F5F5F5F5F5F5F5F5F5F5F5F5F5F5F5F5
310
F5F5F5F5F5F5F5F5F5F5F5F5F5F5F5F5F5F5F5F5F5F5F5F5F5F5F5F5F5F5F5F5F5F5E2F5F5F5F5F5F5F5F5F5F5F5E2E2F5F5F5F5F5F5F5F5F5F5F5E2F5F5F5F5F5F5F5F5F5F5F5F5F5F5F5F5F5F5F5F5F5F5F5F5F5F5F5F5F5F5F5F5F5F5F5F5F5F5F5F5F5F5F5F5F5F5F5F5F5F5F5F5F5F5F5F5F5F5F5F5F5F5F5F5F5F5F5
310
F5F5F5F5F5F5F5F5F5F5F5F5F5F5F5F5F5F5F5F5F5F5F5F5F5F5F5F5F5F5F5F5F5F5F5F5F5F5F5F5F5F5F5F5F5F5F5F5F5F5F5F5F5F5F5F5F5F5F5F5F5F5F5F5F5F5F5F5F5F5F5F5F5F5F5F5F5F5F5F5F5F5F5F5F5F5F5E2F5F5F5F5F5F5F5F5F5F5F5E2E2F5F5F5F5F5F5F5F5F5F5F5E2F5F5F5F5F5F5F5F5F5F5F5F5F5F5
310
F5F5F5F5F5F5F5F5F5F5F5F5F5F5F5F5F5F5F5F5F5F5F5F5F5F5F5F5F5F5F5F5F5F5F5F5F5F5F5F5F5F5F5F5F5F5F5F5F5F5F5F5F5F5F5F5F5F5F5F5F5F5F5F5F5F5F5F5F5F5F5F5F5F5F5F5F5F5F5F5F5F5F5F5F5F5F5F5F5F5F5F5F5F5F5F5F5F5F5F5F5F5F5F5F5F5F5F5F5F5F5F5F5F5F5F5F5F5F5F5F5F5F5F5F5F5F5
310
F5F5F5F5F5F5F5F5F5F5F5F5F5E2F5F5F5F5F5F5F5F5F5F5F5E2E2F5F5F5F5F5F5F5F5F5F5F5E2F5F5F5F5F5F5F5F5F5F5F5F5F5F5F5F5F5F5F5F5F5F5F5F5F5F5F5F5F5F5F5F5F5F5F5F5F5F5F5F5F5F5F5F5F5F5F5F5F5F5F5F5F5F5F5F5F5F5F5F5F5F5F5F5F5F5F5F5F5F5F5F5F5F5F5F5F5F5F5F5F5F5F5F5F5F5F5F5
310
F5F5F5F5F5F5F5F5F5F5F5F5F5F5F5F5F5F5F5F5F5F5F5F5F5F5F5F5F5F5F5F5F5F5F5F5F5F5F5F5F5F5F5F5F5F5F5F5F5F5F5F5F5F5F5F5F5F5F5F5F5F5F5F5F5F5E2F5F5F5F5F5F5F5F5F5F5F5E2E2F5F5F5F5F5F5F5F5F5F5F5E2F5F5F5F5F5F5F5F5F5F5F5F5F5F5F5F5F5F5F5F5F5F5F5F5F5F5F5F5F5F5F5F5F5F5F5
310
F5F5F5F5F5F5F5F5F5F5F5F5F5F5F5F5F5F5F5F5F5F5F5F5F5F5F5F5F5F5F5F5F5F5F5F5F5F5F5F5F5F5F5F5F5F5F5F5F5F5F5F5F5F5F5F5F5F5F5F5F5F5F5F5F5F5F5F5F5F5F5F5F5F5F5F5F5F5F5F5F5F5F5F5F5F5F5F5F5F5F5F5F5F5F5F5F5F5F5F5F5F5F5F5F5F5F5F5F5F5F5F5F5F5F5F5F5F5F5E2F5F5F5F5F5F5F5
310
F5F5F5F5E2E2F5F5F5F5F5F5F5F5F5F5F5E2F5F5F5F5F5F5F5F5F5F5F5F5F5F5F5F5F5F5F5F5F5F5F5F5F5F5F5F5F5F5F5F5F5F5F5F5F5F5F5F5F5F5F5F5F5F5F5F5F5F5F5F5F5F5F5F5F5F5F5F5F5F5F5F5F5F5F5F5F5F5F5F5F5F5F5F5F5F5F5F5F5F5F5F5F5F5F5F5F5F5F5F5F5F5F5F5F5F5F5F5F5F5F5F5F5F5F5F5F5
310
F5F5F5F5F5F5F5F5F5F5F5F5F5F5F5F5F5F5F5F5F5F5F5F5F5F5F5F5F5F5F5F5F5F5F5F5F5F5F5F5F5F5F5F5F5E2F5F5F5F5F5F5F5F5F5F5F5E2E2F5F5F5F5F5F5F5F5F5F5F5E2F5F5F5F5F5F5F5F5F5F5F5F5F5F5F5F5F5F5F5F5F5F5F5F5F5F5F5F5F5F5F5F5F5F5F5F5F5F5F5F5F5F5F5F5F5F5F5F5F5F5F5F5F5F5F5F5
310
F5F5F5F5F5F5F5F5F5F5F5F5F5F5F5F5F5F5F5F5F5F5F5F5F5F5F5F5F5F5F5F5F5F5F5F5F5F5F5F5F5F5F5F5F5F5F5F5F5F5F5F5F5F5F5F5F5F5F5F5F5F5F5F5F5F5F5F5F5F5F5F5F5F5F5F5F5F5F5F5F5F5F5F5F5F5F5F5F5F5F5F5F5F5F5F5F5F5E2F5F5F5F5F5F5F5F5F5F5F5E2E2F5F5F5F5F5F5F5F5F5F5F5E2E2E2E2
310
E2E2E2E2E2F5F5F5F5F5F5F5F5F5E2E2E2E2E2E2E2E2E2E2E2E2E2E2E2E2E2F5F5F5F5F5F5F5F5F5E2E2E2E2E2E2E2E2E2E2E2E2E2E2E2E2F5F5F5F5F5F5F5F5F5F5E2E2E2E2E2E2E2E2E2E2E2E2E2E2E2E2F5F5F5F5F5F5F5F5F5F5E2E2E2E2E2E2E2E2E2E2E2E2E2E2E2E2F5F5F5F5F5F5F5F5F5E2E2E2E2E2E2E2E2E2E2
310
E2E2E2E2E2E2E2F5F5F5F5F5F5F5F5F5E2E2E2E2E2E2E2E2E2F5F5F5F5F5F5F5F5F5F5F5E2E2F5F5F5F5F5F5F5F5F5F5F5F5F5F5F5F5F5F5F5F5F5F5F5F5F5F5F5F5F5F5F5F5F5F5F5F5F5F5F5F5F5F5F5F5F5F5F5F5F5F5F5F5F5F5F5F5F5F5F5F5F5F5F5F5F5F5F5F5F5F5F5F5F5F5F5F5F5F5F5F5F5F5F5F5F5F5F5F5F5
310
F5F5F5F5F5F5F5F5F5F5F5F5F5F5F5F5F5F5F5F5F5F5F5F5F5F5F5F5F5F5F5F5F5F5F5F5F5F5F5F5F5F5F5F5F5F5F5F5F5F5F5F5F5F5F5F5F5F5F5F5F5F5F5F5F5F5F5F5F5F5F5F5F5F5F5F5F5F5F5F5F5F5F5F5F5F5F5F5F5E2E2F5F5F5F5F5F5F5F5F5F5F5F5F5F5F5F5F5F5F5F5F5F5F5F5F5F5F5F5F5F5F5F5F5F5F5F5
310
F5F5F5F5F5F5F5F5F5F5F5F5F5F5F5F5F5F5F5F5F5F5F5F5F5F5F5F5F5F5F5F5F5F5F5F5F5F5F5F5F5F5F5F5F5F5F5F5F5F5F5F5F5F5F5F5F5F5F5F5F5F5F5F5F5F5F5F5F5F5F5F5F5F5F5F5F5F5F5F5F5F5F5F5F5F5F5F5F5F5F5F5F5F5F5F5F5F5F5F5F5F5F5F5F5F5F5F5F5F5F5F5F5F5F5F5F5F5F5F5F5F5F5F5F5F5F5
310
F5F5F5F5F5F5F5F5F5F5F5F5F5F5F5E2E2F5F5F5F5F5F5F5F5F5F5F5F5F5F5F5F5F5F5F5F5F5F5F5F5F5F5F5F5F5F5F5F5F5F5F5F5F5F5F5F5F5F5F5F5F5F5F5F5F5F5F5F5F5F5F5F5F5F5F5F5F5F5F5F5F5F5F5F5F5F5F5F5F5F5F5F5F5F5F5F5F5F5F5F5F5F5F5F5F5F5F5F5F5F5F5F5F5F5F5F5F5F5F5F5F5F5F5F5F5F5
310
F5F5F5F5F5F5F5F5F5F5F5F5F5F5F5F5F5F5F5F5F5F5F5F5F5F5F5F5F5F5F5F5F5F5F5F5F5F5F5F5F5F5F5F5F5F5F5F5F5F5F5F5F5F5F5F5F5F5F5F5F5F5F5F5F5F5F5F5E2E2F5F5F5F5F5F5F5F5F5F5F5F5F5F5F5F5F5F5F5F5F5F5F5F5F5F5F5F5F5F5F5F5F5F5F5F5F5F5F5F5F5F5F5F5F5F5F5F5F5F5F5F5F5F5F5F5F5
310
F5F5F5F5F5F5F5F5F5F5F5F5F5F5F5F5F5F5F5F5F5F5F5F5F5F5F5F5F5F5F5F5F5F5F5F5F5F5F5F5F5F5F5F5F5F5F5F5F5F5F5F5F5F5F5F5F5F5F5F5F5F5F5F5F5F5F5F5F5F5F5F5F5F5F5F5F5F5F5F5F5F5F5F5F5F5F5F5F5F5F5F5F5F5F5F5F5F5F5F5F5F5F5F5F5F5F5F5F5F5F5F5F5F5F5F5F5F5F5F5F5E2E2E2E2E2E2
310
E2E2E2E2E2E2E2E2E2E2E2E2E2E2E2E2E2E2E2E2E2E2E2E2E2E2E2E2E2E2E2E2E2E2E2E2E2E2E2E2E2E2E2E2E2E2E2E2E2E2E2E2E2E2E2E2E2E2E2E2E2E2E2E2E2E2E2E2E2E2E2E2E2E2E2E2E2E2E2E2E2E2E2E2E2E2E2E2E2E2E2E2E2E2E2E2E2E2E2E2E2E2E2E2E2E2E2E2E2E2E2E2E2E2E2E2E2E2E2E2E2E2E2E2E2E2E2
310
E2E2E2E2E2E2E2E2E2E2E2E2E2E2E2E2E2E2E2E2E2E2E2E2E2E2E2E2E2E2E2E2E2E2E2E2E2E2E2E2E2E2E2E2E2E2E2E2
  0
CELLSTYLEMAP
  5
23E
102
{ACAD_REACTORS
330
23C
102
}
330
23C
100
AcDbCellStyleMap
 90
        3
300
CELLSTYLE
  1
TABLEFORMAT_BEGIN
 90
        5
170
     1
 91
        0
 92
        0
 62
   257
 93
        1
300
CONTENTFORMAT
  1
CONTENTFORMAT_BEGIN
 90
        0
 91
        0
 92
      512
 93
        0
300

 40
0.0
140
1.0
 94
        5
 62
     0
340
1E
144
6.0
309
CONTENTFORMAT_END
171
     1
301
MARGIN
  1
CELLMARGIN_BEGIN
 40
1.5
 40
1.5
 40
1.5
 40
1.5
 40
4.5
 40
4.5
309
CELLMARGIN_END
 94
        6
 95
        1
302
GRIDFORMAT
  1
GRIDFORMAT_BEGIN
 90
        0
 91
        1
 62
     0
 92
       -2
340
0
 93
        0
 40
0.045
309
GRIDFORMAT_END
 95
        2
302
GRIDFORMAT
  1
GRIDFORMAT_BEGIN
 90
        0
 91
        1
 62
     0
 92
       -2
340
0
 93
        0
 40
0.045
309
GRIDFORMAT_END
 95
        4
302
GRIDFORMAT
  1
GRIDFORMAT_BEGIN
 90
        0
 91
        1
 62
     0
 92
       -2
340
0
 93
        0
 40
0.045
309
GRIDFORMAT_END
 95
        8
302
GRIDFORMAT
  1
GRIDFORMAT_BEGIN
 90
        0
 91
        1
 62
     0
 92
       -2
340
0
 93
        0
 40
0.045
309
GRIDFORMAT_END
 95
       16
302
GRIDFORMAT
  1
GRIDFORMAT_BEGIN
 90
        0
 91
        1
 62
     0
 92
       -2
340
0
 93
        0
 40
0.045
309
GRIDFORMAT_END
 95
       32
302
GRIDFORMAT
  1
GRIDFORMAT_BEGIN
 90
        0
 91
        1
 62
     0
 92
       -2
340
0
 93
        0
 40
0.045
309
GRIDFORMAT_END
309
TABLEFORMAT_END
  1
CELLSTYLE_BEGIN
 90
        1
 91
        1
300
_TITLE
309
CELLSTYLE_END
300
CELLSTYLE
  1
TABLEFORMAT_BEGIN
 90
        5
170
     1
 91
        0
 92
        0
 62
   257
 93
        1
300
CONTENTFORMAT
  1
CONTENTFORMAT_BEGIN
 90
        0
 91
        0
 92
      512
 93
        0
300

 40
0.0
140
1.0
 94
        5
 62
     0
340
1E
144
4.5
309
CONTENTFORMAT_END
171
     1
301
MARGIN
  1
CELLMARGIN_BEGIN
 40
1.5
 40
1.5
 40
1.5
 40
1.5
 40
4.5
 40
4.5
309
CELLMARGIN_END
 94
        6
 95
        1
302
GRIDFORMAT
  1
GRIDFORMAT_BEGIN
 90
        0
 91
        1
 62
     0
 92
       -2
340
0
 93
        0
 40
0.045
309
GRIDFORMAT_END
 95
        2
302
GRIDFORMAT
  1
GRIDFORMAT_BEGIN
 90
        0
 91
        1
 62
     0
 92
       -2
340
0
 93
        0
 40
0.045
309
GRIDFORMAT_END
 95
        4
302
GRIDFORMAT
  1
GRIDFORMAT_BEGIN
 90
        0
 91
        1
 62
     0
 92
       -2
340
0
 93
        0
 40
0.045
309
GRIDFORMAT_END
 95
        8
302
GRIDFORMAT
  1
GRIDFORMAT_BEGIN
 90
        0
 91
        1
 62
     0
 92
       -2
340
0
 93
        0
 40
0.045
309
GRIDFORMAT_END
 95
       16
302
GRIDFORMAT
  1
GRIDFORMAT_BEGIN
 90
        0
 91
        1
 62
     0
 92
       -2
340
0
 93
        0
 40
0.045
309
GRIDFORMAT_END
 95
       32
302
GRIDFORMAT
  1
GRIDFORMAT_BEGIN
 90
        0
 91
        1
 62
     0
 92
       -2
340
0
 93
        0
 40
0.045
309
GRIDFORMAT_END
309
TABLEFORMAT_END
  1
CELLSTYLE_BEGIN
 90
        2
 91
        1
300
_HEADER
309
CELLSTYLE_END
300
CELLSTYLE
  1
TABLEFORMAT_BEGIN
 90
        5
170
     1
 91
        0
 92
        0
 62
   257
 93
        1
300
CONTENTFORMAT
  1
CONTENTFORMAT_BEGIN
 90
        0
 91
        0
 92
      512
 93
        0
300

 40
0.0
140
1.0
 94
        2
 62
     0
340
1E
144
4.5
309
CONTENTFORMAT_END
171
     1
301
MARGIN
  1
CELLMARGIN_BEGIN
 40
1.5
 40
1.5
 40
1.5
 40
1.5
 40
4.5
 40
4.5
309
CELLMARGIN_END
 94
        6
 95
        1
302
GRIDFORMAT
  1
GRIDFORMAT_BEGIN
 90
        0
 91
        1
 62
     0
 92
       -2
340
0
 93
        0
 40
0.045
309
GRIDFORMAT_END
 95
        2
302
GRIDFORMAT
  1
GRIDFORMAT_BEGIN
 90
        0
 91
        1
 62
     0
 92
       -2
340
0
 93
        0
 40
0.045
309
GRIDFORMAT_END
 95
        4
302
GRIDFORMAT
  1
GRIDFORMAT_BEGIN
 90
        0
 91
        1
 62
     0
 92
       -2
340
0
 93
        0
 40
0.045
309
GRIDFORMAT_END
 95
        8
302
GRIDFORMAT
  1
GRIDFORMAT_BEGIN
 90
        0
 91
        1
 62
     0
 92
       -2
340
0
 93
        0
 40
0.045
309
GRIDFORMAT_END
 95
       16
302
GRIDFORMAT
  1
GRIDFORMAT_BEGIN
 90
        0
 91
        1
 62
     0
 92
       -2
340
0
 93
        0
 40
0.045
309
GRIDFORMAT_END
 95
       32
302
GRIDFORMAT
  1
GRIDFORMAT_BEGIN
 90
        0
 91
        1
 62
     0
 92
       -2
340
0
 93
        0
 40
0.045
309
GRIDFORMAT_END
309
TABLEFORMAT_END
  1
CELLSTYLE_BEGIN
 90
        3
 91
        2
300
_DATA
309
CELLSTYLE_END
  0
XRECORD
  5
23D
102
{ACAD_REACTORS
330
23C
102
}
330
23C
100
AcDbXrecord
280
     1
102
ACAD_ROUNDTRIP_PRE2007_TABLESTYLE
 90
      512
 91
        0
  1

 92
      512
 93
        0
  2

 94
      512
 95
        0
  3

  0
XRECORD
  5
23B
102
{ACAD_REACTORS
330
23A
102
}
330
23A
100
AcDbXrecord
280
     1
102
RTVSPropertyOp0
 70
     1
102
RTVSPropertyOp1
 70
     1
102
RTVSPropertyOp2
 70
     1
102
RTVSPropertyOp3
 70
     1
102
RTVSPropertyOp4
 70
     1
102
RTVSPropertyOp5
 70
     1
102
RTVSPropertyOp6
 70
     1
102
RTVSPropertyOp7
 70
     1
102
RTVSPropertyOp8
 70
     1
102
RTVSPropertyOp9
 70
     1
102
RTVSPropertyOp10
 70
     1
102
RTVSPropertyOp11
 70
     1
102
RTVSPropertyOp12
 70
     1
102
RTVSPropertyOp13
 70
     1
102
RTVSPropertyOp14
 70
     1
102
RTVSPropertyOp15
 70
     1
102
RTVSPropertyOp16
 70
     1
102
RTVSPropertyOp17
 70
     1
102
RTVSPropertyOp18
 70
     1
102
RTVSPropertyOp19
 70
     1
102
RTVSPropertyOp20
 70
     1
102
RTVSPropertyOp21
 70
     1
102
RTVSPropertyOp22
 70
     1
102
RTVSPropertyOp23
 70
     1
102
RTVSPropertyOp24
 70
     1
102
RTVSPropertyOp25
 70
     1
102
RTVSPropertyOp26
 70
     1
102
RTVSPropertyOp27
 70
     1
  0
XRECORD
  5
24F
102
{ACAD_REACTORS
330
24E
102
}
330
24E
100
AcDbXrecord
280
     1
102
RTVSPropertyOp0
 70
     1
102
RTVSPropertyOp1
 70
     1
102
RTVSPropertyOp2
 70
     1
102
RTVSPropertyOp3
 70
     1
102
RTVSPropertyOp4
 70
     1
102
RTVSPropertyOp5
 70
     1
102
RTVSPropertyOp6
 70
     1
102
RTVSPropertyOp7
 70
     1
102
RTVSPropertyOp8
 70
     1
102
RTVSPropertyOp9
 70
     1
102
RTVSPropertyOp10
 70
     1
102
RTVSPropertyOp11
 70
     1
102
RTVSPropertyOp12
 70
     1
102
RTVSPropertyOp13
 70
     1
102
RTVSPropertyOp14
 70
     1
102
RTVSPropertyOp15
 70
     1
102
RTVSPropertyOp16
 70
     1
102
RTVSPropertyOp17
 70
     1
102
RTVSPropertyOp18
 70
     1
102
RTVSPropertyOp19
 70
     1
102
RTVSPropertyOp20
 70
     1
102
RTVSPropertyOp21
 70
     1
102
RTVSPropertyOp22
 70
     1
102
RTVSPropertyOp23
 70
     1
102
RTVSPropertyOp24
 70
     1
102
RTVSPropertyOp25
 70
     1
102
RTVSPropertyOp26
 70
     1
102
RTVSPropertyOp27
 70
     1
  0
XRECORD
  5
243
102
{ACAD_REACTORS
330
242
102
}
330
242
100
AcDbXrecord
280
     1
102
RTVSPropertyOp0
 70
     1
102
RTVSPropertyOp1
 70
     1
102
RTVSPropertyOp2
 70
     1
102
RTVSPropertyOp3
 70
     1
102
RTVSPropertyOp4
 70
     1
102
RTVSPropertyOp5
 70
     1
102
RTVSPropertyOp6
 70
     1
102
RTVSPropertyOp7
 70
     1
102
RTVSPropertyOp8
 70
     1
102
RTVSPropertyOp9
 70
     1
102
RTVSPropertyOp10
 70
     1
102
RTVSPropertyOp11
 70
     1
102
RTVSPropertyOp12
 70
     1
102
RTVSPropertyOp13
 70
     1
102
RTVSPropertyOp14
 70
     1
102
RTVSPropertyOp15
 70
     1
102
RTVSPropertyOp16
 70
     1
102
RTVSPropertyOp17
 70
     1
102
RTVSPropertyOp18
 70
     1
102
RTVSPropertyOp19
 70
     1
102
RTVSPropertyOp20
 70
     1
102
RTVSPropertyOp21
 70
     1
102
RTVSPropertyOp22
 70
     1
102
RTVSPropertyOp23
 70
     1
102
RTVSPropertyOp24
 70
     1
102
RTVSPropertyOp25
 70
     1
102
RTVSPropertyOp26
 70
     1
102
RTVSPropertyOp27
 70
     1
  0
XRECORD
  5
24D
102
{ACAD_REACTORS
330
24C
102
}
330
24C
100
AcDbXrecord
280
     1
102
RTVSPropertyOp0
 70
     1
102
RTVSPropertyOp1
 70
     1
102
RTVSPropertyOp2
 70
     1
102
RTVSPropertyOp3
 70
     1
102
RTVSPropertyOp4
 70
     1
102
RTVSPropertyOp5
 70
     1
102
RTVSPropertyOp6
 70
     1
102
RTVSPropertyOp7
 70
     1
102
RTVSPropertyOp8
 70
     1
102
RTVSPropertyOp9
 70
     1
102
RTVSPropertyOp10
 70
     1
102
RTVSPropertyOp11
 70
     1
102
RTVSPropertyOp12
 70
     1
102
RTVSPropertyOp13
 70
     1
102
RTVSPropertyOp14
 70
     1
102
RTVSPropertyOp15
 70
     1
102
RTVSPropertyOp16
 70
     1
102
RTVSPropertyOp17
 70
     1
102
RTVSPropertyOp18
 70
     1
102
RTVSPropertyOp19
 70
     1
102
RTVSPropertyOp20
 70
     1
102
RTVSPropertyOp21
 70
     1
102
RTVSPropertyOp22
 70
     1
102
RTVSPropertyOp23
 70
     1
102
RTVSPropertyOp24
 70
     1
102
RTVSPropertyOp25
 70
     1
102
RTVSPropertyOp26
 70
     1
102
RTVSPropertyOp27
 70
     1
  0
XRECORD
  5
255
102
{ACAD_REACTORS
330
254
102
}
330
254
100
AcDbXrecord
280
     1
102
RTVSPropertyOp0
 70
     1
102
RTVSPropertyOp1
 70
     1
102
RTVSPropertyOp2
 70
     1
102
RTVSPropertyOp3
 70
     1
102
RTVSPropertyOp4
 70
     1
102
RTVSPropertyOp5
 70
     1
102
RTVSPropertyOp6
 70
     1
102
RTVSPropertyOp7
 70
     1
102
RTVSPropertyOp8
 70
     1
102
RTVSPropertyOp9
 70
     1
102
RTVSPropertyOp10
 70
     1
102
RTVSPropertyOp11
 70
     1
102
RTVSPropertyOp12
 70
     1
102
RTVSPropertyOp13
 70
     1
102
RTVSPropertyOp14
 70
     1
102
RTVSPropertyOp15
 70
     1
102
RTVSPropertyOp16
 70
     1
102
RTVSPropertyOp17
 70
     1
102
RTVSPropertyOp18
 70
     1
102
RTVSPropertyOp19
 70
     1
102
RTVSPropertyOp20
 70
     1
102
RTVSPropertyOp21
 70
     1
102
RTVSPropertyOp22
 70
     1
102
RTVSPropertyOp23
 70
     1
102
RTVSPropertyOp24
 70
     1
102
RTVSPropertyOp25
 70
     1
102
RTVSPropertyOp26
 70
     1
102
RTVSPropertyOp27
 70
     1
  0
XRECORD
  5
25D
102
{ACAD_REACTORS
330
25C
102
}
330
25C
100
AcDbXrecord
280
     1
102
RTVSPropertyOp0
 70
     1
102
RTVSPropertyOp1
 70
     1
102
RTVSPropertyOp2
 70
     1
102
RTVSPropertyOp3
 70
     1
102
RTVSPropertyOp4
 70
     1
102
RTVSPropertyOp5
 70
     1
102
RTVSPropertyOp6
 70
     1
102
RTVSPropertyOp7
 70
     1
102
RTVSPropertyOp8
 70
     1
102
RTVSPropertyOp9
 70
     1
102
RTVSPropertyOp10
 70
     1
102
RTVSPropertyOp11
 70
     1
102
RTVSPropertyOp12
 70
     1
102
RTVSPropertyOp13
 70
     1
102
RTVSPropertyOp14
 70
     1
102
RTVSPropertyOp15
 70
     1
102
RTVSPropertyOp16
 70
     1
102
RTVSPropertyOp17
 70
     1
102
RTVSPropertyOp18
 70
     1
102
RTVSPropertyOp19
 70
     1
102
RTVSPropertyOp20
 70
     1
102
RTVSPropertyOp21
 70
     1
102
RTVSPropertyOp22
 70
     1
102
RTVSPropertyOp23
 70
     1
102
RTVSPropertyOp24
 70
     1
102
RTVSPropertyOp25
 70
     1
102
RTVSPropertyOp26
 70
     1
102
RTVSPropertyOp27
 70
     1
  0
XRECORD
  5
251
102
{ACAD_REACTORS
330
250
102
}
330
250
100
AcDbXrecord
280
     1
102
RTVSPropertyOp0
 70
     1
102
RTVSPropertyOp1
 70
     1
102
RTVSPropertyOp2
 70
     1
102
RTVSPropertyOp3
 70
     1
102
RTVSPropertyOp4
 70
     1
102
RTVSPropertyOp5
 70
     1
102
RTVSPropertyOp6
 70
     1
102
RTVSPropertyOp7
 70
     1
102
RTVSPropertyOp8
 70
     1
102
RTVSPropertyOp9
 70
     1
102
RTVSPropertyOp10
 70
     1
102
RTVSPropertyOp11
 70
     1
102
RTVSPropertyOp12
 70
     1
102
RTVSPropertyOp13
 70
     1
102
RTVSPropertyOp14
 70
     1
102
RTVSPropertyOp15
 70
     1
102
RTVSPropertyOp16
 70
     1
102
RTVSPropertyOp17
 70
     1
102
RTVSPropertyOp18
 70
     1
102
RTVSPropertyOp19
 70
     1
102
RTVSPropertyOp20
 70
     1
102
RTVSPropertyOp21
 70
     1
102
RTVSPropertyOp22
 70
     1
102
RTVSPropertyOp23
 70
     1
102
RTVSPropertyOp24
 70
     1
102
RTVSPropertyOp25
 70
     1
102
RTVSPropertyOp26
 70
     1
102
RTVSPropertyOp27
 70
     1
  0
XRECORD
  5
253
102
{ACAD_REACTORS
330
252
102
}
330
252
100
AcDbXrecord
280
     1
102
RTVSPropertyOp0
 70
     1
102
RTVSPropertyOp1
 70
     1
102
RTVSPropertyOp2
 70
     1
102
RTVSPropertyOp3
 70
     1
102
RTVSPropertyOp4
 70
     1
102
RTVSPropertyOp5
 70
     1
102
RTVSPropertyOp6
 70
     1
102
RTVSPropertyOp7
 70
     1
102
RTVSPropertyOp8
 70
     1
102
RTVSPropertyOp9
 70
     1
102
RTVSPropertyOp10
 70
     1
102
RTVSPropertyOp11
 70
     1
102
RTVSPropertyOp12
 70
     1
102
RTVSPropertyOp13
 70
     1
102
RTVSPropertyOp14
 70
     1
102
RTVSPropertyOp15
 70
     1
102
RTVSPropertyOp16
 70
     1
102
RTVSPropertyOp17
 70
     1
102
RTVSPropertyOp18
 70
     1
102
RTVSPropertyOp19
 70
     1
102
RTVSPropertyOp20
 70
     1
102
RTVSPropertyOp21
 70
     1
102
RTVSPropertyOp22
 70
     1
102
RTVSPropertyOp23
 70
     1
102
RTVSPropertyOp24
 70
     1
102
RTVSPropertyOp25
 70
     1
102
RTVSPropertyOp26
 70
     1
102
RTVSPropertyOp27
 70
     1
  0
XRECORD
  5
25B
102
{ACAD_REACTORS
330
25A
102
}
330
25A
100
AcDbXrecord
280
     1
102
RTVSPropertyOp0
 70
     1
102
RTVSPropertyOp1
 70
     1
102
RTVSPropertyOp2
 70
     1
102
RTVSPropertyOp3
 70
     1
102
RTVSPropertyOp4
 70
     1
102
RTVSPropertyOp5
 70
     1
102
RTVSPropertyOp6
 70
     1
102
RTVSPropertyOp7
 70
     1
102
RTVSPropertyOp8
 70
     1
102
RTVSPropertyOp9
 70
     1
102
RTVSPropertyOp10
 70
     1
102
RTVSPropertyOp11
 70
     1
102
RTVSPropertyOp12
 70
     1
102
RTVSPropertyOp13
 70
     1
102
RTVSPropertyOp14
 70
     1
102
RTVSPropertyOp15
 70
     1
102
RTVSPropertyOp16
 70
     1
102
RTVSPropertyOp17
 70
     1
102
RTVSPropertyOp18
 70
     1
102
RTVSPropertyOp19
 70
     1
102
RTVSPropertyOp20
 70
     1
102
RTVSPropertyOp21
 70
     1
102
RTVSPropertyOp22
 70
     1
102
RTVSPropertyOp23
 70
     1
102
RTVSPropertyOp24
 70
     1
102
RTVSPropertyOp25
 70
     1
102
RTVSPropertyOp26
 70
     1
102
RTVSPropertyOp27
 70
     1
  0
XRECORD
  5
245
102
{ACAD_REACTORS
330
244
102
}
330
244
100
AcDbXrecord
280
     1
102
RTVSPropertyOp0
 70
     1
102
RTVSPropertyOp1
 70
     1
102
RTVSPropertyOp2
 70
     1
102
RTVSPropertyOp3
 70
     1
102
RTVSPropertyOp4
 70
     1
102
RTVSPropertyOp5
 70
     1
102
RTVSPropertyOp6
 70
     1
102
RTVSPropertyOp7
 70
     1
102
RTVSPropertyOp8
 70
     1
102
RTVSPropertyOp9
 70
     1
102
RTVSPropertyOp10
 70
     1
102
RTVSPropertyOp11
 70
     1
102
RTVSPropertyOp12
 70
     1
102
RTVSPropertyOp13
 70
     1
102
RTVSPropertyOp14
 70
     1
102
RTVSPropertyOp15
 70
     1
102
RTVSPropertyOp16
 70
     1
102
RTVSPropertyOp17
 70
     1
102
RTVSPropertyOp18
 70
     1
102
RTVSPropertyOp19
 70
     1
102
RTVSPropertyOp20
 70
     1
102
RTVSPropertyOp21
 70
     1
102
RTVSPropertyOp22
 70
     1
102
RTVSPropertyOp23
 70
     1
102
RTVSPropertyOp24
 70
     1
102
RTVSPropertyOp25
 70
     1
102
RTVSPropertyOp26
 70
     1
102
RTVSPropertyOp27
 70
     1
  0
XRECORD
  5
247
102
{ACAD_REACTORS
330
246
102
}
330
246
100
AcDbXrecord
280
     1
102
RTVSPropertyOp0
 70
     1
102
RTVSPropertyOp1
 70
     1
102
RTVSPropertyOp2
 70
     1
102
RTVSPropertyOp3
 70
     1
102
RTVSPropertyOp4
 70
     1
102
RTVSPropertyOp5
 70
     1
102
RTVSPropertyOp6
 70
     1
102
RTVSPropertyOp7
 70
     1
102
RTVSPropertyOp8
 70
     1
102
RTVSPropertyOp9
 70
     1
102
RTVSPropertyOp10
 70
     1
102
RTVSPropertyOp11
 70
     1
102
RTVSPropertyOp12
 70
     1
102
RTVSPropertyOp13
 70
     1
102
RTVSPropertyOp14
 70
     1
102
RTVSPropertyOp15
 70
     1
102
RTVSPropertyOp16
 70
     1
102
RTVSPropertyOp17
 70
     1
102
RTVSPropertyOp18
 70
     1
102
RTVSPropertyOp19
 70
     1
102
RTVSPropertyOp20
 70
     1
102
RTVSPropertyOp21
 70
     1
102
RTVSPropertyOp22
 70
     1
102
RTVSPropertyOp23
 70
     1
102
RTVSPropertyOp24
 70
     1
102
RTVSPropertyOp25
 70
     1
102
RTVSPropertyOp26
 70
     1
102
RTVSPropertyOp27
 70
     1
  0
XRECORD
  5
249
102
{ACAD_REACTORS
330
248
102
}
330
248
100
AcDbXrecord
280
     1
102
RTVSPropertyOp0
 70
     1
102
RTVSPropertyOp1
 70
     1
102
RTVSPropertyOp2
 70
     1
102
RTVSPropertyOp3
 70
     1
102
RTVSPropertyOp4
 70
     1
102
RTVSPropertyOp5
 70
     1
102
RTVSPropertyOp6
 70
     1
102
RTVSPropertyOp7
 70
     1
102
RTVSPropertyOp8
 70
     1
102
RTVSPropertyOp9
 70
     1
102
RTVSPropertyOp10
 70
     1
102
RTVSPropertyOp11
 70
     1
102
RTVSPropertyOp12
 70
     1
102
RTVSPropertyOp13
 70
     1
102
RTVSPropertyOp14
 70
     1
102
RTVSPropertyOp15
 70
     1
102
RTVSPropertyOp16
 70
     1
102
RTVSPropertyOp17
 70
     1
102
RTVSPropertyOp18
 70
     1
102
RTVSPropertyOp19
 70
     1
102
RTVSPropertyOp20
 70
     1
102
RTVSPropertyOp21
 70
     1
102
RTVSPropertyOp22
 70
     1
102
RTVSPropertyOp23
 70
     1
102
RTVSPropertyOp24
 70
     1
102
RTVSPropertyOp25
 70
     1
102
RTVSPropertyOp26
 70
     1
102
RTVSPropertyOp27
 70
     1
  0
XRECORD
  5
24B
102
{ACAD_REACTORS
330
24A
102
}
330
24A
100
AcDbXrecord
280
     1
102
RTVSPropertyOp0
 70
     1
102
RTVSPropertyOp1
 70
     1
102
RTVSPropertyOp2
 70
     1
102
RTVSPropertyOp3
 70
     1
102
RTVSPropertyOp4
 70
     1
102
RTVSPropertyOp5
 70
     1
102
RTVSPropertyOp6
 70
     1
102
RTVSPropertyOp7
 70
     1
102
RTVSPropertyOp8
 70
     1
102
RTVSPropertyOp9
 70
     1
102
RTVSPropertyOp10
 70
     1
102
RTVSPropertyOp11
 70
     1
102
RTVSPropertyOp12
 70
     1
102
RTVSPropertyOp13
 70
     1
102
RTVSPropertyOp14
 70
     1
102
RTVSPropertyOp15
 70
     1
102
RTVSPropertyOp16
 70
     1
102
RTVSPropertyOp17
 70
     1
102
RTVSPropertyOp18
 70
     1
102
RTVSPropertyOp19
 70
     1
102
RTVSPropertyOp20
 70
     1
102
RTVSPropertyOp21
 70
     1
102
RTVSPropertyOp22
 70
     1
102
RTVSPropertyOp23
 70
     1
102
RTVSPropertyOp24
 70
     1
102
RTVSPropertyOp25
 70
     1
102
RTVSPropertyOp26
 70
     1
102
RTVSPropertyOp27
 70
     1
  0
XRECORD
  5
259
102
{ACAD_REACTORS
330
258
102
}
330
258
100
AcDbXrecord
280
     1
102
RTVSPropertyOp0
 70
     1
102
RTVSPropertyOp1
 70
     1
102
RTVSPropertyOp2
 70
     1
102
RTVSPropertyOp3
 70
     1
102
RTVSPropertyOp4
 70
     1
102
RTVSPropertyOp5
 70
     1
102
RTVSPropertyOp6
 70
     1
102
RTVSPropertyOp7
 70
     1
102
RTVSPropertyOp8
 70
     1
102
RTVSPropertyOp9
 70
     1
102
RTVSPropertyOp10
 70
     1
102
RTVSPropertyOp11
 70
     1
102
RTVSPropertyOp12
 70
     1
102
RTVSPropertyOp13
 70
     1
102
RTVSPropertyOp14
 70
     1
102
RTVSPropertyOp15
 70
     1
102
RTVSPropertyOp16
 70
     1
102
RTVSPropertyOp17
 70
     1
102
RTVSPropertyOp18
 70
     1
102
RTVSPropertyOp19
 70
     1
102
RTVSPropertyOp20
 70
     1
102
RTVSPropertyOp21
 70
     1
102
RTVSPropertyOp22
 70
     1
102
RTVSPropertyOp23
 70
     1
102
RTVSPropertyOp24
 70
     1
102
RTVSPropertyOp25
 70
     1
102
RTVSPropertyOp26
 70
     1
102
RTVSPropertyOp27
 70
     1
  0
XRECORD
  5
241
102
{ACAD_REACTORS
330
240
102
}
330
240
100
AcDbXrecord
280
     1
102
RTVSPropertyOp0
 70
     1
102
RTVSPropertyOp1
 70
     1
102
RTVSPropertyOp2
 70
     1
102
RTVSPropertyOp3
 70
     1
102
RTVSPropertyOp4
 70
     1
102
RTVSPropertyOp5
 70
     1
102
RTVSPropertyOp6
 70
     1
102
RTVSPropertyOp7
 70
     1
102
RTVSPropertyOp8
 70
     1
102
RTVSPropertyOp9
 70
     1
102
RTVSPropertyOp10
 70
     1
102
RTVSPropertyOp11
 70
     1
102
RTVSPropertyOp12
 70
     1
102
RTVSPropertyOp13
 70
     1
102
RTVSPropertyOp14
 70
     1
102
RTVSPropertyOp15
 70
     1
102
RTVSPropertyOp16
 70
     1
102
RTVSPropertyOp17
 70
     1
102
RTVSPropertyOp18
 70
     1
102
RTVSPropertyOp19
 70
     1
102
RTVSPropertyOp20
 70
     1
102
RTVSPropertyOp21
 70
     1
102
RTVSPropertyOp22
 70
     1
102
RTVSPropertyOp23
 70
     1
102
RTVSPropertyOp24
 70
     1
102
RTVSPropertyOp25
 70
     1
102
RTVSPropertyOp26
 70
     1
102
RTVSPropertyOp27
 70
     1
  0
XRECORD
  5
257
102
{ACAD_REACTORS
330
256
102
}
330
256
100
AcDbXrecord
280
     1
102
RTVSPropertyOp0
 70
     1
102
RTVSPropertyOp1
 70
     1
102
RTVSPropertyOp2
 70
     1
102
RTVSPropertyOp3
 70
     1
102
RTVSPropertyOp4
 70
     1
102
RTVSPropertyOp5
 70
     1
102
RTVSPropertyOp6
 70
     1
102
RTVSPropertyOp7
 70
     1
102
RTVSPropertyOp8
 70
     1
102
RTVSPropertyOp9
 70
     1
102
RTVSPropertyOp10
 70
     1
102
RTVSPropertyOp11
 70
     1
102
RTVSPropertyOp12
 70
     1
102
RTVSPropertyOp13
 70
     1
102
RTVSPropertyOp14
 70
     1
102
RTVSPropertyOp15
 70
     1
102
RTVSPropertyOp16
 70
     1
102
RTVSPropertyOp17
 70
     1
102
RTVSPropertyOp18
 70
     1
102
RTVSPropertyOp19
 70
     1
102
RTVSPropertyOp20
 70
     1
102
RTVSPropertyOp21
 70
     1
102
RTVSPropertyOp22
 70
     1
102
RTVSPropertyOp23
 70
     1
102
RTVSPropertyOp24
 70
     1
102
RTVSPropertyOp25
 70
     1
102
RTVSPropertyOp26
 70
     1
102
RTVSPropertyOp27
 70
     1
  0
ENDSEC
  0
EOF
