  0
SECTION
  2
HEADER
  9
$ACADVER
  1
AC1018
  9
$ACADMAINTVER
 70
   104
  9
$DWGCODEPAGE
  3
ANSI_936
  9
$LASTSAVEDBY
  1
chaxiu.zhu
  9
$INSBASE
 10
0.0
 20
0.0
 30
0.0
  9
$EXTMIN
 10
63601.91129270232
 20
-11014.22561622886
 30
-0.00000001
  9
$EXTMAX
 10
64726.12974943656
 20
-9775.752293021708
 30
0.00000001
  9
$LIMMIN
 10
0.0
 20
0.0
  9
$LIMMAX
 10
420.0
 20
297.0
  9
$ORTHOMODE
 70
     1
  9
$REGENMODE
 70
     1
  9
$FILLMODE
 70
     1
  9
$QTEXTMODE
 70
     0
  9
$MIRRTEXT
 70
     0
  9
$LTSCALE
 40
1.0
  9
$ATTMODE
 70
     1
  9
$TEXTSIZE
 40
2.5
  9
$TRACEWID
 40
1.0
  9
$TEXTSTYLE
  7
Standard
  9
$CLAYER
  8
轮廓线.
  9
$CELTYPE
  6
ByLayer
  9
$CECOLOR
 62
     3
  9
$CELTSCALE
 40
1.0
  9
$DISPSILH
 70
     0
  9
$DIMSCALE
 40
7.0
  9
$DIMASZ
 40
1.5
  9
$DIMEXO
 40
0.625
  9
$DIMDLI
 40
3.75
  9
$DIMRND
 40
0.0
  9
$DIMDLE
 40
0.0
  9
$DIMEXE
 40
0.5
  9
$DIMTP
 40
0.0
  9
$DIMTM
 40
0.0
  9
$DIMTXT
 40
2.5
  9
$DIMCEN
 40
2.5
  9
$DIMTSZ
 40
0.0
  9
$DIMTOL
 70
     0
  9
$DIMLIM
 70
     0
  9
$DIMTIH
 70
     0
  9
$DIMTOH
 70
     0
  9
$DIMSE1
 70
     0
  9
$DIMSE2
 70
     0
  9
$DIMTAD
 70
     1
  9
$DIMZIN
 70
     8
  9
$DIMBLK
  1

  9
$DIMASO
 70
     1
  9
$DIMSHO
 70
     1
  9
$DIMPOST
  1

  9
$DIMAPOST
  1

  9
$DIMALT
 70
     0
  9
$DIMALTD
 70
     3
  9
$DIMALTF
 40
0.03937007874016
  9
$DIMLFAC
 40
1.0
  9
$DIMTOFL
 70
     1
  9
$DIMTVP
 40
0.0
  9
$DIMTIX
 70
     0
  9
$DIMSOXD
 70
     0
  9
$DIMSAH
 70
     0
  9
$DIMBLK1
  1

  9
$DIMBLK2
  1

  9
$DIMSTYLE
  2
ISO-25
  9
$DIMCLRD
 70
     0
  9
$DIMCLRE
 70
     0
  9
$DIMCLRT
 70
     0
  9
$DIMTFAC
 40
1.0
  9
$DIMGAP
 40
0.3
  9
$DIMJUST
 70
     0
  9
$DIMSD1
 70
     0
  9
$DIMSD2
 70
     0
  9
$DIMTOLJ
 70
     0
  9
$DIMTZIN
 70
     8
  9
$DIMALTZ
 70
     0
  9
$DIMALTTZ
 70
     0
  9
$DIMUPT
 70
     0
  9
$DIMDEC
 70
     0
  9
$DIMTDEC
 70
     0
  9
$DIMALTU
 70
     2
  9
$DIMALTTD
 70
     3
  9
$DIMTXSTY
  7
Standard
  9
$DIMAUNIT
 70
     0
  9
$DIMADEC
 70
     0
  9
$DIMALTRND
 40
0.0
  9
$DIMAZIN
 70
     0
  9
$DIMDSEP
 70
    46
  9
$DIMATFIT
 70
     3
  9
$DIMFRAC
 70
     0
  9
$DIMLDRBLK
  1

  9
$DIMLUNIT
 70
     2
  9
$DIMLWD
 70
    -2
  9
$DIMLWE
 70
    -2
  9
$DIMTMOVE
 70
     0
  9
$LUNITS
 70
     2
  9
$LUPREC
 70
     4
  9
$SKETCHINC
 40
1.0
  9
$FILLETRAD
 40
30.0
  9
$AUNITS
 70
     0
  9
$AUPREC
 70
     0
  9
$MENU
  1
.
  9
$ELEVATION
 40
0.0
  9
$PELEVATION
 40
0.0
  9
$THICKNESS
 40
0.0
  9
$LIMCHECK
 70
     0
  9
$CHAMFERA
 40
0.0
  9
$CHAMFERB
 40
0.0
  9
$CHAMFERC
 40
0.0
  9
$CHAMFERD
 40
0.0
  9
$SKPOLY
 70
     0
  9
$TDCREATE
 40
2455843.370532037
  9
$TDUCREATE
 40
2455843.037198704
  9
$TDUPDATE
 40
2458858.486205463
  9
$TDUUPDATE
 40
2458858.152872130
  9
$TDINDWG
 40
18.6924702546
  9
$TDUSRTIMER
 40
18.6924700810
  9
$USRTIMER
 70
     1
  9
$ANGBASE
 50
0.0
  9
$ANGDIR
 70
     0
  9
$PDMODE
 70
     0
  9
$PDSIZE
 40
0.0
  9
$PLINEWID
 40
0.0
  9
$SPLFRAME
 70
     0
  9
$SPLINETYPE
 70
     6
  9
$SPLINESEGS
 70
     8
  9
$HANDSEED
  5
237
  9
$SURFTAB1
 70
     6
  9
$SURFTAB2
 70
     6
  9
$SURFTYPE
 70
     6
  9
$SURFU
 70
     6
  9
$SURFV
 70
     6
  9
$UCSBASE
  2

  9
$UCSNAME
  2

  9
$UCSORG
 10
0.0
 20
0.0
 30
0.0
  9
$UCSXDIR
 10
1.0
 20
0.0
 30
0.0
  9
$UCSYDIR
 10
0.0
 20
1.0
 30
0.0
  9
$UCSORTHOREF
  2

  9
$UCSORTHOVIEW
 70
     1
  9
$UCSORGTOP
 10
0.0
 20
0.0
 30
0.0
  9
$UCSORGBOTTOM
 10
0.0
 20
0.0
 30
0.0
  9
$UCSORGLEFT
 10
0.0
 20
0.0
 30
0.0
  9
$UCSORGRIGHT
 10
0.0
 20
0.0
 30
0.0
  9
$UCSORGFRONT
 10
0.0
 20
0.0
 30
0.0
  9
$UCSORGBACK
 10
0.0
 20
0.0
 30
0.0
  9
$PUCSBASE
  2

  9
$PUCSNAME
  2

  9
$PUCSORG
 10
0.0
 20
0.0
 30
0.0
  9
$PUCSXDIR
 10
1.0
 20
0.0
 30
0.0
  9
$PUCSYDIR
 10
0.0
 20
1.0
 30
0.0
  9
$PUCSORTHOREF
  2

  9
$PUCSORTHOVIEW
 70
     0
  9
$PUCSORGTOP
 10
0.0
 20
0.0
 30
0.0
  9
$PUCSORGBOTTOM
 10
0.0
 20
0.0
 30
0.0
  9
$PUCSORGLEFT
 10
0.0
 20
0.0
 30
0.0
  9
$PUCSORGRIGHT
 10
0.0
 20
0.0
 30
0.0
  9
$PUCSORGFRONT
 10
0.0
 20
0.0
 30
0.0
  9
$PUCSORGBACK
 10
0.0
 20
0.0
 30
0.0
  9
$USERI1
 70
     0
  9
$USERI2
 70
     0
  9
$USERI3
 70
     0
  9
$USERI4
 70
     0
  9
$USERI5
 70
     0
  9
$USERR1
 40
0.0
  9
$USERR2
 40
0.0
  9
$USERR3
 40
0.0
  9
$USERR4
 40
0.0
  9
$USERR5
 40
2.5
  9
$WORLDVIEW
 70
     1
  9
$SHADEDGE
 70
     3
  9
$SHADEDIF
 70
    70
  9
$TILEMODE
 70
     1
  9
$MAXACTVP
 70
    64
  9
$PINSBASE
 10
0.0
 20
0.0
 30
0.0
  9
$PLIMCHECK
 70
     0
  9
$PEXTMIN
 10
25.69999999999999
 20
19.5
 30
0.0
  9
$PEXTMAX
 10
231.3
 20
175.5
 30
0.0
  9
$PLIMMIN
 10
-20.0
 20
-7.5
  9
$PLIMMAX
 10
277.0
 20
202.5
  9
$UNITMODE
 70
     0
  9
$VISRETAIN
 70
     1
  9
$PLINEGEN
 70
     0
  9
$PSLTSCALE
 70
     1
  9
$TREEDEPTH
 70
  3020
  9
$CMLSTYLE
  2
Standard
  9
$CMLJUST
 70
     0
  9
$CMLSCALE
 40
20.0
  9
$PROXYGRAPHICS
 70
     1
  9
$MEASUREMENT
 70
     1
  9
$CELWEIGHT
370
    -1
  9
$ENDCAPS
280
     0
  9
$JOINSTYLE
280
     0
  9
$LWDISPLAY
290
     0
  9
$INSUNITS
 70
     4
  9
$HYPERLINKBASE
  1

  9
$STYLESHEET
  1

  9
$XEDIT
290
     1
  9
$CEPSNTYPE
380
     0
  9
$PSTYLEMODE
290
     1
  9
$FINGERPRINTGUID
  2
{64C1B266-FD60-4FD2-AB43-1D0BF269597F}
  9
$VERSIONGUID
  2
{38F51CE7-D08A-4625-A35B-73948170FB6C}
  9
$EXTNAMES
290
     1
  9
$PSVPSCALE
 40
0.0
  9
$OLESTARTUP
290
     0
  9
$SORTENTS
280
   127
  9
$INDEXCTL
280
     0
  9
$HIDETEXT
280
     1
  9
$XCLIPFRAME
290
     0
  9
$HALOGAP
280
     0
  9
$OBSCOLOR
 70
   257
  9
$OBSLTYPE
280
     0
  9
$INTERSECTIONDISPLAY
280
     0
  9
$INTERSECTIONCOLOR
 70
   257
  9
$DIMASSOC
280
     2
  9
$PROJECTNAME
  1

  0
ENDSEC
  0
SECTION
  2
CLASSES
  0
CLASS
  1
ACDBDICTIONARYWDFLT
  2
AcDbDictionaryWithDefault
  3
ObjectDBX Classes
 90
        0
 91
        1
280
     0
281
     0
  0
CLASS
  1
DICTIONARYVAR
  2
AcDbDictionaryVar
  3
ObjectDBX Classes
 90
        0
 91
        2
280
     0
281
     0
  0
CLASS
  1
TABLESTYLE
  2
AcDbTableStyle
  3
ObjectDBX Classes
 90
     4095
 91
        1
280
     0
281
     0
  0
CLASS
  1
MATERIAL
  2
AcDbMaterial
  3
ObjectDBX Classes
 90
        0
 91
        3
280
     0
281
     0
  0
CLASS
  1
VISUALSTYLE
  2
AcDbVisualStyle
  3
ObjectDBX Classes
 90
     4095
 91
       16
280
     0
281
     0
  0
CLASS
  1
VLO-VL
  2
vlo_VL
  3
VL|AutoLISP based application
 90
        0
 91
        0
280
     0
281
     0
  0
CLASS
  1
SORTENTSTABLE
  2
AcDbSortentsTable
  3
ObjectDBX Classes
 90
        0
 91
        1
280
     0
281
     0
  0
CLASS
  1
DIMASSOC
  2
AcDbDimAssoc
  3
"ZcDbDimAssoc|Product Desc:     ZwDim ZRX App For Dimension|Company:          ZwSoft.|WEB Address:      www.zwsoft.com"
 90
        0
 91
        0
280
     0
281
     0
  0
CLASS
  1
ACSH_CONE_CLASS
  2
AcDbShCone
  3
ObjectDBX Classes
 90
     1153
 91
        0
280
     0
281
     0
  0
CLASS
  1
ACAD_EVALUATION_GRAPH
  2
AcDbEvalGraph
  3
ObjectDBX Classes
 90
     1153
 91
        0
280
     0
281
     0
  0
CLASS
  1
ACSH_HISTORY_CLASS
  2
AcDbShHistory
  3
ObjectDBX Classes
 90
     1153
 91
        0
280
     0
281
     0
  0
CLASS
  1
ACAD_TABLE
  2
AcDbTable
  3
ObjectDBX Classes
 90
     1025
 91
        0
280
     0
281
     1
  0
CLASS
  1
EXACXREFPANELOBJECT
  2
ExAcXREFPanelObject
  3
EXAC_ESW
 90
     1025
 91
        0
280
     1
281
     0
  0
CLASS
  1
NPOCOLLECTION
  2
AcDbImpNonPersistentObjectsCollection
  3
ObjectDBX Classes
 90
     1153
 91
        0
280
     0
281
     0
  0
CLASS
  1
SOLID_BACKGROUND
  2
AcDbSolidBackground
  3
SCENEOE
 90
     4095
 91
        0
280
     0
281
     0
  0
CLASS
  1
SCALE
  2
AcDbScale
  3
ObjectDBX Classes
 90
     1153
 91
       33
280
     0
281
     0
  0
CLASS
  1
MLEADERSTYLE
  2
AcDbMLeaderStyle
  3
ACDB_MLEADERSTYLE_CLASS
 90
     4095
 91
        1
280
     0
281
     0
  0
CLASS
  1
CELLSTYLEMAP
  2
AcDbCellStyleMap
  3
ObjectDBX Classes
 90
     1152
 91
        1
280
     0
281
     0
  0
ENDSEC
  0
SECTION
  2
TABLES
  0
TABLE
  2
VPORT
  5
25
102
{ACAD_XDICTIONARY
360
29
102
}
330
0
100
AcDbSymbolTable
 70
     2
  0
VPORT
  5
210
330
25
100
AcDbSymbolTableRecord
100
AcDbViewportTableRecord
  2
*Active
 70
     0
 10
0.0
 20
0.0
 11
1.0
 21
1.0
 12
64709.85717878412
 22
-10444.94476937058
 13
0.0
 23
0.0
 14
10.0
 24
10.0
 15
10.0
 25
10.0
 16
0.0
 26
0.0
 36
1.0
 17
0.0
 27
0.0
 37
0.0
 40
1732.472206487977
 41
1.857503152585119
 42
50.0
 43
0.0
 44
0.0
 50
0.0
 51
0.0
 71
     0
 72
 10000
 73
     1
 74
     3
 75
     0
 76
     0
 77
     0
 78
     0
281
     0
 65
     1
110
0.0
120
0.0
130
0.0
111
1.0
121
0.0
131
0.0
112
0.0
122
1.0
132
0.0
 79
     0
146
0.0
  0
ENDTAB
  0
TABLE
  2
LTYPE
  5
20
330
0
100
AcDbSymbolTable
 70
     1
  0
LTYPE
  5
21
330
20
100
AcDbSymbolTableRecord
100
AcDbLinetypeTableRecord
  2
ByBlock
 70
     0
  3

 72
    65
 73
     0
 40
0.0
  0
LTYPE
  5
22
330
20
100
AcDbSymbolTableRecord
100
AcDbLinetypeTableRecord
  2
ByLayer
 70
     0
  3

 72
    65
 73
     0
 40
0.0
  0
LTYPE
  5
C
330
20
100
AcDbSymbolTableRecord
100
AcDbLinetypeTableRecord
  2
Continuous
 70
     0
  3
Solid line
 72
    65
 73
     0
 40
0.0
  0
ENDTAB
  0
TABLE
  2
LAYER
  5
17
102
{ACAD_XDICTIONARY
360
18
102
}
330
0
100
AcDbSymbolTable
 70
     6
  0
LAYER
  5
6
330
17
100
AcDbSymbolTableRecord
100
AcDbLayerTableRecord
  2
0
 70
     0
 62
     7
  6
Continuous
370
    -3
390
7
  0
LAYER
  5
36
330
17
100
AcDbSymbolTableRecord
100
AcDbLayerTableRecord
  2
轮廓线.
 70
     0
 62
   255
  6
Continuous
370
    30
390
7
1001
AcAecLayerStandard
1000

1000

  0
LAYER
  5
1CB
330
17
100
AcDbSymbolTableRecord
100
AcDbLayerTableRecord
  2
尺寸标注
 70
     0
 62
    80
  6
Continuous
370
    18
390
7
1001
AcAecLayerStandard
1000

1000

  0
LAYER
  5
158
330
17
100
AcDbSymbolTableRecord
100
AcDbLayerTableRecord
  2
02___PRT_ALL_AXES
 70
     0
 62
     7
  6
Continuous
370
    -3
390
7
  0
LAYER
  5
47
330
17
100
AcDbSymbolTableRecord
100
AcDbLayerTableRecord
  2
06___PRT_ALL_SURFS
 70
     0
 62
     7
  6
Continuous
370
    -3
390
7
  0
LAYER
  5
18F
330
17
100
AcDbSymbolTableRecord
100
AcDbLayerTableRecord
  2
图层 1
 70
     0
 62
     7
  6
Continuous
370
    -3
390
7
  0
ENDTAB
  0
TABLE
  2
STYLE
  5
1D
330
0
100
AcDbSymbolTable
 70
     1
  0
STYLE
  5
1E
330
1D
100
AcDbSymbolTableRecord
100
AcDbTextStyleTableRecord
  2
Standard
 70
     0
 40
0.0
 41
1.0
 50
0.0
 71
     0
 42
2.5
  3

  4

1001
ACAD
1000
SimSun
1071
    34306
  0
ENDTAB
  0
TABLE
  2
VIEW
  5
23
330
0
100
AcDbSymbolTable
 70
     0
  0
ENDTAB
  0
TABLE
  2
UCS
  5
24
330
0
100
AcDbSymbolTable
 70
     0
  0
ENDTAB
  0
TABLE
  2
APPID
  5
2A
330
0
100
AcDbSymbolTable
 70
     4
  0
APPID
  5
1C
330
2A
100
AcDbSymbolTableRecord
100
AcDbRegAppTableRecord
  2
ACAD
 70
     0
  0
APPID
  5
10
330
2A
100
AcDbSymbolTableRecord
100
AcDbRegAppTableRecord
  2
ACAD_PSEXT
 70
     0
  0
APPID
  5
37
330
2A
100
AcDbSymbolTableRecord
100
AcDbRegAppTableRecord
  2
AcAecLayerStandard
 70
     0
  0
APPID
  5
236
330
2A
100
AcDbSymbolTableRecord
100
AcDbRegAppTableRecord
  2
ACAD_MLEADERVER
 70
     0
  0
ENDTAB
  0
TABLE
  2
DIMSTYLE
  5
2B
330
0
100
AcDbSymbolTable
 70
     2
100
AcDbDimStyleTable
 71
     2
340
2C
340
2D
  0
DIMSTYLE
105
2C
330
2B
100
AcDbSymbolTableRecord
100
AcDbDimStyleTableRecord
  2
ISO-25
 70
     0
 40
7.0
 41
1.5
 42
0.625
 43
3.75
 44
0.5
 73
     0
 74
     0
 77
     1
 78
     8
140
2.5
141
2.5
143
0.03937007874016
147
0.3
171
     3
172
     1
271
     0
272
     0
274
     3
283
     0
284
     8
340
1E
  0
DIMSTYLE
105
2D
330
2B
100
AcDbSymbolTableRecord
100
AcDbDimStyleTableRecord
  2
副本 ISO-25
 70
     0
 40
7.0
 41
1.5
 42
0.625
 43
3.75
 44
0.5
 73
     0
 77
     1
 78
     8
140
2.5
141
2.5
143
0.03937007874016
147
0.3
171
     3
172
     1
271
     0
272
     0
274
     3
283
     0
284
     8
340
1E
  0
ENDTAB
  0
TABLE
  2
BLOCK_RECORD
  5
1
330
0
100
AcDbSymbolTable
 70
     1
  0
BLOCK_RECORD
  5
2
102
{ACAD_XDICTIONARY
360
3
102
}
330
1
100
AcDbSymbolTableRecord
100
AcDbBlockTableRecord
  2
*Model_Space
340
E
  0
BLOCK_RECORD
  5
11
330
1
100
AcDbSymbolTableRecord
100
AcDbBlockTableRecord
  2
*Paper_Space
340
14
  0
BLOCK_RECORD
  5
18B
330
1
100
AcDbSymbolTableRecord
100
AcDbBlockTableRecord
  2
QQ
340
0
310
2800000020000000200000000100080000000000000400000000000000000000000000000000000000000000000080000080000000808000800000008000800080800000C0C0C000C0DCC000F0CAA6000020400000206000002080000020A0000020C0000020E00000400000004020000040400000406000004080000040A0
310
000040C0000040E00000600000006020000060400000606000006080000060A0000060C0000060E00000800000008020000080400000806000008080000080A0000080C0000080E00000A0000000A0200000A0400000A0600000A0800000A0A00000A0C00000A0E00000C0000000C0200000C0400000C0600000C0800000C0
310
A00000C0C00000C0E00000E0000000E0200000E0400000E0600000E0800000E0A00000E0C00000E0E00040000000400020004000400040006000400080004000A0004000C0004000E00040200000402020004020400040206000402080004020A0004020C0004020E000404000004040200040404000404060004040800040
310
40A0004040C0004040E00040600000406020004060400040606000406080004060A0004060C0004060E00040800000408020004080400040806000408080004080A0004080C0004080E00040A0000040A0200040A0400040A0600040A0800040A0A00040A0C00040A0E00040C0000040C0200040C0400040C0600040C08000
310
40C0A00040C0C00040C0E00040E0000040E0200040E0400040E0600040E0800040E0A00040E0C00040E0E00080000000800020008000400080006000800080008000A0008000C0008000E00080200000802020008020400080206000802080008020A0008020C0008020E00080400000804020008040400080406000804080
310
008040A0008040C0008040E00080600000806020008060400080606000806080008060A0008060C0008060E00080800000808020008080400080806000808080008080A0008080C0008080E00080A0000080A0200080A0400080A0600080A0800080A0A00080A0C00080A0E00080C0000080C0200080C0400080C0600080C0
310
800080C0A00080C0C00080C0E00080E0000080E0200080E0400080E0600080E0800080E0A00080E0C00080E0E000C0000000C0002000C0004000C0006000C0008000C000A000C000C000C000E000C0200000C0202000C0204000C0206000C0208000C020A000C020C000C020E000C0400000C0402000C0404000C0406000C0
310
408000C040A000C040C000C040E000C0600000C0602000C0604000C0606000C0608000C060A000C060C000C060E000C0800000C0802000C0804000C0806000C0808000C080A000C080C000C080E000C0A00000C0A02000C0A04000C0A06000C0A08000C0A0A000C0A0C000C0A0E000C0C00000C0C02000C0C04000C0C06000
310
C0C08000C0C0A000F0FBFF00A4A0A000808080000000FF0000FF000000FFFF00FF000000FF00FF00FFFF0000FFFFFF0000000000000000000000000000000000000000000000000000000000000000000000000000000000000000000000000000000000000000000000000000000000000000000000000000000000000000
310
00000000000000000000000000000000000000000000000000000000000000000000000000000000000000000000000000000000000000000000000000000000000000000000000000000000000000000000000000000000000000000000000000000000000000000000000000000000000000000000000000000000000000
310
00000000000000000000000000000000000000000000000000000000000000000000000000000000000000000000000000000000000000000000000000000000000000000000000000000000000000000000000000000000000000000000000000000000000000000000000000000000000000000000000000000000000000
310
000000000000000000000000000000000000000000000000000000000000000000000000000000000000000000000000000000000000000000000000000000000000000000000000000000FFFF00000000000000FFFFFF00FFFFFFFFFF0000FFFFFFFFFFFFFFFFFFFF00FFFFFF00FFFF0000000000FFFFFFFFFFFFFFFFFFFF
310
FFFF00FFFFFFFFFFFFFFFFFFFFFF00FFFF0000000000FFFFFFFFFF0000FFFFFFFFFF00FFFFFFFF00FFFFFFFFFFFF00FFFF000000000000FFFFFFFF0000FFFFFFFF0000FFFFFFFF00FFFFFFFFFFFF00FFFF000000000000FFFFFF0000FFFFFFFFFFFF00FFFF000000FFFFFFFFFFFF00FFFF000000000000FFFFFF0000FFFFFF
310
00FFFFFFFFFFFFFFFFFFFF00FFFFFFFFFFFFFFFF0000000000FF000000FFFF0000FFFFFFFFFFFFFFFFFF0000FFFFFFFFFFFFFFFF000000000000000000000000000000000000000000000000000000000000000000000000000000000000000000000000000000000000000000000000000000000000000000000000000000
310
00000000000000000000000000000000000000000000000000000000000000000000000000000000000000000000000000000000000000000000000000000000000000000000000000000000000000000000000000000000000000000000000000000000000000000000000000000000000000000000000000000000000000
310
00000000000000000000000000000000000000000000000000000000000000000000000000000000000000000000000000000000000000000000000000000000000000000000000000000000000000000000000000000000000000000000000000000000000000000000000000000000000000000000000000000000000000
310
0000000000000000000000000000000000000000000000000000000000000000000000000000000000000000000000000000000000000000
1001
ACAD
1000
DesignCenter Data
1002
{
1070
     1
1070
     4
1002
}
  0
ENDTAB
  0
ENDSEC
  0
SECTION
  2
BLOCKS
  0
BLOCK
  5
5
330
2
100
AcDbEntity
  8
0
100
AcDbBlockBegin
  2
*Model_Space
 70
     0
 10
0.0
 20
0.0
 30
0.0
  3
*Model_Space
  1

  0
ENDBLK
  5
D
330
2
100
AcDbEntity
  8
0
100
AcDbBlockEnd
  0
BLOCK
  5
12
330
11
100
AcDbEntity
 67
     1
  8
0
100
AcDbBlockBegin
  2
*Paper_Space
 70
     0
 10
0.0
 20
0.0
 30
0.0
  3
*Paper_Space
  1

  0
ENDBLK
  5
13
330
11
100
AcDbEntity
 67
     1
  8
0
100
AcDbBlockEnd
  0
BLOCK
  5
18C
330
18B
100
AcDbEntity
  8
0
 62
     3
100
AcDbBlockBegin
  2
QQ
 70
     0
 10
0.0
 20
0.0
 30
0.0
  3
QQ
  1

  0
HATCH
  5
18D
330
18B
100
AcDbEntity
  8
轮廓线.
100
AcDbHatch
 10
0.0
 20
0.0
 30
0.0
210
0.0
220
0.0
230
1.0
  2
SOLID
 70
     1
 71
     1
 91
        6
 92
        1
 93
        8
 72
     1
 10
42989.42514603338
 20
-19533.57364922045
 11
42989.42514603338
 21
-19532.69342762352
 72
     1
 10
42989.42514603338
 20
-19532.69342762352
 11
42986.1032138422
 21
-19532.69342762352
 72
     1
 10
42986.1032138422
 20
-19532.69342762352
 11
42986.1032138422
 21
-19533.57364922045
 72
     1
 10
42986.1032138422
 20
-19533.57364922045
 11
42987.3243275214
 21
-19533.57364922045
 72
     1
 10
42987.3243275214
 20
-19533.57364922045
 11
42987.3243275214
 21
-19537.66452646227
 72
     1
 10
42987.3243275214
 20
-19537.66452646227
 11
42988.20454911833
 21
-19537.66452646227
 72
     1
 10
42988.20454911833
 20
-19537.66452646227
 11
42988.20454911833
 21
-19533.57364922045
 72
     1
 10
42988.20454911833
 20
-19533.57364922045
 11
42989.42514603338
 21
-19533.57364922045
 97
        1
330
1BE
 92
        1
 93
       10
 72
     1
 10
42985.02541608642
 20
-19537.94478488462
 11
42985.38387814967
 21
-19537.94478488462
 72
     1
 10
42985.38387814967
 20
-19537.94478488462
 11
42985.38387814967
 21
-19532.69308311409
 72
     1
 10
42985.38387814967
 20
-19532.69308311409
 11
42984.50348429802
 21
-19532.69308311409
 72
     1
 10
42984.50348429802
 20
-19532.69308311409
 11
42984.50348429802
 21
-19535.8303582501
 72
     1
 10
42984.50348429802
 20
-19535.8303582501
 11
42982.02112159089
 21
-19532.68533165188
 72
     1
 10
42982.02112159089
 20
-19532.68533165188
 11
42981.61167213181
 21
-19532.68016401042
 72
     1
 10
42981.61167213181
 20
-19532.68016401042
 11
42981.61167213181
 21
-19537.66452646227
 72
     1
 10
42981.61167213181
 20
-19537.66452646227
 11
42982.4870705967
 21
-19537.66452646227
 72
     1
 10
42982.4870705967
 20
-19537.66452646227
 11
42982.4870705967
 21
-19534.73154541901
 72
     1
 10
42982.4870705967
 20
-19534.73154541901
 11
42985.02541608642
 21
-19537.94478488462
 97
        1
330
1B0
 92
        1
 93
       12
 72
     1
 10
42977.61157312514
 20
-19537.66452646227
 11
42980.86890979796
 21
-19537.66452646227
 72
     1
 10
42980.86890979796
 20
-19537.66452646227
 11
42980.86890979796
 21
-19536.79808524258
 72
     1
 10
42980.86890979796
 20
-19536.79808524258
 11
42978.49213923151
 21
-19536.79808524258
 72
     1
 10
42978.49213923151
 20
-19536.79808524258
 11
42978.49213923151
 21
-19535.57748832753
 72
     1
 10
42978.49213923151
 20
-19535.57748832753
 11
42980.51148126298
 21
-19535.57748832753
 72
     1
 10
42980.51148126298
 20
-19535.57748832753
 11
42980.51148126298
 21
-19534.68090253261
 72
     1
 10
42980.51148126298
 20
-19534.68090253261
 11
42978.49213923151
 21
-19534.68090253261
 72
     1
 10
42978.49213923151
 20
-19534.68090253261
 11
42978.49213923151
 21
-19533.57364922045
 72
     1
 10
42978.49213923151
 20
-19533.57364922045
 11
42980.86890979796
 21
-19533.57364922045
 72
     1
 10
42980.86890979796
 20
-19533.57364922045
 11
42980.86890979796
 21
-19532.69342762352
 72
     1
 10
42980.86890979796
 20
-19532.69342762352
 11
42977.61157312514
 21
-19532.69342762352
 72
     1
 10
42977.61157312514
 20
-19532.69342762352
 11
42977.61157312514
 21
-19537.66452646227
 97
        1
330
1A1
 92
        1
 93
        1
 72
     4
 94
        3
 73
     0
 74
     0
 95
       83
 96
       79
 40
0.0
 40
0.0
 40
0.0
 40
0.0
 40
1.0
 40
1.0
 40
1.0
 40
2.0
 40
2.0
 40
2.0
 40
3.0
 40
3.0
 40
3.0
 40
4.0
 40
4.0
 40
4.0
 40
5.0
 40
5.0
 40
5.0
 40
6.0
 40
6.0
 40
6.0
 40
7.0
 40
7.0
 40
7.0
 40
8.0
 40
8.0
 40
8.0
 40
9.0
 40
9.0
 40
9.0
 40
10.0
 40
10.0
 40
10.0
 40
11.0
 40
11.0
 40
11.0
 40
12.0
 40
12.0
 40
12.0
 40
13.0
 40
13.0
 40
13.0
 40
14.0
 40
14.0
 40
14.0
 40
15.0
 40
15.0
 40
15.0
 40
16.0
 40
16.0
 40
16.0
 40
17.0
 40
17.0
 40
17.0
 40
18.0
 40
18.0
 40
18.0
 40
19.0
 40
19.0
 40
19.0
 40
20.0
 40
20.0
 40
20.0
 40
21.0
 40
21.0
 40
21.0
 40
22.0
 40
22.0
 40
22.0
 40
23.0
 40
23.0
 40
23.0
 40
24.0
 40
24.0
 40
24.0
 40
25.0
 40
25.0
 40
25.0
 40
26.0
 40
26.0
 40
26.0
 40
26.0
 10
42976.86192060266
 20
-19537.66228715096
 10
42976.86192060266
 20
-19537.66228715096
 10
42976.81799565017
 20
-19537.59200722698
 10
42976.81799565017
 20
-19537.59200722698
 10
42976.81799565017
 20
-19537.59200722698
 10
42975.24978871896
 20
-19535.13754978378
 10
42975.24978871896
 20
-19535.13754978378
 10
42975.24978871896
 20
-19535.13754978378
 10
42976.86192060266
 20
-19532.67775244439
 10
42976.86192060266
 20
-19532.67775244439
 10
42976.86192060266
 20
-19532.67775244439
 10
42975.81133909196
 20
-19532.67775244439
 10
42975.81133909196
 20
-19532.67775244439
 10
42975.81133909196
 20
-19532.67775244439
 10
42974.60073295041
 20
-19534.58357861827
 10
42974.60073295041
 20
-19534.58357861827
 10
42974.58230169584
 20
-19534.60958908033
 10
42974.56232014883
 20
-19534.64128394801
 10
42974.53682645091
 20
-19534.68451988164
 10
42974.53682645091
 20
-19534.68451988164
 10
42974.53200331887
 20
-19534.69158232498
 10
42974.53200331887
 20
-19534.69158232498
 10
42974.53200331887
 20
-19534.69158232498
 10
42974.29756465088
 20
-19534.69158232498
 10
42974.29756465088
 20
-19534.69158232498
 10
42974.29756465088
 20
-19534.69158232498
 10
42974.28774613209
 20
-19534.67590714586
 10
42974.28774613209
 20
-19534.67590714586
 10
42974.26449174547
 20
-19534.64076718386
 10
42974.24416568904
 20
-19534.61096711806
 10
42974.23434717024
 20
-19534.59580870308
 10
42974.23434717024
 20
-19534.59580870308
 10
42972.99807507607
 20
-19532.67775244439
 10
42972.99807507607
 20
-19532.67775244439
 10
42972.99807507607
 20
-19532.67775244439
 10
42971.8906495092
 20
-19532.67775244439
 10
42971.8906495092
 20
-19532.67775244439
 10
42971.8906495092
 20
-19532.67775244439
 10
42973.58374110926
 20
-19535.13720527435
 10
42973.58374110926
 20
-19535.13720527435
 10
42973.58374110926
 20
-19535.13720527435
 10
42971.93715828242
 20
-19537.59149046284
 10
42971.93715828242
 20
-19537.59149046284
 10
42971.93715828242
 20
-19537.59149046284
 10
42971.8906495092
 20
-19537.66228715096
 10
42971.8906495092
 20
-19537.66228715096
 10
42971.8906495092
 20
-19537.66228715096
 10
42973.00841035901
 20
-19537.66228715096
 10
42973.00841035901
 20
-19537.66228715096
 10
42973.00841035901
 20
-19537.66228715096
 10
42973.05044050963
 20
-19537.59149046284
 10
42973.05044050963
 20
-19537.59149046284
 10
42973.05044050963
 20
-19537.59149046284
 10
42974.2195332647
 20
-19535.65017981754
 10
42974.2195332647
 20
-19535.65017981754
 10
42974.22935178349
 20
-19535.6343323837
 10
42974.2603576323
 20
-19535.58885713876
 10
42974.28843515096
 20
-19535.54837728059
 10
42974.28843515096
 20
-19535.54837728059
 10
42974.2987704339
 20
-19535.53184082789
 10
42974.2987704339
 20
-19535.53184082789
 10
42974.2987704339
 20
-19535.53184082789
 10
42974.53096979057
 20
-19535.53184082789
 10
42974.53096979057
 20
-19535.53184082789
 10
42974.53096979057
 20
-19535.53184082789
 10
42974.54233860181
 20
-19535.55027208246
 10
42974.54233860181
 20
-19535.55027208246
 10
42974.58471326185
 20
-19535.61676240269
 10
42974.60900117676
 20
-19535.65620873258
 10
42974.61279078052
 20
-19535.66103186462
 10
42974.61279078052
 20
-19535.66103186462
 10
42975.76913668661
 20
-19537.59149046284
 10
42975.76913668661
 20
-19537.59149046284
 10
42975.76913668661
 20
-19537.59149046284
 10
42975.81151134667
 20
-19537.66228715096
 10
42975.81151134667
 20
-19537.66228715096
 10
42975.81151134667
 20
-19537.66228715096
 10
42976.86192060266
 20
-19537.66228715096
 10
42976.86192060266
 20
-19537.66228715096
 97
        1
330
1A0
 92
        1
 93
        8
 72
     1
 10
42970.45972958635
 20
-19537.66452646227
 11
42971.39111083383
 21
-19537.66452646227
 72
     1
 10
42971.39111083383
 20
-19537.66452646227
 11
42969.40260239645
 21
-19532.68016401042
 72
     1
 10
42969.40260239645
 20
-19532.68016401042
 11
42969.02553682389
 21
-19532.68016401042
 72
     1
 10
42969.02553682389
 20
-19532.68016401042
 11
42967.0401289714
 21
-19537.67865134895
 72
     1
 10
42967.0401289714
 20
-19537.67865134895
 11
42967.96720385099
 21
-19537.67865134895
 72
     1
 10
42967.96720385099
 20
-19537.67865134895
 11
42968.28432478249
 21
-19536.85165645915
 72
     1
 10
42968.28432478249
 20
-19536.85165645915
 11
42970.13881905111
 21
-19536.85165645915
 72
     1
 10
42970.13881905111
 20
-19536.85165645915
 11
42970.45972958635
 21
-19537.66452646227
 97
        1
330
195
 92
       16
 93
        3
 72
     1
 10
42968.64674870421
 20
-19535.97143486221
 11
42969.23758237887
 21
-19534.39254813862
 72
     1
 10
42969.23758237887
 20
-19534.39254813862
 11
42969.82083684603
 21
-19535.97143486221
 72
     1
 10
42969.82083684603
 20
-19535.97143486221
 11
42968.64674870421
 21
-19535.97143486221
 97
        1
330
18E
 75
     0
 76
     1
 98
        1
 10
39442.4997430671
 20
-17300.13929060006
450
        0
451
        0
460
0.0
461
0.0
452
        0
462
0.0
453
        0
470

1001
ACAD
1010
0.0
1020
0.0
1030
0.0
  0
POLYLINE
  5
18E
102
{ACAD_REACTORS
330
18D
102
}
330
18B
100
AcDbEntity
  8
图层 1
 62
     7
370
     0
100
AcDb2dPolyline
 66
     1
 10
0.0
 20
0.0
 30
0.0
  0
VERTEX
  5
190
330
18E
100
AcDbEntity
  8
图层 1
 62
     7
370
     0
100
AcDbVertex
100
AcDb2dVertex
 10
42968.64674870421
 20
-19535.97143486221
 30
0.0
  0
VERTEX
  5
191
330
18E
100
AcDbEntity
  8
图层 1
 62
     7
370
     0
100
AcDbVertex
100
AcDb2dVertex
 10
42969.23758237887
 20
-19534.39254813862
 30
0.0
  0
VERTEX
  5
192
330
18E
100
AcDbEntity
  8
图层 1
 62
     7
370
     0
100
AcDbVertex
100
AcDb2dVertex
 10
42969.82083684603
 20
-19535.97143486221
 30
0.0
  0
VERTEX
  5
193
330
18E
100
AcDbEntity
  8
图层 1
 62
     7
370
     0
100
AcDbVertex
100
AcDb2dVertex
 10
42968.64674870421
 20
-19535.97143486221
 30
0.0
  0
SEQEND
  5
194
330
18E
100
AcDbEntity
  8
图层 1
 62
     7
370
     0
  0
POLYLINE
  5
195
102
{ACAD_REACTORS
330
18D
102
}
330
18B
100
AcDbEntity
  8
图层 1
 62
     7
370
     0
100
AcDb2dPolyline
 66
     1
 10
0.0
 20
0.0
 30
0.0
  0
VERTEX
  5
196
330
195
100
AcDbEntity
  8
图层 1
 62
     7
370
     0
100
AcDbVertex
100
AcDb2dVertex
 10
42970.45972958635
 20
-19537.66452646227
 30
0.0
  0
VERTEX
  5
197
330
195
100
AcDbEntity
  8
图层 1
 62
     7
370
     0
100
AcDbVertex
100
AcDb2dVertex
 10
42971.39111083383
 20
-19537.66452646227
 30
0.0
  0
VERTEX
  5
198
330
195
100
AcDbEntity
  8
图层 1
 62
     7
370
     0
100
AcDbVertex
100
AcDb2dVertex
 10
42969.40260239645
 20
-19532.68016401042
 30
0.0
  0
VERTEX
  5
199
330
195
100
AcDbEntity
  8
图层 1
 62
     7
370
     0
100
AcDbVertex
100
AcDb2dVertex
 10
42969.02553682389
 20
-19532.68016401042
 30
0.0
  0
VERTEX
  5
19A
330
195
100
AcDbEntity
  8
图层 1
 62
     7
370
     0
100
AcDbVertex
100
AcDb2dVertex
 10
42967.0401289714
 20
-19537.67865134895
 30
0.0
  0
VERTEX
  5
19B
330
195
100
AcDbEntity
  8
图层 1
 62
     7
370
     0
100
AcDbVertex
100
AcDb2dVertex
 10
42967.96720385099
 20
-19537.67865134895
 30
0.0
  0
VERTEX
  5
19C
330
195
100
AcDbEntity
  8
图层 1
 62
     7
370
     0
100
AcDbVertex
100
AcDb2dVertex
 10
42968.28432478249
 20
-19536.85165645915
 30
0.0
  0
VERTEX
  5
19D
330
195
100
AcDbEntity
  8
图层 1
 62
     7
370
     0
100
AcDbVertex
100
AcDb2dVertex
 10
42970.13881905111
 20
-19536.85165645915
 30
0.0
  0
VERTEX
  5
19E
330
195
100
AcDbEntity
  8
图层 1
 62
     7
370
     0
100
AcDbVertex
100
AcDb2dVertex
 10
42970.45972958635
 20
-19537.66452646227
 30
0.0
  0
SEQEND
  5
19F
330
195
100
AcDbEntity
  8
图层 1
 62
     7
370
     0
  0
SPLINE
  5
1A0
102
{ACAD_REACTORS
330
18D
102
}
330
18B
100
AcDbEntity
  8
图层 1
 62
     7
370
     0
100
AcDbSpline
210
0.0
220
0.0
230
1.0
 70
    11
 71
     3
 72
    83
 73
    79
 74
     0
 42
0.0000000001
 43
0.0000000001
 40
0.0
 40
0.0
 40
0.0
 40
0.0
 40
1.0
 40
1.0
 40
1.0
 40
2.0
 40
2.0
 40
2.0
 40
3.0
 40
3.0
 40
3.0
 40
4.0
 40
4.0
 40
4.0
 40
5.0
 40
5.0
 40
5.0
 40
6.0
 40
6.0
 40
6.0
 40
7.0
 40
7.0
 40
7.0
 40
8.0
 40
8.0
 40
8.0
 40
9.0
 40
9.0
 40
9.0
 40
10.0
 40
10.0
 40
10.0
 40
11.0
 40
11.0
 40
11.0
 40
12.0
 40
12.0
 40
12.0
 40
13.0
 40
13.0
 40
13.0
 40
14.0
 40
14.0
 40
14.0
 40
15.0
 40
15.0
 40
15.0
 40
16.0
 40
16.0
 40
16.0
 40
17.0
 40
17.0
 40
17.0
 40
18.0
 40
18.0
 40
18.0
 40
19.0
 40
19.0
 40
19.0
 40
20.0
 40
20.0
 40
20.0
 40
21.0
 40
21.0
 40
21.0
 40
22.0
 40
22.0
 40
22.0
 40
23.0
 40
23.0
 40
23.0
 40
24.0
 40
24.0
 40
24.0
 40
25.0
 40
25.0
 40
25.0
 40
26.0
 40
26.0
 40
26.0
 40
26.0
 10
42976.86192060266
 20
-19537.66228715096
 30
0.0
 10
42976.86192060266
 20
-19537.66228715096
 30
0.0
 10
42976.81799565017
 20
-19537.59200722698
 30
0.0
 10
42976.81799565017
 20
-19537.59200722698
 30
0.0
 10
42976.81799565017
 20
-19537.59200722698
 30
0.0
 10
42975.24978871896
 20
-19535.13754978378
 30
0.0
 10
42975.24978871896
 20
-19535.13754978378
 30
0.0
 10
42975.24978871896
 20
-19535.13754978378
 30
0.0
 10
42976.86192060266
 20
-19532.67775244439
 30
0.0
 10
42976.86192060266
 20
-19532.67775244439
 30
0.0
 10
42976.86192060266
 20
-19532.67775244439
 30
0.0
 10
42975.81133909196
 20
-19532.67775244439
 30
0.0
 10
42975.81133909196
 20
-19532.67775244439
 30
0.0
 10
42975.81133909196
 20
-19532.67775244439
 30
0.0
 10
42974.60073295041
 20
-19534.58357861827
 30
0.0
 10
42974.60073295041
 20
-19534.58357861827
 30
0.0
 10
42974.58230169584
 20
-19534.60958908033
 30
0.0
 10
42974.56232014883
 20
-19534.64128394801
 30
0.0
 10
42974.53682645091
 20
-19534.68451988164
 30
0.0
 10
42974.53682645091
 20
-19534.68451988164
 30
0.0
 10
42974.53200331887
 20
-19534.69158232498
 30
0.0
 10
42974.53200331887
 20
-19534.69158232498
 30
0.0
 10
42974.53200331887
 20
-19534.69158232498
 30
0.0
 10
42974.29756465088
 20
-19534.69158232498
 30
0.0
 10
42974.29756465088
 20
-19534.69158232498
 30
0.0
 10
42974.29756465088
 20
-19534.69158232498
 30
0.0
 10
42974.28774613209
 20
-19534.67590714586
 30
0.0
 10
42974.28774613209
 20
-19534.67590714586
 30
0.0
 10
42974.26449174547
 20
-19534.64076718386
 30
0.0
 10
42974.24416568904
 20
-19534.61096711806
 30
0.0
 10
42974.23434717024
 20
-19534.59580870308
 30
0.0
 10
42974.23434717024
 20
-19534.59580870308
 30
0.0
 10
42972.99807507607
 20
-19532.67775244439
 30
0.0
 10
42972.99807507607
 20
-19532.67775244439
 30
0.0
 10
42972.99807507607
 20
-19532.67775244439
 30
0.0
 10
42971.8906495092
 20
-19532.67775244439
 30
0.0
 10
42971.8906495092
 20
-19532.67775244439
 30
0.0
 10
42971.8906495092
 20
-19532.67775244439
 30
0.0
 10
42973.58374110926
 20
-19535.13720527435
 30
0.0
 10
42973.58374110926
 20
-19535.13720527435
 30
0.0
 10
42973.58374110926
 20
-19535.13720527435
 30
0.0
 10
42971.93715828242
 20
-19537.59149046284
 30
0.0
 10
42971.93715828242
 20
-19537.59149046284
 30
0.0
 10
42971.93715828242
 20
-19537.59149046284
 30
0.0
 10
42971.8906495092
 20
-19537.66228715096
 30
0.0
 10
42971.8906495092
 20
-19537.66228715096
 30
0.0
 10
42971.8906495092
 20
-19537.66228715096
 30
0.0
 10
42973.00841035901
 20
-19537.66228715096
 30
0.0
 10
42973.00841035901
 20
-19537.66228715096
 30
0.0
 10
42973.00841035901
 20
-19537.66228715096
 30
0.0
 10
42973.05044050963
 20
-19537.59149046284
 30
0.0
 10
42973.05044050963
 20
-19537.59149046284
 30
0.0
 10
42973.05044050963
 20
-19537.59149046284
 30
0.0
 10
42974.2195332647
 20
-19535.65017981754
 30
0.0
 10
42974.2195332647
 20
-19535.65017981754
 30
0.0
 10
42974.22935178349
 20
-19535.6343323837
 30
0.0
 10
42974.2603576323
 20
-19535.58885713876
 30
0.0
 10
42974.28843515096
 20
-19535.54837728059
 30
0.0
 10
42974.28843515096
 20
-19535.54837728059
 30
0.0
 10
42974.2987704339
 20
-19535.53184082789
 30
0.0
 10
42974.2987704339
 20
-19535.53184082789
 30
0.0
 10
42974.2987704339
 20
-19535.53184082789
 30
0.0
 10
42974.53096979057
 20
-19535.53184082789
 30
0.0
 10
42974.53096979057
 20
-19535.53184082789
 30
0.0
 10
42974.53096979057
 20
-19535.53184082789
 30
0.0
 10
42974.54233860181
 20
-19535.55027208246
 30
0.0
 10
42974.54233860181
 20
-19535.55027208246
 30
0.0
 10
42974.58471326185
 20
-19535.61676240269
 30
0.0
 10
42974.60900117676
 20
-19535.65620873258
 30
0.0
 10
42974.61279078052
 20
-19535.66103186462
 30
0.0
 10
42974.61279078052
 20
-19535.66103186462
 30
0.0
 10
42975.76913668661
 20
-19537.59149046284
 30
0.0
 10
42975.76913668661
 20
-19537.59149046284
 30
0.0
 10
42975.76913668661
 20
-19537.59149046284
 30
0.0
 10
42975.81151134667
 20
-19537.66228715096
 30
0.0
 10
42975.81151134667
 20
-19537.66228715096
 30
0.0
 10
42975.81151134667
 20
-19537.66228715096
 30
0.0
 10
42976.86192060266
 20
-19537.66228715096
 30
0.0
 10
42976.86192060266
 20
-19537.66228715096
 30
0.0
  0
POLYLINE
  5
1A1
102
{ACAD_REACTORS
330
18D
102
}
330
18B
100
AcDbEntity
  8
图层 1
 62
     7
370
     0
100
AcDb2dPolyline
 66
     1
 10
0.0
 20
0.0
 30
0.0
  0
VERTEX
  5
1A2
330
1A1
100
AcDbEntity
  8
图层 1
 62
     7
370
     0
100
AcDbVertex
100
AcDb2dVertex
 10
42977.61157312514
 20
-19537.66452646227
 30
0.0
  0
VERTEX
  5
1A3
330
1A1
100
AcDbEntity
  8
图层 1
 62
     7
370
     0
100
AcDbVertex
100
AcDb2dVertex
 10
42980.86890979796
 20
-19537.66452646227
 30
0.0
  0
VERTEX
  5
1A4
330
1A1
100
AcDbEntity
  8
图层 1
 62
     7
370
     0
100
AcDbVertex
100
AcDb2dVertex
 10
42980.86890979796
 20
-19536.79808524258
 30
0.0
  0
VERTEX
  5
1A5
330
1A1
100
AcDbEntity
  8
图层 1
 62
     7
370
     0
100
AcDbVertex
100
AcDb2dVertex
 10
42978.49213923151
 20
-19536.79808524258
 30
0.0
  0
VERTEX
  5
1A6
330
1A1
100
AcDbEntity
  8
图层 1
 62
     7
370
     0
100
AcDbVertex
100
AcDb2dVertex
 10
42978.49213923151
 20
-19535.57748832753
 30
0.0
  0
VERTEX
  5
1A7
330
1A1
100
AcDbEntity
  8
图层 1
 62
     7
370
     0
100
AcDbVertex
100
AcDb2dVertex
 10
42980.51148126298
 20
-19535.57748832753
 30
0.0
  0
VERTEX
  5
1A8
330
1A1
100
AcDbEntity
  8
图层 1
 62
     7
370
     0
100
AcDbVertex
100
AcDb2dVertex
 10
42980.51148126298
 20
-19534.68090253261
 30
0.0
  0
VERTEX
  5
1A9
330
1A1
100
AcDbEntity
  8
图层 1
 62
     7
370
     0
100
AcDbVertex
100
AcDb2dVertex
 10
42978.49213923151
 20
-19534.68090253261
 30
0.0
  0
VERTEX
  5
1AA
330
1A1
100
AcDbEntity
  8
图层 1
 62
     7
370
     0
100
AcDbVertex
100
AcDb2dVertex
 10
42978.49213923151
 20
-19533.57364922045
 30
0.0
  0
VERTEX
  5
1AB
330
1A1
100
AcDbEntity
  8
图层 1
 62
     7
370
     0
100
AcDbVertex
100
AcDb2dVertex
 10
42980.86890979796
 20
-19533.57364922045
 30
0.0
  0
VERTEX
  5
1AC
330
1A1
100
AcDbEntity
  8
图层 1
 62
     7
370
     0
100
AcDbVertex
100
AcDb2dVertex
 10
42980.86890979796
 20
-19532.69342762352
 30
0.0
  0
VERTEX
  5
1AD
330
1A1
100
AcDbEntity
  8
图层 1
 62
     7
370
     0
100
AcDbVertex
100
AcDb2dVertex
 10
42977.61157312514
 20
-19532.69342762352
 30
0.0
  0
VERTEX
  5
1AE
330
1A1
100
AcDbEntity
  8
图层 1
 62
     7
370
     0
100
AcDbVertex
100
AcDb2dVertex
 10
42977.61157312514
 20
-19537.66452646227
 30
0.0
  0
SEQEND
  5
1AF
330
1A1
100
AcDbEntity
  8
图层 1
 62
     7
370
     0
  0
POLYLINE
  5
1B0
102
{ACAD_REACTORS
330
18D
102
}
330
18B
100
AcDbEntity
  8
图层 1
 62
     7
370
     0
100
AcDb2dPolyline
 66
     1
 10
0.0
 20
0.0
 30
0.0
  0
VERTEX
  5
1B1
330
1B0
100
AcDbEntity
  8
图层 1
 62
     7
370
     0
100
AcDbVertex
100
AcDb2dVertex
 10
42985.02541608642
 20
-19537.94478488462
 30
0.0
  0
VERTEX
  5
1B2
330
1B0
100
AcDbEntity
  8
图层 1
 62
     7
370
     0
100
AcDbVertex
100
AcDb2dVertex
 10
42985.02541608642
 20
-19537.94478488462
 30
0.0
  0
VERTEX
  5
1B3
330
1B0
100
AcDbEntity
  8
图层 1
 62
     7
370
     0
100
AcDbVertex
100
AcDb2dVertex
 10
42985.38387814967
 20
-19537.94478488462
 30
0.0
  0
VERTEX
  5
1B4
330
1B0
100
AcDbEntity
  8
图层 1
 62
     7
370
     0
100
AcDbVertex
100
AcDb2dVertex
 10
42985.38387814967
 20
-19532.69308311409
 30
0.0
  0
VERTEX
  5
1B5
330
1B0
100
AcDbEntity
  8
图层 1
 62
     7
370
     0
100
AcDbVertex
100
AcDb2dVertex
 10
42984.50348429802
 20
-19532.69308311409
 30
0.0
  0
VERTEX
  5
1B6
330
1B0
100
AcDbEntity
  8
图层 1
 62
     7
370
     0
100
AcDbVertex
100
AcDb2dVertex
 10
42984.50348429802
 20
-19535.8303582501
 30
0.0
  0
VERTEX
  5
1B7
330
1B0
100
AcDbEntity
  8
图层 1
 62
     7
370
     0
100
AcDbVertex
100
AcDb2dVertex
 10
42982.02112159089
 20
-19532.68533165188
 30
0.0
  0
VERTEX
  5
1B8
330
1B0
100
AcDbEntity
  8
图层 1
 62
     7
370
     0
100
AcDbVertex
100
AcDb2dVertex
 10
42981.61167213181
 20
-19532.68016401042
 30
0.0
  0
VERTEX
  5
1B9
330
1B0
100
AcDbEntity
  8
图层 1
 62
     7
370
     0
100
AcDbVertex
100
AcDb2dVertex
 10
42981.61167213181
 20
-19537.66452646227
 30
0.0
  0
VERTEX
  5
1BA
330
1B0
100
AcDbEntity
  8
图层 1
 62
     7
370
     0
100
AcDbVertex
100
AcDb2dVertex
 10
42982.4870705967
 20
-19537.66452646227
 30
0.0
  0
VERTEX
  5
1BB
330
1B0
100
AcDbEntity
  8
图层 1
 62
     7
370
     0
100
AcDbVertex
100
AcDb2dVertex
 10
42982.4870705967
 20
-19534.73154541901
 30
0.0
  0
VERTEX
  5
1BC
330
1B0
100
AcDbEntity
  8
图层 1
 62
     7
370
     0
100
AcDbVertex
100
AcDb2dVertex
 10
42985.02541608642
 20
-19537.94478488462
 30
0.0
  0
SEQEND
  5
1BD
330
1B0
100
AcDbEntity
  8
图层 1
 62
     7
370
     0
  0
POLYLINE
  5
1BE
102
{ACAD_REACTORS
330
18D
102
}
330
18B
100
AcDbEntity
  8
图层 1
 62
     7
370
     0
100
AcDb2dPolyline
 66
     1
 10
0.0
 20
0.0
 30
0.0
  0
VERTEX
  5
1BF
330
1BE
100
AcDbEntity
  8
图层 1
 62
     7
370
     0
100
AcDbVertex
100
AcDb2dVertex
 10
42989.42514603338
 20
-19533.57364922045
 30
0.0
  0
VERTEX
  5
1C0
330
1BE
100
AcDbEntity
  8
图层 1
 62
     7
370
     0
100
AcDbVertex
100
AcDb2dVertex
 10
42989.42514603338
 20
-19532.69342762352
 30
0.0
  0
VERTEX
  5
1C1
330
1BE
100
AcDbEntity
  8
图层 1
 62
     7
370
     0
100
AcDbVertex
100
AcDb2dVertex
 10
42986.1032138422
 20
-19532.69342762352
 30
0.0
  0
VERTEX
  5
1C2
330
1BE
100
AcDbEntity
  8
图层 1
 62
     7
370
     0
100
AcDbVertex
100
AcDb2dVertex
 10
42986.1032138422
 20
-19533.57364922045
 30
0.0
  0
VERTEX
  5
1C3
330
1BE
100
AcDbEntity
  8
图层 1
 62
     7
370
     0
100
AcDbVertex
100
AcDb2dVertex
 10
42987.3243275214
 20
-19533.57364922045
 30
0.0
  0
VERTEX
  5
1C4
330
1BE
100
AcDbEntity
  8
图层 1
 62
     7
370
     0
100
AcDbVertex
100
AcDb2dVertex
 10
42987.3243275214
 20
-19537.66452646227
 30
0.0
  0
VERTEX
  5
1C5
330
1BE
100
AcDbEntity
  8
图层 1
 62
     7
370
     0
100
AcDbVertex
100
AcDb2dVertex
 10
42988.20454911833
 20
-19537.66452646227
 30
0.0
  0
VERTEX
  5
1C6
330
1BE
100
AcDbEntity
  8
图层 1
 62
     7
370
     0
100
AcDbVertex
100
AcDb2dVertex
 10
42988.20454911833
 20
-19533.57364922045
 30
0.0
  0
VERTEX
  5
1C7
330
1BE
100
AcDbEntity
  8
图层 1
 62
     7
370
     0
100
AcDbVertex
100
AcDb2dVertex
 10
42989.42514603338
 20
-19533.57364922045
 30
0.0
  0
SEQEND
  5
1C8
330
1BE
100
AcDbEntity
  8
图层 1
 62
     7
370
     0
  0
ENDBLK
  5
1C9
330
18B
100
AcDbEntity
  8
0
 62
     3
100
AcDbBlockEnd
  0
ENDSEC
  0
SECTION
  2
ENTITIES
  0
LINE
  5
3C
330
2
100
AcDbEntity
  8
0
  6
Continuous
 62
     7
100
AcDbLine
 10
63601.91342481772
 20
-10174.75156636926
 30
0.0
 11
63603.43186893202
 21
-10218.23411662086
 31
0.0
  0
LINE
  5
3D
330
2
100
AcDbEntity
  8
0
  6
Continuous
 62
     7
100
AcDbLine
 10
63641.73343293002
 20
-10292.00097555826
 30
0.0
 11
63635.63020542552
 21
-10222.24076596636
 31
0.0
  0
LINE
  5
3E
330
2
100
AcDbEntity
  8
0
  6
Continuous
 62
     7
100
AcDbLine
 10
63660.59756958912
 20
-10221.12941813076
 30
0.0
 11
63660.59756958912
 21
-10222.95510664526
 31
0.0
  0
LINE
  5
3F
330
2
100
AcDbEntity
  8
0
  6
Continuous
 62
     7
100
AcDbLine
 10
63663.47467345002
 20
-10255.84055425666
 30
0.0
 11
63663.47467345002
 21
-10263.78843854736
 31
0.0
  0
LINE
  5
40
330
2
100
AcDbEntity
  8
0
  6
Continuous
 62
     7
100
AcDbLine
 10
63660.59756958912
 20
-10222.95510664526
 30
0.0
 11
63663.47467345002
 21
-10255.84055425666
 31
0.0
  0
LINE
  5
41
330
2
100
AcDbEntity
  8
0
  6
Continuous
 62
     7
100
AcDbLine
 10
63678.57746084312
 20
-10255.84055418456
 30
0.0
 11
63678.57746100772
 21
-10263.78845838156
 31
0.0
  0
LINE
  5
42
330
2
100
AcDbEntity
  8
0
  6
Continuous
 62
     7
100
AcDbLine
 10
63683.87586186172
 20
-10221.12941813076
 30
0.0
 11
63683.87586189692
 21
-10222.95511121266
 31
0.0
  0
LINE
  5
43
330
2
100
AcDbEntity
  8
0
  6
Continuous
 62
     7
100
AcDbLine
 10
63635.52828566662
 20
-10222.09044189237
 30
0.0
 11
63635.60563230763
 21
-10222.25869110536
 31
0.0
  0
LINE
  5
44
330
2
100
AcDbEntity
  8
0
  6
Continuous
 62
     7
100
AcDbLine
 10
63691.24124652252
 20
-10252.00097294856
 30
0.0
 11
63691.24115392992
 21
-10261.12941812856
 31
0.0
  0
LWPOLYLINE
  5
45
330
2
100
AcDbEntity
  8
0
  6
Continuous
 62
     7
100
AcDbPolyline
 90
        3
 70
     0
 43
0.0
 10
63687.87488457172
 20
-10289.92490593866
 10
63687.85459591902
 20
-10289.96511297686
 10
63688.05676603752
 20
-10289.68632096036
  0
LWPOLYLINE
  5
46
330
2
100
AcDbEntity
  8
06___PRT_ALL_SURFS
  6
Continuous
 62
     7
100
AcDbPolyline
 90
        9
 70
     0
 43
0.0
 10
63698.23791678382
 20
-10289.09068291177
 10
63708.25801448712
 20
-10297.27802256606
 10
63721.26315234383
 20
-10306.29228730846
 10
63734.54474113332
 20
-10313.78091767086
 10
63747.90087345612
 20
-10319.82863744586
 10
63761.14322243082
 20
-10324.60150192506
 10
63774.26117161012
 20
-10328.25454403766
 10
63787.26573139022
 20
-10330.85286539656
 10
63799.77964327372
 20
-10332.41052067766
  0
LINE
  5
48
330
2
100
AcDbEntity
  8
0
  6
Continuous
 62
     7
100
AcDbLine
 10
63698.23801009462
 20
-10289.09076427086
 30
0.0
 11
63698.23313197222
 21
-10289.08647215696
 31
0.0
  0
LINE
  5
49
330
2
100
AcDbEntity
  8
0
  6
Continuous
 62
     7
100
AcDbLine
 10
63814.06918211542
 20
-10337.56534206486
 30
0.0
 11
63816.78693661402
 21
-10368.62941813077
 31
0.0
  0
LINE
  5
4A
330
2
100
AcDbEntity
  8
0
  6
Continuous
 62
     7
100
AcDbLine
 10
63886.78693661402
 20
-10368.62941813077
 30
0.0
 11
63816.78693661402
 21
-10368.62941813077
 31
0.0
  0
LWPOLYLINE
  5
4B
330
2
100
AcDbEntity
  8
0
  6
Continuous
 62
     7
100
AcDbPolyline
 90
        3
 70
     0
 43
0.0
 10
63634.42347066302
 20
-10221.20729727276
 10
63635.14281101792
 20
-10221.60547035216
 10
63635.52828566662
 20
-10222.09044189237
  0
LINE
  5
4C
330
2
100
AcDbEntity
  8
0
  6
Continuous
 62
     7
100
AcDbLine
 10
63809.37232063462
 20
-10333.01135534886
 30
0.0
 11
63809.37003687592
 21
-10333.01127275846
 31
0.0
  0
LWPOLYLINE
  5
4D
330
2
100
AcDbEntity
  8
0
  6
Continuous
 62
     7
100
AcDbPolyline
 90
       14
 70
     0
 43
0.0
 10
63809.36976817552
 20
-10333.01126960896
 10
63809.38038861343
 20
-10333.01174944026
 10
63809.45579283642
 20
-10333.01618604766
 10
63809.66713909162
 20
-10333.03566520446
 10
63810.13657506222
 20
-10333.11273917647
 10
63810.75591454222
 20
-10333.28772027656
 10
63811.39698047662
 20
-10333.56626176246
 10
63812.02849861723
 20
-10333.95714869397
 10
63812.62096263262
 20
-10334.46289051507
 10
63813.14327151592
 20
-10335.07602769086
 10
63813.57025673882
 20
-10335.78501230187
 10
63813.88005708382
 20
-10336.57346828276
 10
63814.05413177182
 20
-10337.41832323936
 10
63814.06918646072
 20
-10337.56533862977
  0
LINE
  5
4E
330
2
100
AcDbEntity
  8
06___PRT_ALL_SURFS
  6
Continuous
 62
     7
100
AcDbLine
 10
63799.77964327372
 20
-10332.41052067766
 30
0.0
 11
63809.37233269092
 21
-10333.01135578746
 31
0.0
  0
LINE
  5
4F
330
2
100
AcDbEntity
  8
0
  6
Continuous
 62
     7
100
AcDbLine
 10
63690.79499903032
 20
-10287.74897298246
 30
0.0
 11
63690.64309749423
 21
-10287.80930076826
 31
0.0
  0
LWPOLYLINE
  5
50
330
2
100
AcDbEntity
  8
06___PRT_ALL_SURFS
  6
Continuous
 62
     7
100
AcDbPolyline
 90
       10
 70
     0
 43
0.0
 10
63894.20154126232
 20
-10333.01135576107
 10
63903.79422943782
 20
-10332.41052072366
 10
63916.30814060892
 20
-10330.85286559426
 10
63929.31269982732
 20
-10328.25454446536
 10
63942.43064842882
 20
-10324.60150267926
 10
63955.67299686402
 20
-10319.82863862056
 10
63969.02912870862
 20
-10313.78091938186
 10
63982.31071710842
 20
-10306.29228967016
 10
63995.31585461142
 20
-10297.27802571506
 10
64005.33595829582
 20
-10289.09068129746
  0
LINE
  5
51
330
2
100
AcDbEntity
  8
0
  6
Continuous
 62
     7
100
AcDbLine
 10
63894.19841493062
 20
-10333.01152112336
 30
0.0
 11
63894.20483458672
 21
-10333.01124286056
 31
0.0
  0
LINE
  5
52
330
2
100
AcDbEntity
  8
0
  6
Continuous
 62
     7
100
AcDbLine
 10
63894.20455577602
 20
-10333.01124654976
 30
0.0
 11
63894.20155539543
 21
-10333.01135524696
 31
0.0
  0
LINE
  5
53
330
2
100
AcDbEntity
  8
0
  6
Continuous
 62
     7
100
AcDbLine
 10
63651.69537991092
 20
-10301.12941813076
 30
0.0
 11
63707.30530198292
 21
-10301.12941813076
 31
0.0
  0
LINE
  5
54
330
2
100
AcDbEntity
  8
0
  6
Continuous
 62
     7
100
AcDbLine
 10
63996.26857124522
 20
-10301.12941813076
 30
0.0
 11
64051.87849331722
 21
-10301.12941813076
 31
0.0
  0
LINE
  5
55
330
2
100
AcDbEntity
  8
0
  6
Continuous
 62
     7
100
AcDbLine
 10
63996.29037209352
 20
-10296.84276614486
 30
0.0
 11
64008.54775264292
 21
-10296.84273392406
 31
0.0
  0
LINE
  5
56
330
2
100
AcDbEntity
  8
0
  6
Continuous
 62
     7
100
AcDbLine
 10
63889.50469110873
 20
-10337.56534211026
 30
0.0
 11
63886.78693661402
 21
-10368.62941813077
 31
0.0
  0
LWPOLYLINE
  5
57
330
2
100
AcDbEntity
  8
0
  6
Continuous
 62
     7
100
AcDbPolyline
 90
        3
 70
     0
 43
0.0
 10
63889.50468659422
 20
-10337.56533859347
 10
63889.54103994692
 20
-10337.25900783817
 10
63889.76058478053
 20
-10336.36600486376
  0
LWPOLYLINE
  5
58
330
2
100
AcDbEntity
  8
0
  6
Continuous
 62
     7
100
AcDbPolyline
 90
        3
 70
     0
 43
0.0
 10
63889.76058478053
 20
-10336.36600486376
 10
63890.12591051752
 20
-10335.55318533087
 10
63890.61018245253
 20
-10334.84196668007
  0
LINE
  5
59
330
2
100
AcDbEntity
  8
0
  6
Continuous
 62
     7
100
AcDbLine
 10
64068.55911831162
 20
-10221.50146499686
 30
0.0
 11
64069.27298632322
 21
-10221.17553725937
 31
0.0
  0
LWPOLYLINE
  5
5A
330
2
100
AcDbEntity
  8
0
  6
Continuous
 62
     7
100
AcDbPolyline
 90
        4
 70
     0
 43
0.0
 10
63690.79499903032
 20
-10287.74897298246
 10
63693.34643099293
 20
-10287.27371262406
 10
63696.97297318652
 20
-10288.20399742156
 10
63698.23306454223
 20
-10289.08641235636
  0
LINE
  5
5B
330
2
100
AcDbEntity
  8
0
  6
Continuous
 62
     7
100
AcDbLine
 10
63663.47467345002
 20
-10263.78843854736
 30
0.0
 11
63678.57746100772
 21
-10263.78845838156
 31
0.0
  0
LINE
  5
5C
330
2
100
AcDbEntity
  8
0
  6
Continuous
 62
     7
100
AcDbLine
 10
64024.99640814283
 20
-10263.78846574846
 30
0.0
 11
64040.09919977672
 21
-10263.78843854666
 31
0.0
  0
LINE
  5
5D
330
2
100
AcDbEntity
  8
0
  6
Continuous
 62
     7
100
AcDbLine
 10
63691.24114905712
 20
-10261.12941813076
 30
0.0
 11
64012.33260226782
 21
-10261.12941813076
 31
0.0
  0
LINE
  5
5E
330
2
100
AcDbEntity
  8
0
  6
Continuous
 62
     7
100
AcDbLine
 10
63663.47467345002
 20
-10255.84055425666
 30
0.0
 11
63678.57753339352
 21
-10255.84055418456
 31
0.0
  0
LINE
  5
5F
330
2
100
AcDbEntity
  8
0
  6
Continuous
 62
     7
100
AcDbLine
 10
64024.99647466072
 20
-10255.84050706726
 30
0.0
 11
64040.09919977802
 21
-10255.84055425666
 31
0.0
  0
LINE
  5
60
330
2
100
AcDbEntity
  8
0
  6
Continuous
 62
     7
100
AcDbLine
 10
63691.24124652252
 20
-10252.00097294856
 30
0.0
 11
64012.33255240142
 21
-10252.00092753776
 31
0.0
  0
LINE
  5
61
330
2
100
AcDbEntity
  8
0
  6
Continuous
 62
     7
100
AcDbLine
 10
64012.92549137503
 20
-10287.80724427736
 30
0.0
 11
64012.78394057792
 21
-10287.75102847026
 31
0.0
  0
LWPOLYLINE
  5
62
330
2
100
AcDbEntity
  8
0
  6
Continuous
 62
     7
100
AcDbPolyline
 90
        4
 70
     0
 43
0.0
 10
63890.61018245253
 20
-10334.84196668007
 10
63891.18433890362
 20
-10334.24605377087
 10
63891.81842595892
 20
-10333.77209975377
 10
63892.48344616283
 20
-10333.41973329926
  0
LINE
  5
63
330
2
100
AcDbEntity
  8
0
  6
Continuous
 62
     7
100
AcDbLine
 10
64042.97630363902
 20
-10222.95510664526
 30
0.0
 11
64037.87801636382
 21
-10222.95511262576
 31
0.0
  0
LINE
  5
64
330
2
100
AcDbEntity
  8
0
  6
Continuous
 62
     7
100
AcDbLine
 10
63683.87586189692
 20
-10222.95511121266
 30
0.0
 11
63660.59756958912
 21
-10222.95510664526
 31
0.0
  0
LINE
  5
65
330
2
100
AcDbEntity
  8
0
  6
Continuous
 62
     7
100
AcDbLine
 10
63686.38493949972
 20
-10221.12925735586
 30
0.0
 11
63606.43004141312
 21
-10221.12941813076
 31
0.0
  0
LINE
  5
66
330
2
100
AcDbEntity
  8
0
  6
Continuous
 62
     7
100
AcDbLine
 10
64035.46777902132
 20
-10221.12941813076
 30
0.0
 11
64097.14383181502
 21
-10221.12941813076
 31
0.0
  0
LINE
  5
67
330
2
100
AcDbEntity
  8
0
  6
Continuous
 62
     7
100
AcDbLine
 10
64034.51053099412
 20
-10221.12661004396
 30
0.0
 11
63687.19237070212
 21
-10221.12659516936
 31
0.0
  0
LWPOLYLINE
  5
68
330
2
100
AcDbEntity
  8
0
  6
Continuous
 62
     7
100
AcDbPolyline
 90
        3
 70
     0
 43
0.0
 10
64012.92548169142
 20
-10287.80726803786
 10
64014.33769884162
 20
-10288.58799150086
 10
64015.50189254592
 20
-10289.66800413597
  0
LWPOLYLINE
  5
69
330
2
100
AcDbEntity
  8
0
  6
Continuous
 62
     7
100
AcDbPolyline
 90
        4
 70
     0
 43
0.0
 10
64005.34087159792
 20
-10289.08635746097
 10
64006.70234484772
 20
-10288.14876385116
 10
64010.27511826492
 20
-10287.27411584126
 10
64012.78394057792
 20
-10287.75102847026
  0
LWPOLYLINE
  5
6A
330
2
100
AcDbEntity
  8
0
  6
Continuous
 62
     7
100
AcDbPolyline
 90
        6
 70
     0
 43
0.0
 10
63892.48344616283
 20
-10333.41973329926
 10
63893.13245243073
 20
-10333.18807678986
 10
63893.67667340822
 20
-10333.06763551876
 10
63894.02670841002
 20
-10333.02341476016
 10
63894.16706082852
 20
-10333.01312217836
 10
63894.19841493062
 20
-10333.01152112336
  0
LINE
  5
6B
330
2
100
AcDbEntity
  8
0
  6
Continuous
 62
     7
100
AcDbLine
 10
64015.50189254592
 20
-10289.66800413597
 30
0.0
 11
64015.67440752732
 21
-10289.89943596607
 31
0.0
  0
LINE
  5
6C
330
2
100
AcDbEntity
  8
0
  6
Continuous
 62
     7
100
AcDbLine
 10
64008.54774382072
 20
-10296.84273392406
 30
0.0
 11
64008.54775670152
 21
-10301.12941813076
 31
0.0
  0
LINE
  5
6D
330
2
100
AcDbEntity
  8
0
  6
Continuous
 62
     7
100
AcDbLine
 10
63996.29037209352
 20
-10296.84276614486
 30
0.0
 11
63996.29221576562
 21
-10296.48024903556
 31
0.0
  0
LINE
  5
6E
330
2
100
AcDbEntity
  8
0
  6
Continuous
 62
     7
100
AcDbLine
 10
64068.12266572362
 20
-10221.96079946187
 30
0.0
 11
64068.55911831162
 21
-10221.50146499686
 31
0.0
  0
LINE
  5
6F
330
2
100
AcDbEntity
  8
0
  6
Continuous
 62
     7
100
AcDbLine
 10
64005.33597807732
 20
-10289.09066404966
 30
0.0
 11
64005.34085983742
 21
-10289.08636742966
 31
0.0
  0
LINE
  5
70
330
2
100
AcDbEntity
  8
0
  6
Continuous
 62
     7
100
AcDbLine
 10
64015.58887486442
 20
-10289.70096601556
 30
0.0
 11
64015.51757495682
 21
-10289.47201446376
 31
0.0
  0
LINE
  5
71
330
2
100
AcDbEntity
  8
0
  6
Continuous
 62
     7
100
AcDbLine
 10
64012.33255240142
 20
-10252.00092753776
 30
0.0
 11
64012.33264675122
 21
-10261.12941812836
 31
0.0
  0
LINE
  5
72
330
2
100
AcDbEntity
  8
0
  6
Continuous
 62
     7
100
AcDbLine
 10
64024.99640778702
 20
-10255.84050706706
 30
0.0
 11
64024.99640814283
 21
-10263.78846574846
 31
0.0
  0
LINE
  5
73
330
2
100
AcDbEntity
  8
0
  6
Continuous
 62
     7
100
AcDbLine
 10
63605.41129271232
 20
-10171.12941813077
 30
0.0
 11
64098.16258051582
 21
-10171.12941813077
 31
0.0
  0
LINE
  5
74
330
2
100
AcDbEntity
  8
0
  6
Continuous
 62
     7
100
AcDbLine
 10
63607.22156659662
 20
-10171.12941813077
 30
0.0
 11
63607.22396100593
 21
-10171.12942983686
 31
0.0
  0
LINE
  5
75
330
2
100
AcDbEntity
  8
0
  6
Continuous
 62
     7
100
AcDbLine
 10
64037.87801638192
 20
-10221.12941813076
 30
0.0
 11
64037.87801636382
 21
-10222.95511262576
 31
0.0
  0
LINE
  5
76
330
2
100
AcDbEntity
  8
0
  6
Continuous
 62
     7
100
AcDbLine
 10
64040.09919977802
 20
-10255.84055425666
 30
0.0
 11
64040.09919977672
 21
-10263.78843854666
 31
0.0
  0
LINE
  5
77
330
2
100
AcDbEntity
  8
0
  6
Continuous
 62
     7
100
AcDbLine
 10
64042.97630363902
 20
-10221.12941813076
 30
0.0
 11
64042.97630363902
 21
-10222.95510664526
 31
0.0
  0
LINE
  5
78
330
2
100
AcDbEntity
  8
0
  6
Continuous
 62
     7
100
AcDbLine
 10
64040.09919977802
 20
-10255.84055425666
 30
0.0
 11
64042.97630363902
 21
-10222.95510664526
 31
0.0
  0
LWPOLYLINE
  5
79
330
2
100
AcDbEntity
  8
0
  6
Continuous
 62
     7
100
AcDbPolyline
 90
        3
 70
     0
 43
0.0
 10
64067.92725596733
 20
-10222.38488584467
 10
64067.94831124472
 20
-10222.31438530827
 10
64068.12266572362
 20
-10221.96079946187
  0
LINE
  5
7A
330
2
100
AcDbEntity
  8
0
  6
Continuous
 62
     7
100
AcDbLine
 10
64061.84044029813
 20
-10292.00097555826
 30
0.0
 11
64067.94366771062
 21
-10222.24076701776
 31
0.0
  0
LINE
  5
7B
330
2
100
AcDbEntity
  8
0
  6
Continuous
 62
     7
100
AcDbLine
 10
64067.93238572632
 20
-10222.34847856867
 30
0.0
 11
64067.92725596733
 21
-10222.38488584467
 31
0.0
  0
LINE
  5
7C
330
2
100
AcDbEntity
  8
0
  6
Continuous
 62
     7
100
AcDbLine
 10
64101.66044841032
 20
-10174.75156636926
 30
0.0
 11
64100.14200429612
 21
-10218.23411662086
 31
0.0
  0
LINE
  5
7D
330
2
100
AcDbEntity
  8
0
  6
Continuous
 62
     7
100
AcDbLine
 10
64246.25410552475
 20
-10299.12941813077
 30
0.0
 11
64246.25410552475
 21
-10173.12941813077
 31
0.0
  0
LINE
  5
7E
330
2
100
AcDbEntity
  8
0
  6
Continuous
 62
     7
100
AcDbLine
 10
64296.05303245045
 20
-10221.12941813076
 30
0.0
 11
64296.05303235125
 21
-10222.95510782706
 31
0.0
  0
LINE
  5
7F
330
2
100
AcDbEntity
  8
0
  6
Continuous
 62
     7
100
AcDbLine
 10
64344.88606449635
 20
-10298.98114406996
 30
0.0
 11
64345.08346773875
 21
-10305.93010617086
 31
0.0
  0
LINE
  5
80
330
2
100
AcDbEntity
  8
0
  6
Continuous
 62
     7
100
AcDbLine
 10
64496.25410552474
 20
-10368.62941813077
 30
0.0
 11
64426.25410552475
 21
-10368.62941813077
 31
0.0
  0
LINE
  5
81
330
2
100
AcDbEntity
  8
0
  6
Continuous
 62
     7
100
AcDbLine
 10
64392.02719391255
 20
-10354.41803476937
 30
0.0
 11
64427.04350266925
 21
-10356.54823380096
 31
0.0
  0
LINE
  5
82
330
2
100
AcDbEntity
  8
0
  6
Continuous
 62
     7
100
AcDbLine
 10
64441.22862078875
 20
-10332.96449052357
 30
0.0
 11
64440.93059958885
 21
-10332.96352949037
 31
0.0
  0
LINE
  5
83
330
2
100
AcDbEntity
  8
0
  6
Continuous
 62
     7
100
AcDbLine
 10
64443.44692603905
 20
-10337.52225439596
 30
0.0
 11
64443.18151017514
 21
-10337.52121501906
 31
0.0
  0
LINE
  5
84
330
2
100
AcDbEntity
  8
0
  6
Continuous
 62
     7
100
AcDbLine
 10
64425.56287683625
 20
-10360.72863806756
 30
0.0
 11
64426.25410552475
 21
-10368.62941813077
 31
0.0
  0
LINE
  5
85
330
2
100
AcDbEntity
  8
0
  6
Continuous
 62
     7
100
AcDbLine
 10
64248.25410552474
 20
-10301.12941813076
 30
0.0
 11
64258.25410552475
 21
-10301.12941813076
 31
0.0
  0
LINE
  5
86
330
2
100
AcDbEntity
  8
0
  6
Continuous
 62
     7
100
AcDbLine
 10
64498.96061451855
 20
-10337.69387877466
 30
0.0
 11
64496.25410552474
 21
-10368.62941813077
 31
0.0
  0
LINE
  5
87
330
2
100
AcDbEntity
  8
0
  6
Continuous
 62
     7
100
AcDbLine
 10
64296.05303235125
 20
-10222.95510782706
 30
0.0
 11
64248.25410552474
 21
-10222.95510664526
 31
0.0
  0
LINE
  5
88
330
2
100
AcDbEntity
  8
0
  6
Continuous
 62
     7
100
AcDbLine
 10
64721.61100072575
 20
-10221.12941813076
 30
0.0
 11
64248.25410552474
 21
-10221.12941813076
 31
0.0
  0
LINE
  5
89
330
2
100
AcDbEntity
  8
0
  6
Continuous
 62
     7
100
AcDbLine
 10
64248.25410552474
 20
-10171.12941813077
 30
0.0
 11
64722.62974942655
 21
-10171.12941813077
 31
0.0
  0
LINE
  5
8A
330
2
100
AcDbEntity
  8
0
  6
Continuous
 62
     7
100
AcDbLine
 10
64692.34834000205
 20
-10222.95510664526
 30
0.0
 11
64689.47123614105
 21
-10255.84055425666
 31
0.0
  0
LINE
  5
8B
330
2
100
AcDbEntity
  8
0
  6
Continuous
 62
     7
100
AcDbLine
 10
64726.12761732105
 20
-10174.75156636926
 30
0.0
 11
64724.60917320685
 21
-10218.23411662086
 31
0.0
  0
LINE
  5
8C
330
2
100
AcDbEntity
  8
0
  6
Continuous
 62
     7
100
AcDbLine
 10
63601.91129271232
 20
-10536.34997231716
 30
0.0
 11
63601.91129271232
 21
-10982.22561621886
 31
0.0
  0
ARC
  5
8D
330
2
100
AcDbEntity
  8
0
  6
Continuous
 62
     7
100
AcDbCircle
 10
63633.91129271231
 20
-10982.22561621886
 30
0.0
 40
32.0
100
AcDbArc
 50
180.0
 51
270.0
  0
LWPOLYLINE
  5
8E
330
2
100
AcDbEntity
  8
0
  6
Continuous
 62
     7
100
AcDbPolyline
 90
        8
 70
     0
 43
0.0
 10
64069.86901180872
 20
-11014.22538540096
 10
64075.64197532332
 20
-11013.69715140246
 10
64082.90167443912
 20
-11011.43160184426
 10
64089.42595674602
 20
-11007.49900062026
 10
64094.83052870831
 20
-11002.12334866156
 10
64098.79964525832
 20
-10995.61683654177
 10
64101.10481242632
 20
-10988.36143743487
 10
64101.66225339632
 20
-10982.43204750757
  0
LINE
  5
8F
330
2
100
AcDbEntity
  8
0
  6
Continuous
 62
     7
100
AcDbLine
 10
63633.91129271231
 20
-11014.22561621886
 30
0.0
 11
64069.86901181092
 21
-11014.22561621886
 31
0.0
  0
LINE
  5
90
330
2
100
AcDbEntity
  8
0
  6
Continuous
 62
     7
100
AcDbLine
 10
64101.66258051583
 20
-10982.43204754146
 30
0.0
 11
64101.66258051583
 21
-10536.34997231716
 31
0.0
  0
LINE
  5
91
330
2
100
AcDbEntity
  8
0
  6
Continuous
 62
     7
100
AcDbLine
 10
63626.38939832873
 20
-10546.84234074396
 30
0.0
 11
64077.18447489942
 21
-10546.84234074396
 31
0.0
  0
LINE
  5
92
330
2
100
AcDbEntity
  8
0
  6
Continuous
 62
     7
100
AcDbLine
 10
63628.34642722522
 20
-10542.34872776407
 30
0.0
 11
64075.22744600282
 21
-10542.34872776407
 31
0.0
  0
LINE
  5
93
330
2
100
AcDbEntity
  8
0
  6
Continuous
 62
     7
100
AcDbLine
 10
63603.91195137973
 20
-10534.34997231716
 30
0.0
 11
64099.66202308132
 21
-10534.34997231716
 31
0.0
  0
ARC
  5
94
330
2
100
AcDbEntity
  8
0
  6
Continuous
 62
     7
100
AcDbCircle
 10
63194.90731829162
 20
-10259.16536607176
 30
0.0
 40
505.1157005421
100
AcDbArc
 50
358.5672143908944
 51
359.4396307601295
  0
ARC
  5
95
330
2
100
AcDbEntity
  8
0
  6
Continuous
 62
     7
100
AcDbCircle
 10
63656.46114731762
 20
-10271.56732307716
 30
0.0
 40
43.3968657389
100
AcDbArc
 50
352.8069681378389
 51
358.6128372832338
  0
ARC
  5
96
330
2
100
AcDbEntity
  8
0
  6
Continuous
 62
     7
100
AcDbCircle
 10
63678.38079710852
 20
-10291.09782071666
 30
0.0
 40
10.0139871012
100
AcDbArc
 50
292.6498587516788
 51
350.0463767316539
  0
ARC
  5
97
330
2
100
AcDbEntity
  8
0
  6
Continuous
 62
     7
100
AcDbCircle
 10
63651.69537988403
 20
-10291.12941782386
 30
0.0
 40
10.0
100
AcDbArc
 50
185.0000017648923
 51
270.0000001538293
  0
ARC
  5
98
330
2
100
AcDbEntity
  8
0
  6
Continuous
 62
     7
100
AcDbCircle
 10
63693.67165157203
 20
-10295.20944986596
 30
0.0
 40
7.995943261599999
100
AcDbArc
 50
112.2571171805517
 51
148.1049426887747
  0
ARC
  5
99
330
2
100
AcDbEntity
  8
0
  6
Continuous
 62
     7
100
AcDbCircle
 10
63809.08813954462
 20
-10338.00112153877
 30
0.0
 40
5.0000699947
100
AcDbArc
 50
4.999939686232222
 51
87.80779268408862
  0
ARC
  5
9A
330
2
100
AcDbEntity
  8
0
  6
Continuous
 62
     7
100
AcDbCircle
 10
63707.30530198292
 20
-10151.12941813077
 30
0.0
 40
150.0
100
AcDbArc
 50
270.0
 51
272.2680576579449
  0
ARC
  5
9B
330
2
100
AcDbEntity
  8
0
  6
Continuous
 62
     7
100
AcDbCircle
 10
63683.86987851172
 20
-10215.93734311186
 30
0.0
 40
7.018746101599999
100
AcDbArc
 50
270.0367831921422
 51
312.1787605969263
  0
ARC
  5
9C
330
2
100
AcDbEntity
  8
0
  6
Continuous
 62
     7
100
AcDbCircle
 10
63605.41150663942
 20
-10174.62941813076
 30
0.0
 40
3.5
100
AcDbArc
 50
90.00350203359053
 51
181.9998777975804
  0
ARC
  5
9D
330
2
100
AcDbEntity
  8
0
  6
Continuous
 62
     7
100
AcDbCircle
 10
63606.43004141312
 20
-10218.12941813077
 30
0.0
 40
3.0
100
AcDbArc
 50
182.0000000000037
 51
270.0
  0
ARC
  5
9E
330
2
100
AcDbEntity
  8
0
  6
Continuous
 62
     7
100
AcDbCircle
 10
63633.70031274062
 20
-10223.12941813076
 30
0.0
 40
2.0
100
AcDbArc
 50
24.94566331413348
 51
64.43442193844224
  0
ARC
  5
9F
330
2
100
AcDbEntity
  8
0
  6
Continuous
 62
     7
100
AcDbCircle
 10
63633.88915456222
 20
-10223.10244946756
 30
0.0
 40
1.9706874556
100
AcDbArc
 50
26.32356647728898
 51
67.85388850049322
  0
ARC
  5
A0
330
2
100
AcDbEntity
  8
0
  6
Continuous
 62
     7
100
AcDbCircle
 10
64047.11458541353
 20
-10271.56724112987
 30
0.0
 40
43.3987265901
100
AcDbArc
 50
181.3871741968864
 51
187.1928371319257
  0
ARC
  5
A1
330
2
100
AcDbEntity
  8
0
  6
Continuous
 62
     7
100
AcDbCircle
 10
64025.24930912112
 20
-10289.93789663567
 30
0.0
 40
18.0725971231
100
AcDbArc
 50
190.0016082265808
 51
202.4614137664067
  0
ARC
  5
A2
330
2
100
AcDbEntity
  8
0
  6
Continuous
 62
     7
100
AcDbCircle
 10
64051.87849331722
 20
-10291.12941813077
 30
0.0
 40
10.0
100
AcDbArc
 50
270.0
 51
355.0000000000232
  0
ARC
  5
A3
330
2
100
AcDbEntity
  8
0
  6
Continuous
 62
     7
100
AcDbCircle
 10
64025.17961894762
 20
-10291.12061726436
 30
0.0
 40
9.987877056
100
AcDbArc
 50
189.9572630263925
 51
244.312004772972
  0
ARC
  5
A4
330
2
100
AcDbEntity
  8
0
  6
Continuous
 62
     7
100
AcDbCircle
 10
64009.90217985112
 20
-10295.20948437376
 30
0.0
 40
7.9958950247
100
AcDbArc
 50
31.89453747055111
 51
67.78332558496042
  0
ARC
  5
A5
330
2
100
AcDbEntity
  8
0
  6
Continuous
 62
     7
100
AcDbCircle
 10
63894.51152599352
 20
-10338.02000787746
 30
0.0
 40
5.0316301321
100
AcDbArc
 50
134.6916703918481
 51
153.2360497924081
  0
ARC
  5
A6
330
2
100
AcDbEntity
  8
0
  6
Continuous
 62
     7
100
AcDbCircle
 10
63894.46421142522
 20
-10337.97851310936
 30
0.0
 40
4.9688574982
100
AcDbArc
 50
132.9514955456002
 51
134.6403218348605
  0
ARC
  5
A7
330
2
100
AcDbEntity
  8
0
  6
Continuous
 62
     7
100
AcDbCircle
 10
63894.43525057542
 20
-10337.97453703396
 30
0.0
 40
4.9430538624
100
AcDbArc
 50
153.3085119197151
 51
155.6761229624831
  0
ARC
  5
A8
330
2
100
AcDbEntity
  8
0
  6
Continuous
 62
     7
100
AcDbCircle
 10
63996.26857124522
 20
-10151.12941813077
 30
0.0
 40
150.0
100
AcDbArc
 50
267.7319423821071
 51
270.0
  0
ARC
  5
A9
330
2
100
AcDbEntity
  8
0
  6
Continuous
 62
     7
100
AcDbCircle
 10
64037.88509320492
 20
-10215.94313798237
 30
0.0
 40
7.0142414287
100
AcDbArc
 50
227.8097569915495
 51
269.9597813957688
  0
ARC
  5
AA
330
2
100
AcDbEntity
  8
0
  6
Continuous
 62
     7
100
AcDbCircle
 10
64098.16258051582
 20
-10174.62941813076
 30
0.0
 40
3.5
100
AcDbArc
 50
357.9999999999962
 51
90.0
  0
ARC
  5
AB
330
2
100
AcDbEntity
  8
0
  6
Continuous
 62
     7
100
AcDbCircle
 10
64097.14383181502
 20
-10218.12941813077
 30
0.0
 40
3.0
100
AcDbArc
 50
270.0
 51
357.9999999999962
  0
ARC
  5
AC
330
2
100
AcDbEntity
  8
0
  6
Continuous
 62
     7
100
AcDbCircle
 10
64069.87356048753
 20
-10223.12941813076
 30
0.0
 40
2.0
100
AcDbArc
 50
111.2500002262473
 51
157.9291667803251
  0
ARC
  5
AD
330
2
100
AcDbEntity
  8
0
  6
Continuous
 62
     7
100
AcDbCircle
 10
64069.68432005712
 20
-10223.10269241886
 30
0.0
 40
1.970772164499999
100
AcDbArc
 50
111.3244498357829
 51
156.4485770547869
  0
ARC
  5
AE
330
2
100
AcDbEntity
  8
0
  6
Continuous
 62
     7
100
AcDbCircle
 10
64508.65268015122
 20
-10259.16552623256
 30
0.0
 40
505.1018260901
100
AcDbArc
 50
180.5603664878011
 51
181.4328068006147
  0
ARC
  5
AF
330
2
100
AcDbEntity
  8
0
  6
Continuous
 62
     7
100
AcDbCircle
 10
64447.29158405586
 20
-10093.36791548536
 30
0.0
 40
244.133798434
100
AcDbArc
 50
267.3388205869005
 51
268.4751604690222
  0
ARC
  5
B0
330
2
100
AcDbEntity
  8
0
  6
Continuous
 62
     7
100
AcDbCircle
 10
64395.06330516685
 20
-10304.51029961286
 30
0.0
 40
50.0
100
AcDbArc
 50
181.6271971991459
 51
266.5187311917057
  0
ARC
  5
B1
330
2
100
AcDbEntity
  8
0
  6
Continuous
 62
     7
100
AcDbCircle
 10
64296.04633340796
 20
-10215.92903996916
 30
0.0
 40
7.027010676399999
100
AcDbArc
 50
270.0413010269047
 51
312.9674282200364
  0
ARC
  5
B2
330
2
100
AcDbEntity
  8
0
  6
Continuous
 62
     7
100
AcDbCircle
 10
64420.58191844745
 20
-10361.16439020837
 30
0.0
 40
4.9999979402
100
AcDbArc
 50
5.000000057308715
 51
86.49374791804659
  0
ARC
  5
B3
330
2
100
AcDbEntity
  8
0
  6
Continuous
 62
     7
100
AcDbCircle
 10
64248.25410552474
 20
-10299.12941813077
 30
0.0
 40
2.0
100
AcDbArc
 50
180.0000000001042
 51
270.0
  0
ARC
  5
B4
330
2
100
AcDbEntity
  8
0
  6
Continuous
 62
     7
100
AcDbCircle
 10
64248.25410552474
 20
-10173.12941813077
 30
0.0
 40
2.0
100
AcDbArc
 50
90.0
 51
180.0
  0
ARC
  5
B5
330
2
100
AcDbEntity
  8
0
  6
Continuous
 62
     7
100
AcDbCircle
 10
64248.25410552474
 20
-10219.12941813077
 30
0.0
 40
2.0
100
AcDbArc
 50
180.0
 51
270.0
  0
ARC
  5
B6
330
2
100
AcDbEntity
  8
0
  6
Continuous
 62
     7
100
AcDbCircle
 10
64253.62768100905
 20
-8751.399431077969
 30
0.0
 40
1549.7538989301
100
AcDbArc
 50
270.5171437122153
 51
271.5579035351726
  0
ARC
  5
B7
330
2
100
AcDbEntity
  8
0
  6
Continuous
 62
     7
100
AcDbCircle
 10
64257.12909081785
 20
-9027.724602099167
 30
0.0
 40
1273.4087789589
100
AcDbArc
 50
270.4718450248212
 51
270.7256053362571
  0
ARC
  5
B8
330
2
100
AcDbEntity
  8
0
  6
Continuous
 62
     7
100
AcDbCircle
 10
64257.78217882395
 20
-9103.214627659367
 30
0.0
 40
1197.9159353526
100
AcDbArc
 50
270.3518124424391
 51
270.4703215985192
  0
ARC
  5
B9
330
2
100
AcDbEntity
  8
0
  6
Continuous
 62
     7
100
AcDbCircle
 10
64258.20117753155
 20
-9178.973897890166
 30
0.0
 40
1122.1555214888
100
AcDbArc
 50
270.0027024337152
 51
270.3541670881201
  0
ARC
  5
BA
330
2
100
AcDbEntity
  8
0
  6
Continuous
 62
     7
100
AcDbCircle
 10
64503.94158725225
 20
-10338.12965748176
 30
0.0
 40
4.999999911899999
100
AcDbArc
 50
90.08350275488579
 51
174.9999993208394
  0
ARC
  5
BB
330
2
100
AcDbEntity
  8
0
  6
Continuous
 62
     7
100
AcDbCircle
 10
64490.97193602925
 20
-9929.536713395366
 30
0.0
 40
403.5885052370999
100
AcDbArc
 50
270.5227565412256
 51
270.7395575032993
  0
ARC
  5
BC
330
2
100
AcDbEntity
  8
0
  6
Continuous
 62
     7
100
AcDbCircle
 10
64492.85667281626
 20
-10045.67168450916
 30
0.0
 40
287.4391402125
100
AcDbArc
 50
270.6626982076679
 51
272.1886814884078
  0
ARC
  5
BD
330
2
100
AcDbEntity
  8
0
  6
Continuous
 62
     7
100
AcDbCircle
 10
64587.74075114855
 20
-10066.75138271696
 30
0.0
 40
220.0129190073
100
AcDbArc
 50
282.5322841520566
 51
283.1623192522347
  0
ARC
  5
BE
330
2
100
AcDbEntity
  8
0
  6
Continuous
 62
     7
100
AcDbCircle
 10
64587.77460985995
 20
-10066.89770957406
 30
0.0
 40
219.8627273307
100
AcDbArc
 50
282.5667084936861
 51
283.1531425804014
  0
ARC
  5
BF
330
2
100
AcDbEntity
  8
0
  6
Continuous
 62
     7
100
AcDbCircle
 10
64596.06145066535
 20
-10095.77174493716
 30
0.0
 40
189.8005088724
100
AcDbArc
 50
288.636994358019
 51
292.1774007168261
  0
ARC
  5
C0
330
2
100
AcDbEntity
  8
0
  6
Continuous
 62
     7
100
AcDbCircle
 10
64597.65843217615
 20
-10099.82889547536
 30
0.0
 40
185.4407006044
100
AcDbArc
 50
291.7499658658861
 51
291.9230735663732
  0
ARC
  5
C1
330
2
100
AcDbEntity
  8
0
  6
Continuous
 62
     7
100
AcDbCircle
 10
64597.90250098845
 20
-10100.43484102856
 30
0.0
 40
184.7874475408
100
AcDbArc
 50
291.9230169699225
 51
292.1929545360375
  0
ARC
  5
C2
330
2
100
AcDbEntity
  8
0
  6
Continuous
 62
     7
100
AcDbCircle
 10
64598.27554279476
 20
-10101.34823531267
 30
0.0
 40
183.8008122528
100
AcDbArc
 50
292.1944510509388
 51
292.5976566794005
  0
ARC
  5
C3
330
2
100
AcDbEntity
  8
0
  6
Continuous
 62
     7
100
AcDbCircle
 10
64598.58460636625
 20
-10102.09231518526
 30
0.0
 40
182.9950984035
100
AcDbArc
 50
292.5978603136318
 51
292.7528026804639
  0
ARC
  5
C4
330
2
100
AcDbEntity
  8
0
  6
Continuous
 62
     7
100
AcDbCircle
 10
64599.06998294795
 20
-10103.24432073717
 30
0.0
 40
181.7450172289
100
AcDbArc
 50
292.7521531223498
 51
293.4782605693295
  0
ARC
  5
C5
330
2
100
AcDbEntity
  8
0
  6
Continuous
 62
     7
100
AcDbCircle
 10
64599.74678103125
 20
-10104.80538364787
 30
0.0
 40
180.0435555946
100
AcDbArc
 50
293.4786304536793
 51
293.973893896562
  0
ARC
  5
C6
330
2
100
AcDbEntity
  8
0
  6
Continuous
 62
     7
100
AcDbCircle
 10
64600.43953023955
 20
-10106.36008014826
 30
0.0
 40
178.3415035929
100
AcDbArc
 50
293.9734822288821
 51
294.7344127561143
  0
ARC
  5
C7
330
2
100
AcDbEntity
  8
0
  6
Continuous
 62
     7
100
AcDbCircle
 10
64601.19381115926
 20
-10108.15382924136
 30
0.0
 40
176.3971350122
100
AcDbArc
 50
292.1512540213129
 51
298.07933428605
  0
ARC
  5
C8
330
2
100
AcDbEntity
  8
0
  6
Continuous
 62
     7
100
AcDbCircle
 10
64601.52464813435
 20
-10108.82621885256
 30
0.0
 40
175.648166742
100
AcDbArc
 50
292.7179698690586
 51
298.0873492107326
  0
ARC
  5
C9
330
2
100
AcDbEntity
  8
0
  6
Continuous
 62
     7
100
AcDbCircle
 10
64602.36310905015
 20
-10110.44270035226
 30
0.0
 40
173.8282648383
100
AcDbArc
 50
295.8761097147235
 51
296.3380679862161
  0
ARC
  5
CA
330
2
100
AcDbEntity
  8
0
  6
Continuous
 62
     7
100
AcDbCircle
 10
64602.87938601386
 20
-10111.48537415746
 30
0.0
 40
172.6647741592
100
AcDbArc
 50
296.3380402676622
 51
296.8284940776785
  0
ARC
  5
CB
330
2
100
AcDbEntity
  8
0
  6
Continuous
 62
     7
100
AcDbCircle
 10
64603.73443483184
 20
-10113.16453280736
 30
0.0
 40
170.7804377604
100
AcDbArc
 50
297.2182875820409
 51
297.5389758989505
  0
ARC
  5
CC
330
2
100
AcDbEntity
  8
0
  6
Continuous
 62
     7
100
AcDbCircle
 10
64705.83408774845
 20
-10241.10724377626
 30
0.0
 40
42.7198853327
100
AcDbArc
 50
152.5898615645849
 51
153.791932267199
  0
ARC
  5
CD
330
2
100
AcDbEntity
  8
0
  6
Continuous
 62
     7
100
AcDbCircle
 10
64688.10379411955
 20
-10231.89712211096
 30
0.0
 40
22.7401633228
100
AcDbArc
 50
151.6195209465942
 51
152.6248208313669
  0
ARC
  5
CE
330
2
100
AcDbEntity
  8
0
  6
Continuous
 62
     7
100
AcDbCircle
 10
64679.50928916015
 20
-10254.96899682916
 30
0.0
 40
10.0
100
AcDbArc
 50
298.1219744947344
 51
355.0000004147413
  0
ARC
  5
CF
330
2
100
AcDbEntity
  8
0
  6
Continuous
 62
     7
100
AcDbCircle
 10
64670.58462543715
 20
-10215.94583287096
 30
0.0
 40
7.006985561299999
100
AcDbArc
 50
226.9963917404637
 51
243.8926602949286
  0
ARC
  5
D0
330
2
100
AcDbEntity
  8
0
  6
Continuous
 62
     7
100
AcDbCircle
 10
64722.62974942655
 20
-10174.62941813076
 30
0.0
 40
3.5
100
AcDbArc
 50
357.9999999999962
 51
90.0
  0
ARC
  5
D1
330
2
100
AcDbEntity
  8
0
  6
Continuous
 62
     7
100
AcDbCircle
 10
64721.61100072575
 20
-10218.12941813077
 30
0.0
 40
3.0
100
AcDbArc
 50
270.0
 51
357.9999999999962
  0
ARC
  5
D2
330
2
100
AcDbEntity
  8
0
  6
Continuous
 62
     7
100
AcDbCircle
 10
64694.34018568535
 20
-10223.12941813076
 30
0.0
 40
1.999959878199999
100
AcDbArc
 50
89.98442377425
 51
174.9986420747075
  0
ARC
  5
D3
330
2
100
AcDbEntity
  8
0
  6
Continuous
 62
     7
100
AcDbCircle
 10
69032.46248018465
 20
-10415.75316044407
 30
0.0
 40
4592.3355850259
100
AcDbArc
 50
179.0225782523204
 51
179.1601338792758
  0
ARC
  5
D4
330
2
100
AcDbEntity
  8
0
  6
Continuous
 62
     7
100
AcDbCircle
 10
68974.25029952115
 20
-10383.65554266637
 30
0.0
 40
4531.3036479553
100
AcDbArc
 50
179.4166473626728
 51
179.5560437927626
  0
ARC
  5
D5
330
2
100
AcDbEntity
  8
0
  6
Continuous
 62
     7
100
AcDbCircle
 10
61676.86878528202
 20
-10692.08212679227
 30
0.0
 40
2416.9039973014
100
AcDbArc
 50
0.0022116570670241
 51
0.1769477281272719
  0
ARC
  5
D6
330
2
100
AcDbEntity
  8
0
  6
Continuous
 62
     7
100
AcDbCircle
 10
63769.21920564772
 20
-10121.16188665666
 30
0.0
 40
633.3278713806
100
AcDbArc
 50
299.6289234606933
 51
299.9665781378488
  0
ARC
  5
D7
330
2
100
AcDbEntity
  8
0
  6
Continuous
 62
     7
100
AcDbCircle
 10
63616.66010942582
 20
-10924.63585244686
 30
0.0
 40
241.8793236101
100
AcDbArc
 50
90.45208854479048
 51
90.56757395270539
  0
ARC
  5
D8
330
2
100
AcDbEntity
  8
0
  6
Continuous
 62
     7
100
AcDbCircle
 10
63799.74760833572
 20
-10722.28700307696
 30
0.0
 40
189.1567004170999
100
AcDbArc
 50
163.8980864689883
 51
167.2324985834717
  0
ARC
  5
D9
330
2
100
AcDbEntity
  8
0
  6
Continuous
 62
     7
100
AcDbCircle
 10
63724.73059235942
 20
-10737.78758386236
 30
0.0
 40
122.3991390058
100
AcDbArc
 50
153.49170370822
 51
154.5464068111139
  0
ARC
  5
DA
330
2
100
AcDbEntity
  8
0
  6
Continuous
 62
     7
100
AcDbCircle
 10
63528.80902909572
 20
-10684.37905766757
 30
0.0
 40
80.9936865408
100
AcDbArc
 50
359.9098366310617
 51
0.2321935893410513
  0
ARC
  5
DB
330
2
100
AcDbEntity
  8
0
  6
Continuous
 62
     7
100
AcDbCircle
 10
63536.75740931402
 20
-10682.31350001326
 30
0.0
 40
77.5080094108
100
AcDbArc
 50
357.878390707387
 51
359.6637276834168
  0
ARC
  5
DC
330
2
100
AcDbEntity
  8
0
  6
Continuous
 62
     7
100
AcDbCircle
 10
63639.52202572602
 20
-10684.70862783236
 30
0.0
 40
29.7193267102
100
AcDbArc
 50
179.6103511124309
 51
179.825150080731
  0
ARC
  5
DD
330
2
100
AcDbEntity
  8
0
  6
Continuous
 62
     7
100
AcDbCircle
 10
63603.91129271232
 20
-10536.34997231716
 30
0.0
 40
2.0
100
AcDbArc
 50
90.0
 51
180.0
  0
ARC
  5
DE
330
2
100
AcDbEntity
  8
0
  6
Continuous
 62
     7
100
AcDbCircle
 10
64174.76402703492
 20
-10684.37905728137
 30
0.0
 40
80.9928694581
100
AcDbArc
 50
179.7678042966339
 51
180.090164693894
  0
ARC
  5
DF
330
2
100
AcDbEntity
  8
0
  6
Continuous
 62
     7
100
AcDbCircle
 10
64064.05184764262
 20
-10684.70862784516
 30
0.0
 40
29.7193265313
100
AcDbArc
 50
0.1748499446985969
 51
0.3896485318588194
  0
ARC
  5
E0
330
2
100
AcDbEntity
  8
0
  6
Continuous
 62
     7
100
AcDbCircle
 10
64099.66258051582
 20
-10536.34997231716
 30
0.0
 40
2.0
100
AcDbArc
 50
0.0
 51
90.0
  0
ARC
  5
E1
330
2
100
AcDbEntity
  8
0
  6
Continuous
 62
     7
100
AcDbCircle
 10
66026.71570349651
 20
-10692.08212576727
 30
0.0
 40
2416.9146172746
100
AcDbArc
 50
179.8230530734358
 51
179.9977883769088
  0
SPLINE
  5
E2
330
2
100
AcDbEntity
  8
0
  6
Continuous
 62
     7
100
AcDbSpline
210
0.0
220
0.0
230
1.0
 70
     8
 71
     3
 72
     9
 73
     5
 74
     0
 42
0.0000000001
 43
0.0000000001
 40
0.0
 40
0.0
 40
0.0
 40
0.0
 40
0.4590149755
 40
1.0
 40
1.0
 40
1.0
 40
1.0
 10
63809.35741114083
 20
-10333.01079757966
 30
0.0
 10
63809.34544231252
 20
-10333.01033208287
 30
0.0
 10
63809.33040410262
 20
-10333.00736445246
 30
0.0
 10
63809.26731437992
 20
-10333.01200301977
 30
0.0
 10
63809.27940173072
 20
-10333.00471043386
 30
0.0
  0
SPLINE
  5
E3
330
2
100
AcDbEntity
  8
0
  6
Continuous
 62
     7
100
AcDbSpline
210
0.0
220
0.0
230
1.0
 70
     8
 71
     3
 72
     9
 73
     5
 74
     0
 42
0.0000000001
 43
0.0000000001
 40
0.0
 40
0.0
 40
0.0
 40
0.0
 40
0.5404076917000001
 40
1.0
 40
1.0
 40
1.0
 40
1.0
 10
63894.29447149742
 20
-10333.00471043386
 30
0.0
 10
63894.30592897972
 20
-10333.01162377676
 30
0.0
 10
63894.24609255152
 20
-10333.00737824387
 30
0.0
 10
63894.23183178812
 20
-10333.01018741716
 30
0.0
 10
63894.22046032362
 20
-10333.01064025117
 30
0.0
  0
SPLINE
  5
E4
330
2
100
AcDbEntity
  8
0
  6
Continuous
 62
     7
100
AcDbSpline
210
0.0
220
0.0
230
1.0
 70
     8
 71
     3
 72
     8
 73
     4
 74
     0
 42
0.0000000001
 43
0.0000000001
 40
0.0
 40
0.0
 40
0.0
 40
0.0
 40
1.0
 40
1.0
 40
1.0
 40
1.0
 10
63894.29447151882
 20
-10333.00471095336
 30
0.0
 10
63893.70685190662
 20
-10333.02720292706
 30
0.0
 10
63893.11451513722
 20
-10333.15724406316
 30
0.0
 10
63892.57116845962
 20
-10333.38213756126
 30
0.0
  0
SPLINE
  5
E5
330
2
100
AcDbEntity
  8
0
  6
Continuous
 62
     7
100
AcDbSpline
210
0.0
220
0.0
230
1.0
 70
     8
 71
     3
 72
     8
 73
     4
 74
     0
 42
0.0000000001
 43
0.0000000001
 40
0.0
 40
0.0
 40
0.0
 40
0.0
 40
1.0
 40
1.0
 40
1.0
 40
1.0
 10
63892.57116845962
 20
-10333.38213756126
 30
0.0
 10
63892.02465386322
 20
-10333.60834227436
 30
0.0
 10
63891.51145932832
 20
-10333.93863407536
 30
0.0
 10
63891.07853637542
 20
-10334.34165329706
 30
0.0
  0
SPLINE
  5
E6
330
2
100
AcDbEntity
  8
0
  6
Continuous
 62
     7
100
AcDbSpline
210
0.0
220
0.0
230
1.0
 70
     8
 71
     3
 72
     8
 73
     4
 74
     0
 42
0.0000000001
 43
0.0000000001
 40
0.0
 40
0.0
 40
0.0
 40
0.0
 40
1.0
 40
1.0
 40
1.0
 40
1.0
 10
63889.93098317192
 20
-10335.93852214096
 30
0.0
 10
63889.70007673572
 20
-10336.44933965756
 30
0.0
 10
63889.55354437142
 20
-10337.00689276046
 30
0.0
 10
63889.50468631562
 20
-10337.56534169096
 30
0.0
  0
SPLINE
  5
E7
330
2
100
AcDbEntity
  8
0
  6
Continuous
 62
     7
100
AcDbSpline
210
0.0
220
0.0
230
1.0
 70
     8
 71
     3
 72
     8
 73
     4
 74
     0
 42
0.0000000001
 43
0.0000000001
 40
0.0
 40
0.0
 40
0.0
 40
0.0
 40
1.0
 40
1.0
 40
1.0
 40
1.0
 10
64025.17790586372
 20
-10301.10803608937
 30
0.0
 10
64023.69831185432
 20
-10301.10697339627
 30
0.0
 10
64022.18355124873
 20
-10300.76269544076
 30
0.0
 10
64020.85017109472
 20
-10300.12137108696
 30
0.0
  0
SPLINE
  5
E8
330
2
100
AcDbEntity
  8
0
  6
Continuous
 62
     7
100
AcDbSpline
210
0.0
220
0.0
230
1.0
 70
     8
 71
     3
 72
     8
 73
     4
 74
     0
 42
0.0000000001
 43
0.0000000001
 40
0.0
 40
0.0
 40
0.0
 40
0.0
 40
1.0
 40
1.0
 40
1.0
 40
1.0
 10
63682.23716906102
 20
-10300.33948360966
 30
0.0
 10
63681.03189667182
 20
-10300.84184062366
 30
0.0
 10
63679.70173673032
 20
-10301.10765796917
 30
0.0
 10
63678.39596338922
 20
-10301.10794694796
 30
0.0
  0
SPLINE
  5
E9
330
2
100
AcDbEntity
  8
0
  6
Continuous
 62
     7
100
AcDbSpline
210
0.0
220
0.0
230
1.0
 70
     8
 71
     3
 72
     9
 73
     5
 74
     0
 42
0.0000000001
 43
0.0000000001
 40
0.0
 40
0.0
 40
0.0
 40
0.0
 40
0.2869724161
 40
1.0
 40
1.0
 40
1.0
 40
1.0
 10
64019.57731116882
 20
-10301.12941813076
 30
0.0
 10
64020.11305487603
 20
-10301.12942299856
 30
0.0
 10
64021.97992972462
 20
-10301.12802926406
 30
0.0
 10
64023.84685154232
 20
-10301.12296676736
 30
0.0
 10
64025.17790571362
 20
-10301.10798050736
 30
0.0
  0
SPLINE
  5
EA
330
2
100
AcDbEntity
  8
0
  6
Continuous
 62
     7
100
AcDbSpline
210
0.0
220
0.0
230
1.0
 70
     8
 71
     3
 72
     9
 73
     5
 74
     0
 42
0.0000000001
 43
0.0000000001
 40
0.0
 40
0.0
 40
0.0
 40
0.0
 40
0.2169495744
 40
1.0
 40
1.0
 40
1.0
 40
1.0
 10
63678.39596344462
 20
-10301.10798095737
 30
0.0
 10
63678.80094135112
 20
-10301.11335095136
 30
0.0
 10
63680.66778157772
 20
-10301.12497827517
 30
0.0
 10
63682.53463147421
 20
-10301.12939427106
 30
0.0
 10
63683.99647347372
 20
-10301.12941813076
 30
0.0
  0
SPLINE
  5
EB
330
2
100
AcDbEntity
  8
0
  6
Continuous
 62
     7
100
AcDbSpline
210
0.0
220
0.0
230
1.0
 70
     8
 71
     3
 72
     8
 73
     4
 74
     0
 42
0.0000000001
 43
0.0000000001
 40
0.0
 40
0.0
 40
0.0
 40
0.0
 40
1.0
 40
1.0
 40
1.0
 40
1.0
 10
64034.51053099412
 20
-10221.12661004396
 30
0.0
 10
64034.83017896221
 20
-10221.12645097756
 30
0.0
 10
64035.14982289832
 20
-10221.12943521266
 30
0.0
 10
64035.46947090553
 20
-10221.12941813076
 30
0.0
  0
SPLINE
  5
EC
330
2
100
AcDbEntity
  8
0
  6
Continuous
 62
     7
100
AcDbSpline
210
0.0
220
0.0
230
1.0
 70
     8
 71
     3
 72
     8
 73
     4
 74
     0
 42
0.0000000001
 43
0.0000000001
 40
0.0
 40
0.0
 40
0.0
 40
0.0
 40
1.0
 40
1.0
 40
1.0
 40
1.0
 10
63687.19237070212
 20
-10221.12659516936
 30
0.0
 10
63686.92317250792
 20
-10221.12659463007
 30
0.0
 10
63686.65397755463
 20
-10221.12847092597
 30
0.0
 10
63686.38478052353
 20
-10221.12926225186
 30
0.0
  0
SPLINE
  5
ED
330
2
100
AcDbEntity
  8
0
  6
Continuous
 62
     7
100
AcDbSpline
210
0.0
220
0.0
230
1.0
 70
     8
 71
     3
 72
     9
 73
     5
 74
     0
 42
0.0000000001
 43
0.0000000001
 40
0.0
 40
0.0
 40
0.0
 40
0.0
 40
0.5436101165000001
 40
1.0
 40
1.0
 40
1.0
 40
1.0
 10
64017.05622898573
 20
-10299.30236677836
 30
0.0
 10
64017.33268836562
 20
-10299.81843966906
 30
0.0
 10
64018.00218174682
 20
-10300.71297614616
 30
0.0
 10
64019.08578777762
 20
-10301.12941860537
 30
0.0
 10
64019.57731116882
 20
-10301.12941848476
 30
0.0
  0
SPLINE
  5
EE
330
2
100
AcDbEntity
  8
0
  6
Continuous
 62
     7
100
AcDbSpline
210
0.0
220
0.0
230
1.0
 70
     8
 71
     3
 72
     9
 73
     5
 74
     0
 42
0.0000000001
 43
0.0000000001
 40
0.0
 40
0.0
 40
0.0
 40
0.0
 40
0.2599548173
 40
1.0
 40
1.0
 40
1.0
 40
1.0
 10
63825.25711298682
 20
-10333.10842055936
 30
0.0
 10
63824.93215478092
 20
-10333.10786306677
 30
0.0
 10
63823.68209850902
 20
-10333.10560937356
 30
0.0
 10
63822.43204294992
 20
-10333.10284636127
 30
0.0
 10
63821.50694718952
 20
-10333.10016595496
 30
0.0
  0
SPLINE
  5
EF
330
2
100
AcDbEntity
  8
0
  6
Continuous
 62
     7
100
AcDbSpline
210
0.0
220
0.0
230
1.0
 70
     8
 71
     3
 72
    11
 73
     7
 74
     0
 42
0.0000000001
 43
0.0000000001
 40
0.0
 40
0.0
 40
0.0
 40
0.0
 40
0.2414526741
 40
0.4877694510000001
 40
0.7411357984999999
 40
1.0
 40
1.0
 40
1.0
 40
1.0
 10
63639.20886648882
 20
-10263.14384751826
 30
0.0
 10
63639.30873602223
 20
-10264.28529803427
 30
0.0
 10
63639.99070669322
 20
-10266.57466025336
 30
0.0
 10
63642.27833073073
 20
-10269.35702422946
 30
0.0
 10
63645.48446393232
 20
-10271.15657393746
 30
0.0
 10
63647.94236728553
 20
-10271.54666423496
 30
0.0
 10
63649.17070914472
 20
-10271.53134536926
 30
0.0
  0
SPLINE
  5
F0
330
2
100
AcDbEntity
  8
0
  6
Continuous
 62
     7
100
AcDbSpline
210
0.0
220
0.0
230
1.0
 70
     8
 71
     3
 72
    11
 73
     7
 74
     0
 42
0.0000000001
 43
0.0000000001
 40
0.0
 40
0.0
 40
0.0
 40
0.0
 40
0.3110430551
 40
0.5943181917000001
 40
0.8293737931
 40
1.0
 40
1.0
 40
1.0
 40
1.0
 10
63678.57746098373
 20
-10255.84056227196
 30
0.0
 10
63679.03999095663
 20
-10256.57162326937
 30
0.0
 10
63679.89997462832
 20
-10257.98321675386
 30
0.0
 10
63681.13489971782
 20
-10259.93221286536
 30
0.0
 10
63682.19546579962
 20
-10261.52687153156
 30
0.0
 10
63682.82417264683
 20
-10262.46624155326
 30
0.0
 10
63683.12183326072
 20
-10262.83583810266
 30
0.0
  0
SPLINE
  5
F1
330
2
100
AcDbEntity
  8
0
  6
Continuous
 62
     7
100
AcDbSpline
210
0.0
220
0.0
230
1.0
 70
     8
 71
     3
 72
    11
 73
     7
 74
     0
 42
0.0000000001
 43
0.0000000001
 40
0.0
 40
0.0
 40
0.0
 40
0.0
 40
0.3110488387
 40
0.5943272846000001
 40
0.8293815031999999
 40
1.0
 40
1.0
 40
1.0
 40
1.0
 10
64024.99640887882
 20
-10255.84044444866
 30
0.0
 10
64024.53385033963
 20
-10256.57153899006
 30
0.0
 10
64023.67381843882
 20
-10257.98319425536
 30
0.0
 10
64022.43879867412
 20
-10259.93224340566
 30
0.0
 10
64021.37815659342
 20
-10261.52690448756
 30
0.0
 10
64020.74942490562
 20
-10262.46627234646
 30
0.0
 10
64020.45174891462
 20
-10262.83584836986
 30
0.0
  0
SPLINE
  5
F2
330
2
100
AcDbEntity
  8
0
  6
Continuous
 62
     7
100
AcDbSpline
210
0.0
220
0.0
230
1.0
 70
     8
 71
     3
 72
     9
 73
     5
 74
     0
 42
0.0000000001
 43
0.0000000001
 40
0.0
 40
0.0
 40
0.0
 40
0.0
 40
0.5139702717
 40
1.0
 40
1.0
 40
1.0
 40
1.0
 10
64008.54773118372
 20
-10296.84270477747
 30
0.0
 10
64010.03714831013
 20
-10297.13965751496
 30
0.0
 10
64012.91628144712
 20
-10297.83115894207
 30
0.0
 10
64015.70448809843
 20
-10298.81720797847
 30
0.0
 10
64017.05622944453
 20
-10299.30236620097
 30
0.0
  0
SPLINE
  5
F3
330
2
100
AcDbEntity
  8
0
  6
Continuous
 62
     7
100
AcDbSpline
210
0.0
220
0.0
230
1.0
 70
     8
 71
     3
 72
     9
 73
     5
 74
     0
 42
0.0000000001
 43
0.0000000001
 40
0.0
 40
0.0
 40
0.0
 40
0.0
 40
0.5019015605
 40
1.0
 40
1.0
 40
1.0
 40
1.0
 10
64017.05622944453
 20
-10299.30236620097
 30
0.0
 10
64018.36990001662
 20
-10299.77158760216
 30
0.0
 10
64020.99357273762
 20
-10300.69567017366
 30
0.0
 10
64023.77801564522
 20
-10301.11237776996
 30
0.0
 10
64025.16239333592
 20
-10301.10797000266
 30
0.0
  0
SPLINE
  5
F4
330
2
100
AcDbEntity
  8
0
  6
Continuous
 62
     7
100
AcDbSpline
210
0.0
220
0.0
230
1.0
 70
     8
 71
     3
 72
    12
 73
     8
 74
     0
 42
0.0000000001
 43
0.0000000001
 40
0.0
 40
0.0
 40
0.0
 40
0.0
 40
0.0328458507
 40
0.0938561957
 40
0.308845295
 40
0.625644467
 40
1.0
 40
1.0
 40
1.0
 40
1.0
 10
64015.32981755092
 20
-10292.82884257956
 30
0.0
 10
64015.31374414532
 20
-10292.74260623176
 30
0.0
 10
64015.07024770432
 20
-10292.57862908826
 30
0.0
 10
64014.28038512462
 20
-10292.43973964746
 30
0.0
 10
64012.66714217173
 20
-10292.42730957686
 30
0.0
 10
64010.26790371502
 20
-10292.64014607086
 30
0.0
 10
64008.43659815993
 20
-10292.90667772406
 30
0.0
 10
64007.45136345192
 20
-10293.07666976086
 30
0.0
  0
SPLINE
  5
F5
330
2
100
AcDbEntity
  8
0
  6
Continuous
 62
     7
100
AcDbSpline
210
0.0
220
0.0
230
1.0
 70
     8
 71
     3
 72
    10
 73
     6
 74
     0
 42
0.0000000001
 43
0.0000000001
 40
0.0
 40
0.0
 40
0.0
 40
0.0
 40
0.5091545213000001
 40
0.7583311886000001
 40
1.0
 40
1.0
 40
1.0
 40
1.0
 10
64012.33264625703
 20
-10261.12932212577
 30
0.0
 10
64013.74449909612
 20
-10261.12928341156
 30
0.0
 10
64015.84990604263
 20
-10261.46443920706
 30
0.0
 10
64018.50280123633
 20
-10262.26136104156
 30
0.0
 10
64019.80185995462
 20
-10262.67244084086
 30
0.0
 10
64020.45175587392
 20
-10262.83587997136
 30
0.0
  0
SPLINE
  5
F6
330
2
100
AcDbEntity
  8
0
  6
Continuous
 62
     7
100
AcDbSpline
210
0.0
220
0.0
230
1.0
 70
     8
 71
     3
 72
     9
 73
     5
 74
     0
 42
0.0000000001
 43
0.0000000001
 40
0.0
 40
0.0
 40
0.0
 40
0.0
 40
0.2555259283
 40
1.0
 40
1.0
 40
1.0
 40
1.0
 10
63821.50694716092
 20
-10333.10016595456
 30
0.0
 10
63821.37209176103
 20
-10333.09977507346
 30
0.0
 10
63820.84433571622
 20
-10333.09818230667
 30
0.0
 10
63820.31658047552
 20
-10333.09632854167
 30
0.0
 10
63819.92368082672
 20
-10333.09483754046
 30
0.0
  0
SPLINE
  5
F7
330
2
100
AcDbEntity
  8
0
  6
Continuous
 62
     7
100
AcDbSpline
210
0.0
220
0.0
230
1.0
 70
     8
 71
     3
 72
    11
 73
     7
 74
     0
 42
0.0000000001
 43
0.0000000001
 40
0.0
 40
0.0
 40
0.0
 40
0.0
 40
0.2414524563
 40
0.4877692016000001
 40
0.7411356789
 40
1.0
 40
1.0
 40
1.0
 40
1.0
 10
64064.36511106512
 20
-10263.14385664336
 30
0.0
 10
64064.26524157242
 20
-10264.28531468416
 30
0.0
 10
64063.58326484222
 20
-10266.57469322656
 30
0.0
 10
64061.29561489202
 20
-10269.35707154656
 30
0.0
 10
64058.08944408653
 20
-10271.15661567446
 30
0.0
 10
64055.63151544722
 20
-10271.54668301446
 30
0.0
 10
64054.40316408432
 20
-10271.53134765127
 30
0.0
  0
SPLINE
  5
F8
330
2
100
AcDbEntity
  8
0
  6
Continuous
 62
     7
100
AcDbSpline
210
0.0
220
0.0
230
1.0
 70
     8
 71
     3
 72
    10
 73
     6
 74
     0
 42
0.0000000001
 43
0.0000000001
 40
0.0
 40
0.0
 40
0.0
 40
0.0
 40
0.2416678185
 40
0.4908377393000001
 40
1.0
 40
1.0
 40
1.0
 40
1.0
 10
63683.12186801392
 20
-10262.83588671377
 30
0.0
 10
63683.77198463142
 20
-10262.67331938917
 30
0.0
 10
63685.07070849372
 20
-10262.26095226146
 30
0.0
 10
63687.72383035682
 20
-10261.46484048986
 30
0.0
 10
63689.82917699702
 20
-10261.12934026347
 30
0.0
 10
63691.24106133492
 20
-10261.12941272536
 30
0.0
  0
SPLINE
  5
F9
330
2
100
AcDbEntity
  8
0
  6
Continuous
 62
     7
100
AcDbSpline
210
0.0
220
0.0
230
1.0
 70
     8
 71
     3
 72
     9
 73
     5
 74
     0
 42
0.0000000001
 43
0.0000000001
 40
0.0
 40
0.0
 40
0.0
 40
0.0
 40
0.2480020392
 40
1.0
 40
1.0
 40
1.0
 40
1.0
 10
64020.45174891462
 20
-10262.83584836986
 30
0.0
 10
64020.80358734182
 20
-10262.99333924447
 30
0.0
 10
64022.25616328952
 20
-10263.55060203766
 30
0.0
 10
64023.82755351882
 20
-10263.79118994936
 30
0.0
 10
64024.99640769952
 20
-10263.78843280976
 30
0.0
  0
SPLINE
  5
FA
330
2
100
AcDbEntity
  8
0
  6
Continuous
 62
     7
100
AcDbSpline
210
0.0
220
0.0
230
1.0
 70
     8
 71
     3
 72
     9
 73
     5
 74
     0
 42
0.0000000001
 43
0.0000000001
 40
0.0
 40
0.0
 40
0.0
 40
0.0
 40
0.3499259956
 40
1.0
 40
1.0
 40
1.0
 40
1.0
 10
64015.26758992962
 20
-10267.74242408466
 30
0.0
 10
64015.46074327112
 20
-10266.90330189127
 30
0.0
 10
64016.61815176572
 20
-10264.61804411217
 30
0.0
 10
64018.93223548283
 20
-10263.33559240906
 30
0.0
 10
64020.45181132122
 20
-10262.83584724017
 30
0.0
  0
SPLINE
  5
FB
330
2
100
AcDbEntity
  8
0
  6
Continuous
 62
     7
100
AcDbSpline
210
0.0
220
0.0
230
1.0
 70
     8
 71
     3
 72
     9
 73
     5
 74
     0
 42
0.0000000001
 43
0.0000000001
 40
0.0
 40
0.0
 40
0.0
 40
0.0
 40
0.2313019192
 40
1.0
 40
1.0
 40
1.0
 40
1.0
 10
64015.73638497892
 20
-10280.88495387296
 30
0.0
 10
64015.69304089473
 20
-10280.65504761216
 30
0.0
 10
64015.51718937603
 20
-10279.65892819236
 30
0.0
 10
64015.39182594772
 20
-10278.65400213896
 30
0.0
 10
64015.32152210252
 20
-10277.87966725346
 30
0.0
  0
SPLINE
  5
FC
330
2
100
AcDbEntity
  8
0
  6
Continuous
 62
     7
100
AcDbSpline
210
0.0
220
0.0
230
1.0
 70
     8
 71
     3
 72
     8
 73
     4
 74
     0
 42
0.0000000001
 43
0.0000000001
 40
0.0
 40
0.0
 40
0.0
 40
0.0
 40
1.0
 40
1.0
 40
1.0
 40
1.0
 10
63699.84529511842
 20
-10272.61788271626
 30
0.0
 10
63699.85208314072
 20
-10272.34372317507
 30
0.0
 10
63699.85869327722
 20
-10272.06955914867
 30
0.0
 10
63699.86509220162
 20
-10271.79539024986
 30
0.0
  0
SPLINE
  5
FD
330
2
100
AcDbEntity
  8
0
  6
Continuous
 62
     7
100
AcDbSpline
210
0.0
220
0.0
230
1.0
 70
     8
 71
     3
 72
    15
 73
    11
 74
     0
 42
0.0000000001
 43
0.0000000001
 40
0.0
 40
0.0
 40
0.0
 40
0.0
 40
0.0385668378
 40
0.0936904295
 40
0.1662667326
 40
0.2549069652
 40
0.3664118778
 40
0.518241001
 40
0.7254056109999999
 40
1.0
 40
1.0
 40
1.0
 40
1.0
 10
64016.69086839682
 20
-10290.98479584826
 30
0.0
 10
64016.80722412661
 20
-10290.91782718537
 30
0.0
 10
64017.01538764733
 20
-10290.64317117917
 30
0.0
 10
64017.19652341162
 20
-10290.09310357216
 30
0.0
 10
64017.31565577652
 20
-10289.34654784466
 30
0.0
 10
64017.38340410342
 20
-10288.39859120456
 30
0.0
 10
64017.30229480612
 20
-10287.17069216246
 30
0.0
 10
64016.93841435732
 20
-10285.56958407546
 30
0.0
 10
64016.31454775882
 20
-10283.45534132856
 30
0.0
 10
64015.91349857512
 20
-10281.82426702076
 30
0.0
 10
64015.73638497892
 20
-10280.88495387296
 30
0.0
  0
SPLINE
  5
FE
330
2
100
AcDbEntity
  8
0
  6
Continuous
 62
     7
100
AcDbSpline
210
0.0
220
0.0
230
1.0
 70
     8
 71
     3
 72
    10
 73
     6
 74
     0
 42
0.0000000001
 43
0.0000000001
 40
0.0
 40
0.0
 40
0.0
 40
0.0
 40
0.6991923639000001
 40
0.9023636414
 40
1.0
 40
1.0
 40
1.0
 40
1.0
 10
63819.92368043713
 20
-10333.09483753477
 30
0.0
 10
63817.46446695492
 20
-10333.08544311966
 30
0.0
 10
63814.29051681593
 20
-10333.07242151457
 30
0.0
 10
63810.77367284622
 20
-10333.03295234026
 30
0.0
 10
63809.71553664902
 20
-10333.02369850227
 30
0.0
 10
63809.37234745752
 20
-10333.01135567626
 30
0.0
  0
SPLINE
  5
FF
330
2
100
AcDbEntity
  8
0
  6
Continuous
 62
     7
100
AcDbSpline
210
0.0
220
0.0
230
1.0
 70
     8
 71
     3
 72
    14
 73
    10
 74
     0
 42
0.0000000001
 43
0.0000000001
 40
0.0
 40
0.0
 40
0.0
 40
0.0
 40
0.037166455
 40
0.0852557345
 40
0.2242439826
 40
0.3384425906000001
 40
0.5011358428000001
 40
0.7209990791
 40
1.0
 40
1.0
 40
1.0
 40
1.0
 10
63698.23308848602
 20
-10289.08643242346
 30
0.0
 10
63698.11805152043
 20
-10288.98438889596
 30
0.0
 10
63697.92079307923
 20
-10288.67926944636
 30
0.0
 10
63697.63744278092
 20
-10287.79399212506
 30
0.0
 10
63697.53988741303
 20
-10286.52770314966
 30
0.0
 10
63697.81016806363
 20
-10284.82466251986
 30
0.0
 10
63698.30398408983
 20
-10282.82898478376
 30
0.0
 10
63698.98638362243
 20
-10280.17833516627
 30
0.0
 10
63699.36162122002
 20
-10278.14507228796
 30
0.0
 10
63699.51647916032
 20
-10277.00115836446
 30
0.0
  0
SPLINE
  5
100
330
2
100
AcDbEntity
  8
0
  6
Continuous
 62
     7
100
AcDbSpline
210
0.0
220
0.0
230
1.0
 70
     8
 71
     3
 72
    10
 73
     6
 74
     0
 42
0.0000000001
 43
0.0000000001
 40
0.0
 40
0.0
 40
0.0
 40
0.0
 40
0.4993808488000001
 40
0.7496987034
 40
1.0
 40
1.0
 40
1.0
 40
1.0
 10
64012.33255240142
 20
-10252.00092753776
 30
0.0
 10
64014.55975449702
 20
-10252.00088185556
 30
0.0
 10
64017.92805180572
 20
-10252.53471633746
 30
0.0
 10
64022.08733478092
 20
-10254.17041675827
 30
0.0
 10
64024.04174958962
 20
-10255.26198943967
 30
0.0
 10
64024.99647466072
 20
-10255.84050706726
 30
0.0
  0
SPLINE
  5
101
330
2
100
AcDbEntity
  8
0
  6
Continuous
 62
     7
100
AcDbSpline
210
0.0
220
0.0
230
1.0
 70
     8
 71
     3
 72
    10
 73
     6
 74
     0
 42
0.0000000001
 43
0.0000000001
 40
0.0
 40
0.0
 40
0.0
 40
0.0
 40
0.2502986503
 40
0.5006171862
 40
1.0
 40
1.0
 40
1.0
 40
1.0
 10
63678.57753339352
 20
-10255.84055418456
 30
0.0
 10
63679.53227683562
 20
-10255.26212219697
 30
0.0
 10
63681.48657149682
 20
-10254.17042794767
 30
0.0
 10
63685.64583413802
 20
-10252.53483473337
 30
0.0
 10
63689.01406931112
 20
-10252.00091740116
 30
0.0
 10
63691.24124652252
 20
-10252.00097294856
 30
0.0
  0
SPLINE
  5
102
330
2
100
AcDbEntity
  8
0
  6
Continuous
 62
     7
100
AcDbSpline
210
0.0
220
0.0
230
1.0
 70
     8
 71
     3
 72
     9
 73
     5
 74
     0
 42
0.0000000001
 43
0.0000000001
 40
0.0
 40
0.0
 40
0.0
 40
0.0
 40
0.6674699141
 40
1.0
 40
1.0
 40
1.0
 40
1.0
 10
64015.58919017502
 20
-10289.70087267986
 30
0.0
 10
64015.70698695952
 20
-10290.02292041437
 30
0.0
 10
64015.92368195982
 20
-10290.48489168896
 30
0.0
 10
64016.25807561112
 20
-10290.90571202706
 30
0.0
 10
64016.40897317992
 20
-10290.98581038176
 30
0.0
  0
SPLINE
  5
103
330
2
100
AcDbEntity
  8
0
  6
Continuous
 62
     7
100
AcDbSpline
210
0.0
220
0.0
230
1.0
 70
     8
 71
     3
 72
     9
 73
     5
 74
     0
 42
0.0000000001
 43
0.0000000001
 40
0.0
 40
0.0
 40
0.0
 40
0.0
 40
0.5429226617000001
 40
1.0
 40
1.0
 40
1.0
 40
1.0
 10
64016.40897317992
 20
-10290.98581038176
 30
0.0
 10
64016.45584162323
 20
-10291.01068874946
 30
0.0
 10
64016.55548914082
 20
-10291.04252548777
 30
0.0
 10
64016.65212257272
 20
-10291.00702992196
 30
0.0
 10
64016.69086839682
 20
-10290.98479584826
 30
0.0
  0
LINE
  5
104
330
2
100
AcDbEntity
  8
0
  6
Continuous
 62
     7
100
AcDbLine
 10
64015.32152453352
 20
-10277.87966692367
 30
0.0
 11
64015.26760474532
 21
-10267.74242512656
 31
0.0
  0
SPLINE
  5
105
330
2
100
AcDbEntity
  8
0
  6
Continuous
 62
     7
100
AcDbSpline
210
0.0
220
0.0
230
1.0
 70
     8
 71
     3
 72
     8
 73
     4
 74
     0
 42
0.0000000001
 43
0.0000000001
 40
0.0
 40
0.0
 40
0.0
 40
0.0
 40
1.0
 40
1.0
 40
1.0
 40
1.0
 10
64015.32152453352
 20
-10277.87966692367
 30
0.0
 10
64015.29051500952
 20
-10277.61215086486
 30
0.0
 10
64015.25973597422
 20
-10277.34460797967
 30
0.0
 10
64015.22919682622
 20
-10277.07703781546
 30
0.0
  0
LINE
  5
106
330
2
100
AcDbEntity
  8
0
  6
Continuous
 62
     7
100
AcDbLine
 10
64015.32981741802
 20
-10292.82884182566
 30
0.0
 11
64015.32948045912
 21
-10289.50619318987
 31
0.0
  0
LINE
  5
107
330
2
100
AcDbEntity
  8
0
  6
Continuous
 62
     7
100
AcDbLine
 10
64015.32981741802
 20
-10292.82884182566
 30
0.0
 11
64014.83977344822
 21
-10290.04640889537
 31
0.0
  0
LINE
  5
108
330
2
100
AcDbEntity
  8
0
  6
Continuous
 62
     7
100
AcDbLine
 10
64014.83977344822
 20
-10290.04640889537
 30
0.0
 11
64014.76204447352
 21
-10289.60505749516
 31
0.0
  0
LINE
  5
109
330
2
100
AcDbEntity
  8
0
  6
Continuous
 62
     7
100
AcDbLine
 10
64014.76204447352
 20
-10289.60505749516
 30
0.0
 11
64014.65800704932
 21
-10289.01431941787
 31
0.0
  0
LINE
  5
10A
330
2
100
AcDbEntity
  8
0
  6
Continuous
 62
     7
100
AcDbLine
 10
64014.65800704932
 20
-10289.01431941787
 30
0.0
 11
64014.61817683992
 21
-10288.78815672196
 31
0.0
  0
SPLINE
  5
10B
330
2
100
AcDbEntity
  8
0
  6
Continuous
 62
     7
100
AcDbSpline
210
0.0
220
0.0
230
1.0
 70
     8
 71
     3
 72
     9
 73
     5
 74
     0
 42
0.0000000001
 43
0.0000000001
 40
0.0
 40
0.0
 40
0.0
 40
0.0
 40
0.3067638287999999
 40
1.0
 40
1.0
 40
1.0
 40
1.0
 10
64067.94366771062
 20
-10222.24076701776
 30
0.0
 10
64067.93892613772
 20
-10222.29498525307
 30
0.0
 10
64067.92061845372
 20
-10222.47116709236
 30
0.0
 10
64067.89499478152
 20
-10222.64854371367
 30
0.0
 10
64067.85658137152
 20
-10222.76538310727
 30
0.0
  0
SPLINE
  5
10C
330
2
100
AcDbEntity
  8
0
  6
Continuous
 62
     7
100
AcDbSpline
210
0.0
220
0.0
230
1.0
 70
     8
 71
     3
 72
     9
 73
     5
 74
     0
 42
0.0000000001
 43
0.0000000001
 40
0.0
 40
0.0
 40
0.0
 40
0.0
 40
0.3578871958
 40
1.0
 40
1.0
 40
1.0
 40
1.0
 10
64067.85658137152
 20
-10222.76538310727
 30
0.0
 10
64067.84802595852
 20
-10222.79140551126
 30
0.0
 10
64067.82405729682
 20
-10222.85969251427
 30
0.0
 10
64067.76191847993
 20
-10222.93865855866
 30
0.0
 10
64067.71283335142
 20
-10222.93618610786
 30
0.0
  0
SPLINE
  5
10D
330
2
100
AcDbEntity
  8
0
  6
Continuous
 62
     7
100
AcDbSpline
210
0.0
220
0.0
230
1.0
 70
     8
 71
     3
 72
    13
 73
     9
 74
     0
 42
0.0000000001
 43
0.0000000001
 40
0.0
 40
0.0
 40
0.0
 40
0.0
 40
0.0844926346
 40
0.2235820684
 40
0.3378813091
 40
0.5007216073
 40
0.7207702473000001
 40
1.0
 40
1.0
 40
1.0
 40
1.0
 10
64005.34087268602
 20
-10289.08635629577
 30
0.0
 10
64005.60212706262
 20
-10288.85452974936
 30
0.0
 10
64005.92419236282
 20
-10287.91727366886
 30
0.0
 10
64006.03413065161
 20
-10286.53497402536
 30
0.0
 10
64005.76355201812
 20
-10284.82184672036
 30
0.0
 10
64005.26981249982
 20
-10282.82999785467
 30
0.0
 10
64004.58751449073
 20
-10280.17773626697
 30
0.0
 10
64004.21219885432
 20
-10278.14503320636
 30
0.0
 10
64004.05738888602
 20
-10277.00116309066
 30
0.0
  0
SPLINE
  5
10E
330
2
100
AcDbEntity
  8
0
  6
Continuous
 62
     7
100
AcDbSpline
210
0.0
220
0.0
230
1.0
 70
     8
 71
     3
 72
    10
 73
     6
 74
     0
 42
0.0000000001
 43
0.0000000001
 40
0.0
 40
0.0
 40
0.0
 40
0.0
 40
0.163262699
 40
0.3371345646
 40
1.0
 40
1.0
 40
1.0
 40
1.0
 10
64025.17790571362
 20
-10301.10798050736
 30
0.0
 10
64025.17539270442
 20
-10299.07698582896
 30
0.0
 10
64025.17636432403
 20
-10294.88301579207
 30
0.0
 10
64025.18026710712
 20
-10282.44293859287
 30
0.0
 10
64025.07876429822
 20
-10272.03413402177
 30
0.0
 10
64024.99640821642
 20
-10263.78846574856
 30
0.0
  0
SPLINE
  5
10F
330
2
100
AcDbEntity
  8
0
  6
Continuous
 62
     7
100
AcDbSpline
210
0.0
220
0.0
230
1.0
 70
     8
 71
     3
 72
    13
 73
     9
 74
     0
 42
0.0000000001
 43
0.0000000001
 40
0.0
 40
0.0
 40
0.0
 40
0.0
 40
0.3516896286
 40
0.6393149299000001
 40
0.7533186187
 40
0.848819059
 40
0.9291501076999999
 40
1.0
 40
1.0
 40
1.0
 40
1.0
 10
64040.09919977802
 20
-10263.78843854736
 30
0.0
 10
64042.16495370582
 20
-10263.78887756066
 30
0.0
 10
64045.93676947972
 20
-10264.24613221566
 30
0.0
 10
64050.11232892433
 20
-10265.90692440886
 30
0.0
 10
64052.47951538513
 20
-10267.64132525466
 30
0.0
 10
64053.63742523902
 20
-10268.90857647197
 30
0.0
 10
64054.31977274182
 20
-10270.21036876976
 30
0.0
 10
64054.43735736492
 20
-10271.11664217576
 30
0.0
 10
64054.40316408432
 20
-10271.53139304856
 30
0.0
  0
LINE
  5
110
330
2
100
AcDbEntity
  8
0
  6
Continuous
 62
     7
100
AcDbLine
 10
64054.40316408432
 20
-10271.53139304856
 30
0.0
 11
64051.87849331722
 21
-10301.12941813076
 31
0.0
  0
LINE
  5
111
330
2
100
AcDbEntity
  8
0
  6
Continuous
 62
     7
100
AcDbLine
 10
63688.30623413722
 20
-10267.74243592107
 30
0.0
 11
63688.25234554493
 21
-10277.87969411287
 31
0.0
  0
SPLINE
  5
112
330
2
100
AcDbEntity
  8
0
  6
Continuous
 62
     7
100
AcDbSpline
210
0.0
220
0.0
230
1.0
 70
     8
 71
     3
 72
     8
 73
     4
 74
     0
 42
0.0000000001
 43
0.0000000001
 40
0.0
 40
0.0
 40
0.0
 40
0.0
 40
1.0
 40
1.0
 40
1.0
 40
1.0
 10
63688.25234554493
 20
-10277.87969411287
 30
0.0
 10
63688.28335607452
 20
-10277.61216898576
 30
0.0
 10
63688.31413622903
 20
-10277.34461704556
 30
0.0
 10
63688.34467640182
 20
-10277.07703781546
 30
0.0
  0
LINE
  5
113
330
2
100
AcDbEntity
  8
0
  6
Continuous
 62
     7
100
AcDbLine
 10
63688.95596478602
 20
-10288.78663275306
 30
0.0
 11
63688.91592337073
 21
-10289.01399471586
 31
0.0
  0
LINE
  5
114
330
2
100
AcDbEntity
  8
0
  6
Continuous
 62
     7
100
AcDbLine
 10
63688.91592337073
 20
-10289.01399471586
 30
0.0
 11
63688.81537856822
 21
-10289.58490133107
 31
0.0
  0
LINE
  5
115
330
2
100
AcDbEntity
  8
0
  6
Continuous
 62
     7
100
AcDbLine
 10
63688.81537856822
 20
-10289.58490133107
 30
0.0
 11
63688.72900963822
 21
-10290.07531105947
 31
0.0
  0
LINE
  5
116
330
2
100
AcDbEntity
  8
0
  6
Continuous
 62
     7
100
AcDbLine
 10
63688.72900963822
 20
-10290.07531105947
 30
0.0
 11
63688.24407189721
 21
-10292.82875053056
 31
0.0
  0
SPLINE
  5
117
330
2
100
AcDbEntity
  8
0
  6
Continuous
 62
     7
100
AcDbSpline
210
0.0
220
0.0
230
1.0
 70
     8
 71
     3
 72
     9
 73
     5
 74
     0
 42
0.0000000001
 43
0.0000000001
 40
0.0
 40
0.0
 40
0.0
 40
0.0
 40
0.2652410353
 40
1.0
 40
1.0
 40
1.0
 40
1.0
 10
63851.78693661222
 20
-10333.12966279956
 30
0.0
 10
63849.62511952203
 20
-10333.12966331966
 30
0.0
 10
63841.47473256592
 20
-10333.12786008957
 30
0.0
 10
63833.32434722412
 20
-10333.12017250426
 30
0.0
 10
63827.33578352702
 20
-10333.11153617276
 30
0.0
  0
SPLINE
  5
118
330
2
100
AcDbEntity
  8
0
  6
Continuous
 62
     7
100
AcDbSpline
210
0.0
220
0.0
230
1.0
 70
     8
 71
     3
 72
    16
 73
    12
 74
     0
 42
0.0000000001
 43
0.0000000001
 40
0.0
 40
0.0
 40
0.0
 40
0.0
 40
0.0438329371
 40
0.073175842
 40
0.1089215376
 40
0.2009711129
 40
0.3203896333
 40
0.4648955871
 40
0.6304044843
 40
0.8111889122
 40
1.0
 40
1.0
 40
1.0
 40
1.0
 10
63639.20876216292
 20
-10263.14385664346
 30
0.0
 10
63639.17535137172
 20
-10262.76129633516
 30
0.0
 10
63639.45664597422
 20
-10262.10995333237
 30
0.0
 10
63640.11352760662
 20
-10261.42606039546
 30
0.0
 10
63641.21149685932
 20
-10260.58242111346
 30
0.0
 10
63643.14634913432
 20
-10259.58579012806
 30
0.0
 10
63646.07354975873
 20
-10258.49846457906
 30
0.0
 10
63649.70952500022
 20
-10257.51419369026
 30
0.0
 10
63653.93389154852
 20
-10256.69517004256
 30
0.0
 10
63658.58793871372
 20
-10256.10672010496
 30
0.0
 10
63661.82152594202
 20
-10255.89834413396
 30
0.0
 10
63663.47467345002
 20
-10255.84055425666
 30
0.0
  0
SPLINE
  5
119
330
2
100
AcDbEntity
  8
0
  6
Continuous
 62
     7
100
AcDbSpline
210
0.0
220
0.0
230
1.0
 70
     8
 71
     3
 72
    10
 73
     6
 74
     0
 42
0.0000000001
 43
0.0000000001
 40
0.0
 40
0.0
 40
0.0
 40
0.0
 40
0.417531891
 40
0.6989453245
 40
1.0
 40
1.0
 40
1.0
 40
1.0
 10
63687.69842653642
 20
-10290.33963095216
 30
0.0
 10
63687.62877888442
 20
-10290.46675147476
 30
0.0
 10
63687.49645535892
 20
-10290.67451997907
 30
0.0
 10
63687.27808761972
 20
-10290.93384432726
 30
0.0
 10
63687.06721681642
 20
-10291.04398823526
 30
0.0
 10
63686.96568160242
 20
-10291.01921509336
 30
0.0
  0
SPLINE
  5
11A
330
2
100
AcDbEntity
  8
0
  6
Continuous
 62
     7
100
AcDbSpline
210
0.0
220
0.0
230
1.0
 70
     8
 71
     3
 72
     8
 73
     4
 74
     0
 42
0.0000000001
 43
0.0000000001
 40
0.0
 40
0.0
 40
0.0
 40
0.0
 40
1.0
 40
1.0
 40
1.0
 40
1.0
 10
63686.96568160242
 20
-10291.01921509336
 30
0.0
 10
63686.93665090042
 20
-10291.01213201677
 30
0.0
 10
63686.90884208422
 20
-10290.99960256826
 30
0.0
 10
63686.88295705152
 20
-10290.98467217266
 30
0.0
  0
LINE
  5
11B
330
2
100
AcDbEntity
  8
0
  6
Continuous
 62
     7
100
AcDbLine
 10
63651.69537991092
 20
-10301.12941813076
 30
0.0
 11
63649.17070914382
 21
-10271.53139304856
 31
0.0
  0
SPLINE
  5
11C
330
2
100
AcDbEntity
  8
0
  6
Continuous
 62
     7
100
AcDbSpline
210
0.0
220
0.0
230
1.0
 70
     8
 71
     3
 72
    13
 73
     9
 74
     0
 42
0.0000000001
 43
0.0000000001
 40
0.0
 40
0.0
 40
0.0
 40
0.0
 40
0.0708498991
 40
0.1511812399
 40
0.2466818674
 40
0.3606856172
 40
0.6483109909
 40
1.0
 40
1.0
 40
1.0
 40
1.0
 10
63649.17070914382
 20
-10271.53139304856
 30
0.0
 10
63649.13650970162
 20
-10271.11664256916
 30
0.0
 10
63649.25409204692
 20
-10270.21036428936
 30
0.0
 10
63649.93645357293
 20
-10268.90857588947
 30
0.0
 10
63651.09436519892
 20
-10267.64132275146
 30
0.0
 10
63653.46155423132
 20
-10265.90692265477
 30
0.0
 10
63657.63710629282
 20
-10264.24610129586
 30
0.0
 10
63661.40892280192
 20
-10263.78891207566
 30
0.0
 10
63663.47467345002
 20
-10263.78843854736
 30
0.0
  0
LINE
  5
11D
330
2
100
AcDbEntity
  8
0
  6
Continuous
 62
     7
100
AcDbLine
 10
63678.57746073893
 20
-10263.78844906226
 30
0.0
 11
63678.39596344462
 21
-10301.10798095737
 31
0.0
  0
SPLINE
  5
11E
330
2
100
AcDbEntity
  8
0
  6
Continuous
 62
     7
100
AcDbSpline
210
0.0
220
0.0
230
1.0
 70
     8
 71
     3
 72
    15
 73
    11
 74
     0
 42
0.0000000001
 43
0.0000000001
 40
0.0
 40
0.0
 40
0.0
 40
0.0
 40
0.0385488121
 40
0.0936808841
 40
0.1662542592
 40
0.2548916177
 40
0.3664054898
 40
0.5182317196000001
 40
0.72540374
 40
1.0
 40
1.0
 40
1.0
 40
1.0
 10
63686.88295705152
 20
-10290.98467217266
 30
0.0
 10
63686.76673095713
 20
-10290.91760672226
 30
0.0
 10
63686.55838477582
 20
-10290.64327458716
 30
0.0
 10
63686.37739747002
 20
-10290.09308233177
 30
0.0
 10
63686.25817932421
 20
-10289.34660051186
 30
0.0
 10
63686.19038664363
 20
-10288.39861720266
 30
0.0
 10
63686.27158570462
 20
-10287.17073102926
 30
0.0
 10
63686.63546301842
 20
-10285.56959339406
 30
0.0
 10
63687.25925421412
 20
-10283.45532636617
 30
0.0
 10
63687.66035727992
 20
-10281.82424985357
 30
0.0
 10
63687.83748564982
 20
-10280.88494188616
 30
0.0
  0
SPLINE
  5
11F
330
2
100
AcDbEntity
  8
0
  6
Continuous
 62
     7
100
AcDbSpline
210
0.0
220
0.0
230
1.0
 70
     8
 71
     3
 72
     8
 73
     4
 74
     0
 42
0.0000000001
 43
0.0000000001
 40
0.0
 40
0.0
 40
0.0
 40
0.0
 40
1.0
 40
1.0
 40
1.0
 40
1.0
 10
64067.87275286442
 20
-10222.32300909547
 30
0.0
 10
64067.78825590683
 20
-10222.51661235247
 30
0.0
 10
64067.73292086152
 20
-10222.72590394656
 30
0.0
 10
64067.71264693672
 20
-10222.93616788766
 30
0.0
  0
SPLINE
  5
120
330
2
100
AcDbEntity
  8
0
  6
Continuous
 62
     7
100
AcDbSpline
210
0.0
220
0.0
230
1.0
 70
     8
 71
     3
 72
     8
 73
     4
 74
     0
 42
0.0000000001
 43
0.0000000001
 40
0.0
 40
0.0
 40
0.0
 40
0.0
 40
1.0
 40
1.0
 40
1.0
 40
1.0
 10
63635.65941745372
 20
-10222.23373928756
 30
0.0
 10
63635.76751046062
 20
-10222.45204831746
 30
0.0
 10
63635.83767899222
 20
-10222.69370490916
 30
0.0
 10
63635.86105123292
 20
-10222.93618515377
 30
0.0
  0
SPLINE
  5
121
330
2
100
AcDbEntity
  8
0
  6
Continuous
 62
     7
100
AcDbSpline
210
0.0
220
0.0
230
1.0
 70
     8
 71
     3
 72
     9
 73
     5
 74
     0
 42
0.0000000001
 43
0.0000000001
 40
0.0
 40
0.0
 40
0.0
 40
0.0
 40
0.2288605385
 40
1.0
 40
1.0
 40
1.0
 40
1.0
 10
63876.23808970212
 20
-10333.11153617276
 30
0.0
 10
63874.37278968582
 20
-10333.11422739656
 30
0.0
 10
63866.22241000582
 20
-10333.12515975137
 30
0.0
 10
63858.07202165552
 20
-10333.12966575076
 30
0.0
 10
63851.78693661222
 20
-10333.12966279956
 30
0.0
  0
LINE
  5
122
330
2
100
AcDbEntity
  8
0
  6
Continuous
 62
     7
100
AcDbLine
 10
63878.31676023662
 20
-10333.10842055946
 30
0.0
 11
63876.23813725382
 21
-10333.11168502956
 31
0.0
  0
SPLINE
  5
123
330
2
100
AcDbEntity
  8
0
  6
Continuous
 62
     7
100
AcDbSpline
210
0.0
220
0.0
230
1.0
 70
     8
 71
     3
 72
     9
 73
     5
 74
     0
 42
0.0000000001
 43
0.0000000001
 40
0.0
 40
0.0
 40
0.0
 40
0.0
 40
0.2313030093
 40
1.0
 40
1.0
 40
1.0
 40
1.0
 10
63687.83748564982
 20
-10280.88494188616
 30
0.0
 10
63687.88082301502
 20
-10280.65503632186
 30
0.0
 10
63688.05668835242
 20
-10279.65893298376
 30
0.0
 10
63688.18205273202
 20
-10278.65401929116
 30
0.0
 10
63688.25234816552
 20
-10277.87969486567
 30
0.0
  0
SPLINE
  5
124
330
2
100
AcDbEntity
  8
0
  6
Continuous
 62
     7
100
AcDbSpline
210
0.0
220
0.0
230
1.0
 70
     8
 71
     3
 72
     9
 73
     5
 74
     0
 42
0.0000000001
 43
0.0000000001
 40
0.0
 40
0.0
 40
0.0
 40
0.0
 40
0.3499393692
 40
1.0
 40
1.0
 40
1.0
 40
1.0
 10
63688.30626869712
 20
-10267.74245074147
 30
0.0
 10
63688.11304422802
 20
-10266.90328607346
 30
0.0
 10
63686.95568351892
 20
-10264.61828207466
 30
0.0
 10
63684.64198880512
 20
-10263.33398793136
 30
0.0
 10
63683.12187522882
 20
-10262.83584071436
 30
0.0
  0
SPLINE
  5
125
330
2
100
AcDbEntity
  8
0
  6
Continuous
 62
     7
100
AcDbSpline
210
0.0
220
0.0
230
1.0
 70
     8
 71
     3
 72
     9
 73
     5
 74
     0
 42
0.0000000001
 43
0.0000000001
 40
0.0
 40
0.0
 40
0.0
 40
0.0
 40
0.2398055296
 40
1.0
 40
1.0
 40
1.0
 40
1.0
 10
63882.06692603862
 20
-10333.10016595496
 30
0.0
 10
63881.76715639472
 20
-10333.10103451886
 30
0.0
 10
63880.51710244782
 20
-10333.10436297746
 30
0.0
 10
63879.26704628042
 20
-10333.10679026536
 30
0.0
 10
63878.31676024122
 20
-10333.10842055936
 30
0.0
  0
SPLINE
  5
126
330
2
100
AcDbEntity
  8
0
  6
Continuous
 62
     7
100
AcDbSpline
210
0.0
220
0.0
230
1.0
 70
     8
 71
     3
 72
     9
 73
     5
 74
     0
 42
0.0000000001
 43
0.0000000001
 40
0.0
 40
0.0
 40
0.0
 40
0.0
 40
0.2526437818
 40
1.0
 40
1.0
 40
1.0
 40
1.0
 10
63678.57746100752
 20
-10263.78845891646
 30
0.0
 10
63678.97010992582
 20
-10263.78938517426
 30
0.0
 10
63680.52326335813
 20
-10263.71299619786
 30
0.0
 10
63682.06166883033
 20
-10263.31035619316
 30
0.0
 10
63683.12183326072
 20
-10262.83583810266
 30
0.0
  0
SPLINE
  5
127
330
2
100
AcDbEntity
  8
0
  6
Continuous
 62
     7
100
AcDbSpline
210
0.0
220
0.0
230
1.0
 70
     8
 71
     3
 72
     9
 73
     5
 74
     0
 42
0.0000000001
 43
0.0000000001
 40
0.0
 40
0.0
 40
0.0
 40
0.0
 40
0.2444306399
 40
1.0
 40
1.0
 40
1.0
 40
1.0
 10
63883.65019240142
 20
-10333.09483754046
 30
0.0
 10
63883.52119299632
 20
-10333.09532707586
 30
0.0
 10
63882.99343818252
 20
-10333.09728425746
 30
0.0
 10
63882.46568250132
 20
-10333.09901015087
 30
0.0
 10
63882.06692606722
 20
-10333.10016595456
 30
0.0
  0
SPLINE
  5
128
330
2
100
AcDbEntity
  8
0
  6
Continuous
 62
     7
100
AcDbSpline
210
0.0
220
0.0
230
1.0
 70
     8
 71
     3
 72
     8
 73
     4
 74
     0
 42
0.0000000001
 43
0.0000000001
 40
0.0
 40
0.0
 40
0.0
 40
0.0
 40
1.0
 40
1.0
 40
1.0
 40
1.0
 10
64003.72857751742
 20
-10272.61785450996
 30
0.0
 10
64003.72178972042
 20
-10272.34370437007
 30
0.0
 10
64003.71517974762
 20
-10272.06954974676
 30
0.0
 10
64003.70878102652
 20
-10271.79539024986
 30
0.0
  0
SPLINE
  5
129
330
2
100
AcDbEntity
  8
0
  6
Continuous
 62
     7
100
AcDbSpline
210
0.0
220
0.0
230
1.0
 70
     8
 71
     3
 72
     9
 73
     5
 74
     0
 42
0.0000000001
 43
0.0000000001
 40
0.0
 40
0.0
 40
0.0
 40
0.0
 40
0.5682141616
 40
1.0
 40
1.0
 40
1.0
 40
1.0
 10
64003.57500339002
 20
-10264.10546355086
 30
0.0
 10
64003.83325645512
 20
-10263.53193430756
 30
0.0
 10
64004.35284434192
 20
-10262.55048100086
 30
0.0
 10
64005.12336670343
 20
-10261.71415080476
 30
0.0
 10
64005.52655108032
 20
-10261.45744424356
 30
0.0
  0
SPLINE
  5
12A
330
2
100
AcDbEntity
  8
0
  6
Continuous
 62
     7
100
AcDbSpline
210
0.0
220
0.0
230
1.0
 70
     8
 71
     3
 72
     9
 73
     5
 74
     0
 42
0.0000000001
 43
0.0000000001
 40
0.0
 40
0.0
 40
0.0
 40
0.0
 40
0.2660097093
 40
1.0
 40
1.0
 40
1.0
 40
1.0
 10
64005.52655108032
 20
-10261.45744424356
 30
0.0
 10
64005.60921878742
 20
-10261.40480990546
 30
0.0
 10
64005.93008005293
 20
-10261.22407987716
 30
0.0
 10
64006.30297611182
 20
-10261.12942144016
 30
0.0
 10
64006.57338826892
 20
-10261.12941802656
 30
0.0
  0
LINE
  5
12B
330
2
100
AcDbEntity
  8
0
  6
Continuous
 62
     7
100
AcDbLine
 10
64007.45136345192
 20
-10293.07666976086
 30
0.0
 11
64006.70625137742
 21
-10288.84592163366
 31
0.0
  0
LINE
  5
12C
330
2
100
AcDbEntity
  8
0
  6
Continuous
 62
     7
100
AcDbLine
 10
64006.70625137742
 20
-10288.84592163366
 30
0.0
 11
64006.59632274752
 21
-10288.22172088336
 31
0.0
  0
LINE
  5
12D
330
2
100
AcDbEntity
  8
0
  6
Continuous
 62
     7
100
AcDbLine
 10
63995.88179819332
 20
-10296.84223257506
 30
0.0
 11
63996.29037210182
 21
-10296.84276450596
 31
0.0
  0
SPLINE
  5
12E
330
2
100
AcDbEntity
  8
0
  6
Continuous
 62
     7
100
AcDbSpline
210
0.0
220
0.0
230
1.0
 70
     8
 71
     3
 72
    10
 73
     6
 74
     0
 42
0.0000000001
 43
0.0000000001
 40
0.0
 40
0.0
 40
0.0
 40
0.0
 40
0.0976361786
 40
0.3008069973
 40
1.0
 40
1.0
 40
1.0
 40
1.0
 10
63894.20152614972
 20
-10333.01135566967
 30
0.0
 10
63893.85833757962
 20
-10333.02369850197
 30
0.0
 10
63892.80020358982
 20
-10333.03295227977
 30
0.0
 10
63889.28335949572
 20
-10333.07242148987
 30
0.0
 10
63886.10940860872
 20
-10333.08544313797
 30
0.0
 10
63883.65019279133
 20
-10333.09483753477
 30
0.0
  0
SPLINE
  5
12F
330
2
100
AcDbEntity
  8
0
  6
Continuous
 62
     7
100
AcDbSpline
210
0.0
220
0.0
230
1.0
 70
     8
 71
     3
 72
     9
 73
     5
 74
     0
 42
0.0000000001
 43
0.0000000001
 40
0.0
 40
0.0
 40
0.0
 40
0.0
 40
0.568213179
 40
1.0
 40
1.0
 40
1.0
 40
1.0
 10
63699.99886680362
 20
-10264.10546458356
 30
0.0
 10
63699.74086710643
 20
-10263.53219086106
 30
0.0
 10
63699.22120474043
 20
-10262.55146400766
 30
0.0
 10
63698.45162772492
 20
-10261.71522928166
 30
0.0
 10
63698.04883881602
 20
-10261.45837507926
 30
0.0
  0
SPLINE
  5
130
330
2
100
AcDbEntity
  8
0
  6
Continuous
 62
     7
100
AcDbSpline
210
0.0
220
0.0
230
1.0
 70
     8
 71
     3
 72
     9
 73
     5
 74
     0
 42
0.0000000001
 43
0.0000000001
 40
0.0
 40
0.0
 40
0.0
 40
0.0
 40
0.2660329362
 40
1.0
 40
1.0
 40
1.0
 40
1.0
 10
63698.04883881602
 20
-10261.45837507926
 30
0.0
 10
63697.96607007772
 20
-10261.40559433526
 30
0.0
 10
63697.64481267102
 20
-10261.22438039896
 30
0.0
 10
63697.27132357112
 20
-10261.12942423967
 30
0.0
 10
63697.00049144903
 20
-10261.12941734486
 30
0.0
  0
LINE
  5
131
330
2
100
AcDbEntity
  8
0
  6
Continuous
 62
     7
100
AcDbLine
 10
63827.33573597392
 20
-10333.11168502956
 30
0.0
 11
63825.25711299152
 21
-10333.10842055946
 31
0.0
  0
SPLINE
  5
132
330
2
100
AcDbEntity
  8
0
  6
Continuous
 62
     7
100
AcDbSpline
210
0.0
220
0.0
230
1.0
 70
     8
 71
     3
 72
    18
 73
    14
 74
     0
 42
0.0000000001
 43
0.0000000001
 40
0.0
 40
0.0
 40
0.0
 40
0.0
 40
0.2019273277
 40
0.3928568045
 40
0.5657262238000001
 40
0.7152258751
 40
0.8367152049999999
 40
0.8857801575999999
 40
0.9264777526000001
 40
0.9584209726999999
 40
0.9814172465999998
 40
0.9953231178000001
 40
1.0
 40
1.0
 40
1.0
 40
1.0
 10
63996.29037209352
 20
-10296.84276614486
 30
0.0
 10
63996.28948176072
 20
-10297.13130319626
 30
0.0
 10
63996.28773183752
 20
-10297.69266675446
 30
0.0
 10
63996.28504172182
 20
-10298.50102224166
 30
0.0
 10
63996.28242693482
 20
-10299.23454029396
 30
0.0
 10
63996.27962645992
 20
-10299.86859705436
 30
0.0
 10
63996.27769224403
 20
-10300.32635116326
 30
0.0
 10
63996.27517927992
 20
-10300.62753168387
 30
0.0
 10
63996.27511841472
 20
-10300.80289192466
 30
0.0
 10
63996.27048787563
 20
-10300.93573157536
 30
0.0
 10
63996.27679860082
 20
-10301.04281451796
 30
0.0
 10
63996.26221445382
 20
-10301.08678826926
 30
0.0
 10
63996.27525414562
 20
-10301.12941813076
 30
0.0
 10
63996.26857124522
 20
-10301.12941813076
 30
0.0
  0
SPLINE
  5
133
330
2
100
AcDbEntity
  8
0
  6
Continuous
 62
     7
100
AcDbSpline
210
0.0
220
0.0
230
1.0
 70
     8
 71
     3
 72
    16
 73
    12
 74
     0
 42
0.0000000001
 43
0.0000000001
 40
0.0
 40
0.0
 40
0.0
 40
0.0
 40
0.1888115561
 40
0.369596239
 40
0.5351049087
 40
0.6796108775000001
 40
0.7990295052
 40
0.8910788501999999
 40
0.9268242322999999
 40
0.9561670073
 40
1.0
 40
1.0
 40
1.0
 40
1.0
 10
64040.09919977802
 20
-10255.84055425666
 30
0.0
 10
64041.75235391122
 20
-10255.89825886116
 30
0.0
 10
64044.98593326462
 20
-10256.10688349487
 30
0.0
 10
64049.63999773082
 20
-10256.69514875396
 30
0.0
 10
64053.86437997742
 20
-10257.51412022047
 30
0.0
 10
64057.50033335702
 20
-10258.49846865136
 30
0.0
 10
64060.42751389232
 20
-10259.58583777986
 30
0.0
 10
64062.36236826493
 20
-10260.58244873786
 30
0.0
 10
64063.46034829122
 20
-10261.42606385036
 30
0.0
 10
64064.11723091842
 20
-10262.10995245456
 30
0.0
 10
64064.39852150982
 20
-10262.76129592306
 30
0.0
 10
64064.36511106522
 20
-10263.14385664346
 30
0.0
  0
SPLINE
  5
134
330
2
100
AcDbEntity
  8
0
  6
Continuous
 62
     7
100
AcDbSpline
210
0.0
220
0.0
230
1.0
 70
     8
 71
     3
 72
    13
 73
     9
 74
     0
 42
0.0000000001
 43
0.0000000001
 40
0.0
 40
0.0
 40
0.0
 40
0.0
 40
0.0374918148
 40
0.1066914032
 40
0.2053743062
 40
0.3303598057999999
 40
0.6418291395
 40
1.0
 40
1.0
 40
1.0
 40
1.0
 10
64067.71283335142
 20
-10222.93618610786
 30
0.0
 10
64067.40411050263
 20
-10222.92000826966
 30
0.0
 10
64066.52414152953
 20
-10222.90830108586
 30
0.0
 10
64064.83097391722
 20
-10222.89075764666
 30
0.0
 10
64062.41596930292
 20
-10222.88428741346
 30
0.0
 10
64058.00343195802
 20
-10222.88264415826
 30
0.0
 10
64051.45116468622
 20
-10222.90348205026
 30
0.0
 10
64045.92960496913
 20
-10222.93479419366
 30
0.0
 10
64042.97630363902
 20
-10222.95510664526
 30
0.0
  0
SPLINE
  5
135
330
2
100
AcDbEntity
  8
0
  6
Continuous
 62
     7
100
AcDbSpline
210
0.0
220
0.0
230
1.0
 70
     8
 71
     3
 72
     9
 73
     5
 74
     0
 42
0.0000000001
 43
0.0000000001
 40
0.0
 40
0.0
 40
0.0
 40
0.0
 40
0.2974702544
 40
1.0
 40
1.0
 40
1.0
 40
1.0
 10
63635.86104024822
 20
-10222.93618622706
 30
0.0
 10
63635.78689117383
 20
-10222.93994131326
 30
0.0
 10
63635.65055360512
 20
-10222.63326948966
 30
0.0
 10
63635.64623194232
 20
-10222.42173709267
 30
0.0
 10
63635.63076143952
 20
-10222.24708006806
 30
0.0
  0
SPLINE
  5
136
330
2
100
AcDbEntity
  8
0
  6
Continuous
 62
     7
100
AcDbSpline
210
0.0
220
0.0
230
1.0
 70
     8
 71
     3
 72
    13
 73
     9
 74
     0
 42
0.0000000001
 43
0.0000000001
 40
0.0
 40
0.0
 40
0.0
 40
0.0
 40
0.358170151
 40
0.6696397267
 40
0.7946252900000001
 40
0.8933084698
 40
0.9625078642
 40
1.0
 40
1.0
 40
1.0
 40
1.0
 10
63660.59756958912
 20
-10222.95510664526
 30
0.0
 10
63657.64427430192
 20
-10222.93477620866
 30
0.0
 10
63652.12271829932
 20
-10222.90350783376
 30
0.0
 10
63645.57045461243
 20
-10222.88264791197
 30
0.0
 10
63641.15791253752
 20
-10222.88430323826
 30
0.0
 10
63638.74290682252
 20
-10222.89077112336
 30
0.0
 10
63637.04973575082
 20
-10222.90830206876
 30
0.0
 10
63636.16976580562
 20
-10222.92000964246
 30
0.0
 10
63635.86104024822
 20
-10222.93618622706
 30
0.0
  0
LINE
  5
137
330
2
100
AcDbEntity
  8
0
  6
Continuous
 62
     7
100
AcDbLine
 10
64503.93430025675
 20
-10333.12966279956
 30
0.0
 11
64496.20977790195
 21
-10333.11153617276
 31
0.0
  0
SPLINE
  5
138
330
2
100
AcDbEntity
  8
06___PRT_ALL_SURFS
  6
Continuous
 62
     7
100
AcDbSpline
210
0.0
220
0.0
230
1.0
 70
     8
 71
     3
 72
     9
 73
     5
 74
     0
 42
0.0000000001
 43
0.0000000001
 40
0.0
 40
0.0
 40
0.0
 40
0.0
 40
0.4736821733000001
 40
1.0
 40
1.0
 40
1.0
 40
1.0
 10
64635.67497465855
 20
-10281.49225497257
 30
0.0
 10
64627.25614913416
 20
-10289.61894279247
 30
0.0
 10
64608.58525430615
 20
-10305.97505206606
 30
0.0
 10
64586.46512704085
 20
-10317.67174418346
 30
0.0
 10
64574.32227087055
 20
-10322.31829626387
 30
0.0
  0
SPLINE
  5
139
330
2
100
AcDbEntity
  8
0
  6
Continuous
 62
     7
100
AcDbSpline
210
0.0
220
0.0
230
1.0
 70
     8
 71
     3
 72
    10
 73
     6
 74
     0
 42
0.0000000001
 43
0.0000000001
 40
0.0
 40
0.0
 40
0.0
 40
0.0
 40
0.4866021579
 40
0.7486668529000001
 40
1.0
 40
1.0
 40
1.0
 40
1.0
 10
64574.32227087055
 20
-10322.31829626387
 30
0.0
 10
64563.47619191896
 20
-10326.46862712586
 30
0.0
 10
64546.00543350785
 20
-10331.07454462506
 30
0.0
 10
64522.18914237975
 20
-10333.00752397626
 30
0.0
 10
64509.93250328925
 20
-10333.12092011656
 30
0.0
 10
64503.93430025675
 20
-10333.12966279956
 30
0.0
  0
LINE
  5
13A
330
2
100
AcDbEntity
  8
0
  6
Continuous
 62
     7
100
AcDbLine
 10
64260.31883566135
 20
-10301.12744856056
 30
0.0
 11
64261.25142402636
 21
-10301.12528413716
 31
0.0
  0
SPLINE
  5
13B
330
2
100
AcDbEntity
  8
0
  6
Continuous
 62
     7
100
AcDbSpline
210
0.0
220
0.0
230
1.0
 70
     8
 71
     3
 72
     8
 73
     4
 74
     0
 42
0.0000000001
 43
0.0000000001
 40
0.0
 40
0.0
 40
0.0
 40
0.0
 40
1.0
 40
1.0
 40
1.0
 40
1.0
 10
64261.25142402636
 20
-10301.12528413716
 30
0.0
 10
64261.86160316425
 20
-10301.12361185256
 30
0.0
 10
64262.47163486135
 20
-10301.12143929176
 30
0.0
 10
64263.08152299215
 20
-10301.11877938477
 30
0.0
  0
LINE
  5
13C
330
2
100
AcDbEntity
  8
0
  6
Continuous
 62
     7
100
AcDbLine
 10
64267.61581097685
 20
-10301.09020043697
 30
0.0
 11
64267.24709530975
 21
-10301.09316918687
 31
0.0
  0
SPLINE
  5
13D
330
2
100
AcDbEntity
  8
0
  6
Continuous
 62
     7
100
AcDbSpline
210
0.0
220
0.0
230
1.0
 70
     8
 71
     3
 72
     8
 73
     4
 74
     0
 42
0.0000000001
 43
0.0000000001
 40
0.0
 40
0.0
 40
0.0
 40
0.0
 40
1.0
 40
1.0
 40
1.0
 40
1.0
 10
64267.24709530975
 20
-10301.09316918687
 30
0.0
 10
64266.54413448835
 20
-10301.09872251156
 30
0.0
 10
64265.84099429065
 20
-10301.10366625836
 30
0.0
 10
64265.13766876546
 20
-10301.10798056656
 30
0.0
  0
SPLINE
  5
13E
330
2
100
AcDbEntity
  8
0
  6
Continuous
 62
     7
100
AcDbSpline
210
0.0
220
0.0
230
1.0
 70
     8
 71
     3
 72
    12
 73
     8
 74
     0
 42
0.0000000001
 43
0.0000000001
 40
0.0
 40
0.0
 40
0.0
 40
0.0
 40
0.2378689030999999
 40
0.4873669331000001
 40
0.7601188666
 40
0.9263988835999999
 40
1.0
 40
1.0
 40
1.0
 40
1.0
 10
64258.25410552475
 20
-10301.12941813076
 30
0.0
 10
64291.12772340135
 20
-10301.12941813076
 30
0.0
 10
64357.56904384805
 20
-10298.03341736307
 30
0.0
 10
64462.23322642225
 20
-10296.51770162846
 30
0.0
 10
64556.30246579995
 20
-10290.49315493356
 30
0.0
 10
64626.62094407505
 20
-10285.32609089187
 30
0.0
 10
64658.28088762405
 20
-10275.37611987167
 30
0.0
 10
64667.70486952525
 20
-10271.53139304856
 30
0.0
  0
LINE
  5
13F
330
2
100
AcDbEntity
  8
0
  6
Continuous
 62
     7
100
AcDbLine
 10
64669.35915548705
 20
-10270.84707581866
 30
0.0
 11
64669.13401526365
 21
-10270.94132153197
 31
0.0
  0
LINE
  5
140
330
2
100
AcDbEntity
  8
0
  6
Continuous
 62
     7
100
AcDbLine
 10
64669.13401526365
 20
-10270.94132153197
 30
0.0
 11
64668.90239522345
 21
-10271.03791178356
 31
0.0
  0
SPLINE
  5
141
330
2
100
AcDbEntity
  8
0
  6
Continuous
 62
     7
100
AcDbSpline
210
0.0
220
0.0
230
1.0
 70
     8
 71
     3
 72
    13
 73
     9
 74
     0
 42
0.0000000001
 43
0.0000000001
 40
0.0
 40
0.0
 40
0.0
 40
0.0
 40
0.0253920294
 40
0.0838963848
 40
0.1765654933
 40
0.3001565497
 40
0.6215155416
 40
1.0
 40
1.0
 40
1.0
 40
1.0
 10
64246.25410552475
 20
-10222.78079515976
 30
0.0
 10
64246.25410552475
 20
-10222.79791355316
 30
0.0
 10
64246.32034482505
 20
-10222.82859719727
 30
0.0
 10
64246.42411010895
 20
-10222.85283820816
 30
0.0
 10
64246.61367378935
 20
-10222.88271685177
 30
0.0
 10
64246.97088316645
 20
-10222.91809683606
 30
0.0
 10
64247.52786455335
 20
-10222.94757977497
 30
0.0
 10
64247.99894490975
 20
-10222.95510667886
 30
0.0
 10
64248.25410552474
 20
-10222.95510667886
 30
0.0
  0
SPLINE
  5
142
330
2
100
AcDbEntity
  8
0
  6
Continuous
 62
     7
100
AcDbSpline
210
0.0
220
0.0
230
1.0
 70
     8
 71
     3
 72
    10
 73
     6
 74
     0
 42
0.0000000001
 43
0.0000000001
 40
0.0
 40
0.0
 40
0.0
 40
0.0
 40
0.387188412
 40
0.6741201757999999
 40
1.0
 40
1.0
 40
1.0
 40
1.0
 10
64441.22862072365
 20
-10332.96449062376
 30
0.0
 10
64441.91070694586
 20
-10333.03792017116
 30
0.0
 10
64442.79323427846
 20
-10334.20435546026
 30
0.0
 10
64443.28482372905
 20
-10335.84788914256
 30
0.0
 10
64443.42465836525
 20
-10336.94528423556
 30
0.0
 10
64443.44692611245
 20
-10337.52225438236
 30
0.0
  0
SPLINE
  5
143
330
2
100
AcDbEntity
  8
0
  6
Continuous
 62
     7
100
AcDbSpline
210
0.0
220
0.0
230
1.0
 70
     8
 71
     3
 72
    10
 73
     6
 74
     0
 42
0.0000000001
 43
0.0000000001
 40
0.0
 40
0.0
 40
0.0
 40
0.0
 40
0.3889456689
 40
0.6752613184000001
 40
1.0
 40
1.0
 40
1.0
 40
1.0
 10
64440.93059958885
 20
-10332.96352949037
 30
0.0
 10
64441.61843006445
 20
-10333.03552671476
 30
0.0
 10
64442.51552040985
 20
-10334.19750127166
 30
0.0
 10
64443.01811410156
 20
-10335.84652053206
 30
0.0
 10
64443.15588000515
 20
-10336.94436293816
 30
0.0
 10
64443.18151017506
 20
-10337.52121501716
 30
0.0
  0
SPLINE
  5
144
330
2
100
AcDbEntity
  8
0
  6
Continuous
 62
     7
100
AcDbSpline
210
0.0
220
0.0
230
1.0
 70
     8
 71
     3
 72
    14
 73
    10
 74
     0
 42
0.0000000001
 43
0.0000000001
 40
0.0
 40
0.0
 40
0.0
 40
0.0
 40
0.0262349671
 40
0.0867549688
 40
0.1798389564
 40
0.3023411797
 40
0.4505549307
 40
0.6199383963000001
 40
1.0
 40
1.0
 40
1.0
 40
1.0
 10
64440.93059958885
 20
-10332.96352949037
 30
0.0
 10
64440.91846938445
 20
-10333.00054184776
 30
0.0
 10
64440.92678282805
 20
-10333.13274930376
 30
0.0
 10
64440.91061242795
 20
-10333.39685483467
 30
0.0
 10
64440.90222954115
 20
-10333.80798981486
 30
0.0
 10
64440.88238993345
 20
-10334.34722480506
 30
0.0
 10
64440.86319074095
 20
-10335.00051719457
 30
0.0
 10
64440.83350234945
 20
-10336.03578255666
 30
0.0
 10
64440.81271757455
 20
-10336.85128325767
 30
0.0
 10
64440.79510338665
 20
-10337.41526186896
 30
0.0
  0
SPLINE
  5
145
330
2
100
AcDbEntity
  8
0
  6
Continuous
 62
     7
100
AcDbSpline
210
0.0
220
0.0
230
1.0
 70
     8
 71
     3
 72
    10
 73
     6
 74
     0
 42
0.0000000001
 43
0.0000000001
 40
0.0
 40
0.0
 40
0.0
 40
0.0
 40
0.5221501508
 40
0.7661793697000001
 40
1.0
 40
1.0
 40
1.0
 40
1.0
 10
64430.97010697665
 20
-10361.10323073617
 30
0.0
 10
64430.90568139375
 20
-10359.97508813886
 30
0.0
 10
64430.29222252575
 20
-10358.26475194437
 30
0.0
 10
64428.57867764535
 20
-10356.87163829156
 30
0.0
 10
64427.54858587135
 20
-10356.57883349166
 30
0.0
 10
64427.04350972245
 20
-10356.54811817726
 30
0.0
  0
SPLINE
  5
146
330
2
100
AcDbEntity
  8
0
  6
Continuous
 62
     7
100
AcDbSpline
210
0.0
220
0.0
230
1.0
 70
     8
 71
     3
 72
     9
 73
     5
 74
     0
 42
0.0000000001
 43
0.0000000001
 40
0.0
 40
0.0
 40
0.0
 40
0.0
 40
0.236409883
 40
1.0
 40
1.0
 40
1.0
 40
1.0
 10
64443.18151017506
 20
-10337.52121501716
 30
0.0
 10
64442.99379059155
 20
-10337.50699865386
 30
0.0
 10
64442.19921578476
 20
-10337.45399003666
 30
0.0
 10
64441.40307646085
 20
-10337.42551571356
 30
0.0
 10
64440.79510338665
 20
-10337.41526186896
 30
0.0
  0
SPLINE
  5
147
330
2
100
AcDbEntity
  8
0
  6
Continuous
 62
     7
100
AcDbSpline
210
0.0
220
0.0
230
1.0
 70
     8
 71
     3
 72
     9
 73
     5
 74
     0
 42
0.0000000001
 43
0.0000000001
 40
0.0
 40
0.0
 40
0.0
 40
0.0
 40
0.2354070937
 40
1.0
 40
1.0
 40
1.0
 40
1.0
 10
64443.08267884045
 20
-10348.54509825887
 30
0.0
 10
64442.88981328176
 20
-10348.53047596636
 30
0.0
 10
64442.06994732125
 20
-10348.47613372497
 30
0.0
 10
64441.24841434425
 20
-10348.44824911657
 30
0.0
 10
64440.62026285015
 20
-10348.43914555896
 30
0.0
  0
LINE
  5
148
330
2
100
AcDbEntity
  8
0
  6
Continuous
 62
     7
100
AcDbLine
 10
64496.20984211676
 20
-10333.11168502956
 30
0.0
 11
64494.65415495895
 21
-10333.10842055946
 31
0.0
  0
SPLINE
  5
149
330
2
100
AcDbEntity
  8
0
  6
Continuous
 62
     7
100
AcDbSpline
210
0.0
220
0.0
230
1.0
 70
     8
 71
     3
 72
     9
 73
     5
 74
     0
 42
0.0000000001
 43
0.0000000001
 40
0.0
 40
0.0
 40
0.0
 40
0.0
 40
0.2374523729
 40
1.0
 40
1.0
 40
1.0
 40
1.0
 10
64494.65415496445
 20
-10333.10842055936
 30
0.0
 10
64494.38707064885
 20
-10333.10784584376
 30
0.0
 10
64493.26227966174
 20
-10333.10537705506
 30
0.0
 10
64492.13748925185
 20
-10333.10261611916
 30
0.0
 10
64491.27978398196
 20
-10333.10016595496
 30
0.0
  0
SPLINE
  5
14A
330
2
100
AcDbEntity
  8
0
  6
Continuous
 62
     7
100
AcDbSpline
210
0.0
220
0.0
230
1.0
 70
     8
 71
     3
 72
     9
 73
     5
 74
     0
 42
0.0000000001
 43
0.0000000001
 40
0.0
 40
0.0
 40
0.0
 40
0.0
 40
0.2451453708
 40
1.0
 40
1.0
 40
1.0
 40
1.0
 10
64491.27978400905
 20
-10333.10016595456
 30
0.0
 10
64491.14109940725
 20
-10333.09976963166
 30
0.0
 10
64490.57537560925
 20
-10333.09810752897
 30
0.0
 10
64490.00965234765
 20
-10333.09626783476
 30
0.0
 10
64489.58261367405
 20
-10333.09483754046
 30
0.0
  0
SPLINE
  5
14B
330
2
100
AcDbEntity
  8
0
  6
Continuous
 62
     7
100
AcDbSpline
210
0.0
220
0.0
230
1.0
 70
     8
 71
     3
 72
    11
 73
     7
 74
     0
 42
0.0000000001
 43
0.0000000001
 40
0.0
 40
0.0
 40
0.0
 40
0.0
 40
0.0892376439
 40
0.2879571384
 40
0.5968593094
 40
1.0
 40
1.0
 40
1.0
 40
1.0
 10
64670.59130132885
 20
-10221.12938653537
 30
0.0
 10
64670.56375002645
 20
-10221.12937848336
 30
0.0
 10
64670.51213108995
 20
-10221.23043758846
 30
0.0
 10
64670.47324978755
 20
-10221.39249763986
 30
0.0
 10
64670.42710338315
 20
-10221.67949730117
 30
0.0
 10
64670.40736011845
 20
-10221.89571003686
 30
0.0
 10
64670.39777291765
 20
-10222.01980624086
 30
0.0
  0
SPLINE
  5
14C
330
2
100
AcDbEntity
  8
0
  6
Continuous
 62
     7
100
AcDbSpline
210
0.0
220
0.0
230
1.0
 70
     8
 71
     3
 72
     9
 73
     5
 74
     0
 42
0.0000000001
 43
0.0000000001
 40
0.0
 40
0.0
 40
0.0
 40
0.0
 40
0.2328359365
 40
1.0
 40
1.0
 40
1.0
 40
1.0
 10
64670.39777291765
 20
-10222.01980624086
 30
0.0
 10
64670.39228937226
 20
-10222.09078495396
 30
0.0
 10
64670.37205514865
 20
-10222.39588134826
 30
0.0
 10
64670.36242991465
 20
-10222.70163760366
 30
0.0
 10
64670.35978293285
 20
-10222.93618515377
 30
0.0
  0
SPLINE
  5
14D
330
2
100
AcDbEntity
  8
0
  6
Continuous
 62
     7
100
AcDbSpline
210
0.0
220
0.0
230
1.0
 70
     8
 71
     3
 72
     9
 73
     5
 74
     0
 42
0.0000000001
 43
0.0000000001
 40
0.0
 40
0.0
 40
0.0
 40
0.0
 40
0.2199699739
 40
1.0
 40
1.0
 40
1.0
 40
1.0
 10
64489.58261400895
 20
-10333.09483753477
 30
0.0
 10
64487.50365300165
 20
-10333.08782836847
 30
0.0
 10
64478.05255714936
 20
-10333.05138286847
 30
0.0
 10
64468.60143638215
 20
-10333.02015818186
 30
0.0
 10
64461.22925900645
 20
-10333.00471043386
 30
0.0
  0
SPLINE
  5
14E
330
2
100
AcDbEntity
  8
0
  6
Continuous
 62
     7
100
AcDbSpline
210
0.0
220
0.0
230
1.0
 70
     8
 71
     3
 72
     9
 73
     5
 74
     0
 42
0.0000000001
 43
0.0000000001
 40
0.0
 40
0.0
 40
0.0
 40
0.0
 40
0.2523072853
 40
1.0
 40
1.0
 40
1.0
 40
1.0
 10
64461.22925900655
 20
-10333.00471043427
 30
0.0
 10
64460.38067917925
 20
-10333.00293637256
 30
0.0
 10
64457.01739931555
 20
-10332.99622348766
 30
0.0
 10
64453.65411515025
 20
-10332.99196827536
 30
0.0
 10
64451.13941223356
 20
-10332.98889080356
 30
0.0
  0
SPLINE
  5
14F
330
2
100
AcDbEntity
  8
0
  6
Continuous
 62
     7
100
AcDbSpline
210
0.0
220
0.0
230
1.0
 70
     8
 71
     3
 72
    14
 73
    10
 74
     0
 42
0.0000000001
 43
0.0000000001
 40
0.0
 40
0.0
 40
0.0
 40
0.0
 40
0.1253301482
 40
0.250630812
 40
0.3758600177
 40
0.5009600457
 40
0.6259423245
 40
0.7508436708000001
 40
1.0
 40
1.0
 40
1.0
 40
1.0
 10
64435.95653844865
 20
-10337.23843088006
 30
0.0
 10
64432.73730426105
 20
-10337.08684729996
 30
0.0
 10
64426.30366241755
 20
-10336.64362976236
 30
0.0
 10
64416.73223298845
 20
-10335.16993461856
 30
0.0
 10
64407.43977760205
 20
-10332.38441726767
 30
0.0
 10
64398.77896896265
 20
-10327.99688026476
 30
0.0
 10
64391.12322642775
 20
-10322.03878513196
 30
0.0
 10
64382.51060905556
 20
-10312.45594398186
 30
0.0
 10
64377.73448944155
 20
-10303.96832821717
 30
0.0
 10
64375.09669979105
 20
-10298.12959585976
 30
0.0
  0
LINE
  5
150
330
2
100
AcDbEntity
  8
0
  6
Continuous
 62
     7
100
AcDbLine
 10
64425.56287464945
 20
-10360.72861305216
 30
0.0
 11
64430.97012769435
 21
-10361.10322860287
 31
0.0
  0
LINE
  5
151
330
2
100
AcDbEntity
  8
0
  6
Continuous
 62
     7
100
AcDbLine
 10
64451.13941223425
 20
-10332.98889080366
 30
0.0
 11
64449.79491883175
 21
-10332.98697713376
 31
0.0
  0
SPLINE
  5
152
330
2
100
AcDbEntity
  8
0
  6
Continuous
 62
     7
100
AcDbSpline
210
0.0
220
0.0
230
1.0
 70
     8
 71
     3
 72
    14
 73
    10
 74
     0
 42
0.0000000001
 43
0.0000000001
 40
0.0
 40
0.0
 40
0.0
 40
0.0
 40
0.1872757554
 40
0.2998450547
 40
0.4233935370000001
 40
0.5563260477
 40
0.6973822151000002
 40
0.8456916784999998
 40
1.0
 40
1.0
 40
1.0
 40
1.0
 10
64430.97012769435
 20
-10361.10322860287
 30
0.0
 10
64432.14316016335
 20
-10361.18546963006
 30
0.0
 10
64434.04509417115
 20
-10360.60647577416
 30
0.0
 10
64436.33740271045
 20
-10359.28189792777
 30
0.0
 10
64438.18185562165
 20
-10357.86097734836
 30
0.0
 10
64439.95386076085
 20
-10356.09451326086
 30
0.0
 10
64441.54655115475
 20
-10353.95948776036
 30
0.0
 10
64442.76007344205
 20
-10351.42372493317
 30
0.0
 10
64443.07201130506
 20
-10349.51394812196
 30
0.0
 10
64443.08267884065
 20
-10348.54509878656
 30
0.0
  0
SPLINE
  5
153
330
2
100
AcDbEntity
  8
0
  6
Continuous
 62
     7
100
AcDbSpline
210
0.0
220
0.0
230
1.0
 70
     8
 71
     3
 72
     8
 73
     4
 74
     0
 42
0.0000000001
 43
0.0000000001
 40
0.0
 40
0.0
 40
0.0
 40
0.0
 40
1.0
 40
1.0
 40
1.0
 40
1.0
 10
64670.35978421865
 20
-10222.93618622706
 30
0.0
 10
64669.38069343655
 20
-10222.94196275886
 30
0.0
 10
64668.37355959525
 20
-10222.69457114486
 30
0.0
 10
64667.50596926105
 20
-10222.24076596636
 30
0.0
  0
SPLINE
  5
154
330
2
100
AcDbEntity
  8
0
  6
Continuous
 62
     7
100
AcDbSpline
210
0.0
220
0.0
230
1.0
 70
     8
 71
     3
 72
    22
 73
    18
 74
     0
 42
0.0000000001
 43
0.0000000001
 40
0.0
 40
0.0
 40
0.0
 40
0.0
 40
0.001187047
 40
0.0046579674
 40
0.0104319971
 40
0.0185039509
 40
0.0288658924
 40
0.041507918
 40
0.0735205121
 40
0.1142654363
 40
0.1634455243
 40
0.2206549071
 40
0.2854155379
 40
0.4354349022
 40
0.6084454196
 40
0.7988271029
 40
1.0
 40
1.0
 40
1.0
 40
1.0
 10
64692.34834000205
 20
-10222.95510664526
 30
0.0
 10
64692.34901067795
 20
-10222.94643119096
 30
0.0
 10
64692.29507107615
 20
-10222.94978224756
 30
0.0
 10
64692.23802450035
 20
-10222.93541689396
 30
0.0
 10
64692.10034251145
 20
-10222.93375301666
 30
0.0
 10
64691.92780403895
 20
-10222.92549381436
 30
0.0
 10
64691.69822599435
 20
-10222.92040339916
 30
0.0
 10
64691.29590132285
 20
-10222.91203883886
 30
0.0
 10
64690.66937742435
 20
-10222.90400796266
 30
0.0
 10
64689.77582587555
 20
-10222.89612867077
 30
0.0
 10
64688.69722238635
 20
-10222.89019467396
 30
0.0
 10
64687.44268652455
 20
-10222.88605620147
 30
0.0
 10
64685.44892837895
 20
-10222.88300875806
 30
0.0
 10
64682.60633539535
 20
-10222.88484059997
 30
0.0
 10
64678.84291333986
 20
-10222.89448012736
 30
0.0
 10
64674.70454996835
 20
-10222.91151426726
 30
0.0
 10
64671.83440247976
 20
-10222.92719374996
 30
0.0
 10
64670.35978421865
 20
-10222.93618622706
 30
0.0
  0
SPLINE
  5
155
330
2
100
AcDbEntity
  8
0
  6
Continuous
 62
     7
100
AcDbSpline
210
0.0
220
0.0
230
1.0
 70
     8
 71
     3
 72
     9
 73
     5
 74
     0
 42
0.0000000001
 43
0.0000000001
 40
0.0
 40
0.0
 40
0.0
 40
0.0
 40
0.2580145862
 40
1.0
 40
1.0
 40
1.0
 40
1.0
 10
64449.79491883175
 20
-10332.98697713376
 30
0.0
 10
64449.05817390955
 20
-10332.98578765526
 30
0.0
 10
64446.20273618055
 20
-10332.98028663976
 30
0.0
 10
64443.34730666535
 20
-10332.97131856246
 30
0.0
 10
64441.22862078985
 20
-10332.96449052367
 30
0.0
  0
SPLINE
  5
156
330
2
100
AcDbEntity
  8
0
  6
Continuous
 62
     7
100
AcDbSpline
210
0.0
220
0.0
230
1.0
 70
     8
 71
     3
 72
    15
 73
    11
 74
     0
 42
0.0000000001
 43
0.0000000001
 40
0.0
 40
0.0
 40
0.0
 40
0.0
 40
0.215042468
 40
0.4569327929
 40
0.5858247439000001
 40
0.718987105
 40
0.7872102422000001
 40
0.8567039815999999
 40
0.9275711401
 40
1.0
 40
1.0
 40
1.0
 40
1.0
 10
64427.04350266925
 20
-10356.54823380096
 30
0.0
 10
64428.25955395495
 20
-10356.62250794456
 30
0.0
 10
64430.86759452455
 20
-10356.26274653977
 30
0.0
 10
64434.00521645066
 20
-10355.13777905966
 30
0.0
 10
64436.53681454335
 20
-10353.80847261226
 30
0.0
 10
64438.08173348175
 20
-10352.73705791576
 30
0.0
 10
64439.20268893895
 20
-10351.68424984747
 30
0.0
 10
64439.94578981425
 20
-10350.75786096606
 30
0.0
 10
64440.48934077105
 20
-10349.66772801586
 30
0.0
 10
64440.62297175885
 20
-10348.84948048996
 30
0.0
 10
64440.62026284905
 20
-10348.43914563396
 30
0.0
  0
SPLINE
  5
157
330
2
100
AcDbEntity
  8
02___PRT_ALL_AXES
  6
Continuous
 62
     7
100
AcDbSpline
210
0.0
220
0.0
230
1.0
 70
     8
 71
     3
 72
    14
 73
    10
 74
     0
 42
0.0000000001
 43
0.0000000001
 40
0.0
 40
0.0
 40
0.0
 40
0.0
 40
0.0342582242
 40
0.061127901
 40
0.0956984465
 40
0.1882510843
 40
0.3104033304
 40
0.626836751
 40
1.0
 40
1.0
 40
1.0
 40
1.0
 10
63840.28693661402
 20
-10660.57076103186
 30
0.0
 10
63840.28693661402
 20
-10660.43537978606
 30
0.0
 10
63840.47811834212
 20
-10660.22382418347
 30
0.0
 10
63840.79908970602
 20
-10660.04332827256
 30
0.0
 10
63841.36591828142
 20
-10659.80613850556
 30
0.0
 10
63842.31923326533
 20
-10659.55734994676
 30
0.0
 10
63844.38768200662
 20
-10659.18792539527
 30
0.0
 10
63847.58699406273
 20
-10658.90152244256
 30
0.0
 10
63850.31228744672
 20
-10658.82306567846
 30
0.0
 10
63851.78694956552
 20
-10658.82306371176
 30
0.0
  0
SPLINE
  5
159
330
2
100
AcDbEntity
  8
02___PRT_ALL_AXES
  6
Continuous
 62
     7
100
AcDbSpline
210
0.0
220
0.0
230
1.0
 70
     8
 71
     3
 72
    14
 73
    10
 74
     0
 42
0.0000000001
 43
0.0000000001
 40
0.0
 40
0.0
 40
0.0
 40
0.0
 40
0.3732561532
 40
0.6897030256000001
 40
0.8118428943999999
 40
0.9043552283
 40
0.9389166331
 40
0.9657663544
 40
1.0
 40
1.0
 40
1.0
 40
1.0
 10
63851.78694956552
 20
-10658.82306371176
 30
0.0
 10
63853.26197205603
 20
-10658.82306617916
 30
0.0
 10
63855.98767582172
 20
-10658.90155889626
 30
0.0
 10
63859.18733193692
 20
-10659.18804075137
 30
0.0
 10
63861.25561366812
 20
-10659.55756843847
 30
0.0
 10
63862.20862898333
 20
-10659.80642608926
 30
0.0
 10
63862.77523544833
 20
-10660.04347715976
 30
0.0
 10
63863.09586044712
 20
-10660.22413926736
 30
0.0
 10
63863.28693661402
 20
-10660.43547753626
 30
0.0
 10
63863.28693661402
 20
-10660.57076103186
 30
0.0
  0
SPLINE
  5
15A
330
2
100
AcDbEntity
  8
0
  6
Continuous
 62
     7
100
AcDbSpline
210
0.0
220
0.0
230
1.0
 70
     8
 71
     3
 72
     8
 73
     4
 74
     0
 42
0.0000000001
 43
0.0000000001
 40
0.0
 40
0.0
 40
0.0
 40
0.0
 40
1.0
 40
1.0
 40
1.0
 40
1.0
 10
63615.26791255632
 20
-10680.48425556217
 30
0.0
 10
63615.09513332752
 20
-10681.24406273726
 30
0.0
 10
63614.92969734293
 20
-10682.00556142866
 30
0.0
 10
63614.75124474662
 20
-10682.76405617236
 30
0.0
  0
SPLINE
  5
15B
330
2
100
AcDbEntity
  8
0
  6
Continuous
 62
     7
100
AcDbSpline
210
0.0
220
0.0
230
1.0
 70
     8
 71
     3
 72
     8
 73
     4
 74
     0
 42
0.0000000001
 43
0.0000000001
 40
0.0
 40
0.0
 40
0.0
 40
0.0
 40
1.0
 40
1.0
 40
1.0
 40
1.0
 10
63614.75124474662
 20
-10682.76405617236
 30
0.0
 10
63614.90596189472
 20
-10682.88916286336
 30
0.0
 10
63615.05643271082
 20
-10683.01989010076
 30
0.0
 10
63615.20006674912
 20
-10683.15757939986
 30
0.0
  0
SPLINE
  5
15C
330
2
100
AcDbEntity
  8
0
  6
Continuous
 62
     7
100
AcDbSpline
210
0.0
220
0.0
230
1.0
 70
     8
 71
     3
 72
     9
 73
     5
 74
     0
 42
0.0000000001
 43
0.0000000001
 40
0.0
 40
0.0
 40
0.0
 40
0.0
 40
0.2466537435
 40
1.0
 40
1.0
 40
1.0
 40
1.0
 10
63615.20006674912
 20
-10683.15757939986
 30
0.0
 10
63615.28360953292
 20
-10682.99366602156
 30
0.0
 10
63615.61416676273
 20
-10682.32496224666
 30
0.0
 10
63615.92618206461
 20
-10681.64738475317
 30
0.0
 10
63616.16981700333
 20
-10681.14103984966
 30
0.0
  0
SPLINE
  5
15D
330
2
100
AcDbEntity
  8
0
  6
Continuous
 62
     7
100
AcDbSpline
210
0.0
220
0.0
230
1.0
 70
     8
 71
     3
 72
     8
 73
     4
 74
     0
 42
0.0000000001
 43
0.0000000001
 40
0.0
 40
0.0
 40
0.0
 40
0.0
 40
1.0
 40
1.0
 40
1.0
 40
1.0
 10
63614.21228717342
 20
-10685.18289349956
 30
0.0
 10
63614.39213105302
 20
-10684.37663165916
 30
0.0
 10
63614.57216775672
 20
-10683.57041272846
 30
0.0
 10
63614.75159646812
 20
-10682.76405839336
 30
0.0
  0
LINE
  5
15E
330
2
100
AcDbEntity
  8
0
  6
Continuous
 62
     7
100
AcDbLine
 10
64089.29573783582
 20
-10558.93723523406
 30
0.0
 11
64089.30003902423
 21
-10682.76833056627
 31
0.0
  0
LINE
  5
15F
330
2
100
AcDbEntity
  8
0
  6
Continuous
 62
     7
100
AcDbLine
 10
64093.77645117662
 20
-10560.90939537616
 30
0.0
 11
64093.77977967612
 21
-10684.05083848666
 31
0.0
  0
SPLINE
  5
160
330
2
100
AcDbEntity
  8
0
  6
Continuous
 62
     7
100
AcDbSpline
210
0.0
220
0.0
230
1.0
 70
     8
 71
     3
 72
    11
 73
     7
 74
     0
 42
0.0000000001
 43
0.0000000001
 40
0.0
 40
0.0
 40
0.0
 40
0.0
 40
0.2501145222
 40
0.5004001630000001
 40
0.7504865734
 40
1.0
 40
1.0
 40
1.0
 40
1.0
 10
64077.18447489942
 20
-10546.84234074396
 30
0.0
 10
64078.78021906602
 20
-10546.74063111566
 30
0.0
 10
64082.05793805812
 20
-10547.24151814206
 30
0.0
 10
64086.19186403172
 20
-10549.93987979216
 30
0.0
 10
64088.87927778602
 20
-10554.07392183496
 30
0.0
 10
64089.38367833512
 20
-10557.34526658836
 30
0.0
 10
64089.28195084112
 20
-10558.93715899216
 30
0.0
  0
SPLINE
  5
161
330
2
100
AcDbEntity
  8
0
  6
Continuous
 62
     7
100
AcDbSpline
210
0.0
220
0.0
230
1.0
 70
     8
 71
     3
 72
    11
 73
     7
 74
     0
 42
0.0000000001
 43
0.0000000001
 40
0.0
 40
0.0
 40
0.0
 40
0.0
 40
0.2500640068
 40
0.5000796776
 40
0.7500800477
 40
1.0
 40
1.0
 40
1.0
 40
1.0
 10
64075.22744600282
 20
-10542.34872776407
 30
0.0
 10
64077.62479379732
 20
-10542.41774173626
 30
0.0
 10
64082.44232662872
 20
-10543.46902988386
 30
0.0
 10
64088.53751228672
 20
-10547.60211991887
 30
0.0
 10
64092.66779212592
 20
-10553.69744165616
 30
0.0
 10
64093.71798769072
 20
-10558.51343146546
 30
0.0
 10
64093.78676698312
 20
-10560.90940382216
 30
0.0
  0
SPLINE
  5
162
330
2
100
AcDbEntity
  8
0
  6
Continuous
 62
     7
100
AcDbSpline
210
0.0
220
0.0
230
1.0
 70
     8
 71
     3
 72
    11
 73
     7
 74
     0
 42
0.0000000001
 43
0.0000000001
 40
0.0
 40
0.0
 40
0.0
 40
0.0
 40
0.2500400556
 40
0.5002983112
 40
0.7504131536000001
 40
1.0
 40
1.0
 40
1.0
 40
1.0
 10
63614.29192238703
 20
-10558.93715899216
 30
0.0
 10
63614.19142398062
 20
-10557.34181494627
 30
0.0
 10
63614.69436929412
 20
-10554.06551998966
 30
0.0
 10
63617.39051341822
 20
-10549.93135511756
 30
0.0
 10
63621.52434937852
 20
-10547.24175198466
 30
0.0
 10
63624.79711349062
 20
-10546.73939888906
 30
0.0
 10
63626.38939832873
 20
-10546.84234074396
 30
0.0
  0
SPLINE
  5
163
330
2
100
AcDbEntity
  8
0
  6
Continuous
 62
     7
100
AcDbSpline
210
0.0
220
0.0
230
1.0
 70
     8
 71
     3
 72
    11
 73
     7
 74
     0
 42
0.0000000001
 43
0.0000000001
 40
0.0
 40
0.0
 40
0.0
 40
0.0
 40
0.2500606737
 40
0.5000768529000001
 40
0.7500764916
 40
1.0
 40
1.0
 40
1.0
 40
1.0
 10
63609.78710624492
 20
-10560.90940382216
 30
0.0
 10
63609.85529843162
 20
-10558.51206420966
 30
0.0
 10
63610.90569570092
 20
-10553.69416076326
 30
0.0
 10
63615.03918591893
 20
-10547.59906892386
 30
0.0
 10
63621.13491276582
 20
-10543.46958966716
 30
0.0
 10
63625.95044474972
 20
-10542.41834785826
 30
0.0
 10
63628.34642722522
 20
-10542.34872776407
 30
0.0
  0
LINE
  5
164
330
2
100
AcDbEntity
  8
0
  6
Continuous
 62
     7
100
AcDbLine
 10
63614.27676775772
 20
-10682.76830954426
 30
0.0
 11
63614.28106261022
 21
-10558.93721908896
 31
0.0
  0
LINE
  5
165
330
2
100
AcDbEntity
  8
0
  6
Continuous
 62
     7
100
AcDbLine
 10
63609.79550446412
 20
-10684.05083672076
 30
0.0
 11
63609.79883677972
 21
-10560.90939420367
 31
0.0
  0
SPLINE
  5
166
330
2
100
AcDbEntity
  8
0
  6
Continuous
 62
     7
100
AcDbSpline
210
0.0
220
0.0
230
1.0
 70
     8
 71
     3
 72
    11
 73
     7
 74
     0
 42
0.0000000001
 43
0.0000000001
 40
0.0
 40
0.0
 40
0.0
 40
0.0
 40
0.2501140487
 40
0.5001308436000001
 40
0.7500938934999999
 40
1.0
 40
1.0
 40
1.0
 40
1.0
 10
63646.45882186432
 20
-10652.13280837457
 30
0.0
 10
63643.57207298472
 20
-10652.38062383446
 30
0.0
 10
63637.83277488132
 20
-10653.52648421886
 30
0.0
 10
63629.86275917762
 20
-10657.18300980436
 30
0.0
 10
63622.99658437263
 20
-10662.64300731426
 30
0.0
 10
63619.45786412202
 20
-10667.31722610246
 30
0.0
 10
63618.01154880843
 20
-10669.82500416836
 30
0.0
  0
SPLINE
  5
167
330
2
100
AcDbEntity
  8
0
  6
Continuous
 62
     7
100
AcDbSpline
210
0.0
220
0.0
230
1.0
 70
     8
 71
     3
 72
     8
 73
     4
 74
     0
 42
0.0000000001
 43
0.0000000001
 40
0.0
 40
0.0
 40
0.0
 40
0.0
 40
1.0
 40
1.0
 40
1.0
 40
1.0
 10
63667.46148974563
 20
-10651.20103139147
 30
0.0
 10
63660.45371443382
 20
-10651.20294884106
 30
0.0
 10
63653.44094439683
 20
-10651.53373956516
 30
0.0
 10
63646.45882186432
 20
-10652.13280837457
 30
0.0
  0
SPLINE
  5
168
330
2
100
AcDbEntity
  8
0
  6
Continuous
 62
     7
100
AcDbSpline
210
0.0
220
0.0
230
1.0
 70
     8
 71
     3
 72
     8
 73
     4
 74
     0
 42
0.0000000001
 43
0.0000000001
 40
0.0
 40
0.0
 40
0.0
 40
0.0
 40
1.0
 40
1.0
 40
1.0
 40
1.0
 10
63851.78693661402
 20
-10651.17748055647
 30
0.0
 10
63790.34512048971
 20
-10651.17749947156
 30
0.0
 10
63728.90330357962
 20
-10651.18425523156
 30
0.0
 10
63667.46148974563
 20
-10651.20103139147
 30
0.0
  0
SPLINE
  5
169
330
2
100
AcDbEntity
  8
0
  6
Continuous
 62
     7
100
AcDbSpline
210
0.0
220
0.0
230
1.0
 70
     8
 71
     3
 72
     8
 73
     4
 74
     0
 42
0.0000000001
 43
0.0000000001
 40
0.0
 40
0.0
 40
0.0
 40
0.0
 40
1.0
 40
1.0
 40
1.0
 40
1.0
 10
64036.11238348252
 20
-10651.20103139147
 30
0.0
 10
63974.67056964842
 20
-10651.18425523156
 30
0.0
 10
63913.22875273842
 20
-10651.17749947156
 30
0.0
 10
63851.78693661402
 20
-10651.17748055647
 30
0.0
  0
SPLINE
  5
16A
330
2
100
AcDbEntity
  8
0
  6
Continuous
 62
     7
100
AcDbSpline
210
0.0
220
0.0
230
1.0
 70
     8
 71
     3
 72
     8
 73
     4
 74
     0
 42
0.0000000001
 43
0.0000000001
 40
0.0
 40
0.0
 40
0.0
 40
0.0
 40
1.0
 40
1.0
 40
1.0
 40
1.0
 10
64057.11505136382
 20
-10652.13280837457
 30
0.0
 10
64050.13292883962
 20
-10651.53373946836
 30
0.0
 10
64043.12015879482
 20
-10651.20294718606
 30
0.0
 10
64036.11238348252
 20
-10651.20103139147
 30
0.0
  0
SPLINE
  5
16B
330
2
100
AcDbEntity
  8
0
  6
Continuous
 62
     7
100
AcDbSpline
210
0.0
220
0.0
230
1.0
 70
     8
 71
     3
 72
    11
 73
     7
 74
     0
 42
0.0000000001
 43
0.0000000001
 40
0.0
 40
0.0
 40
0.0
 40
0.0
 40
0.2498389537
 40
0.4997924424000001
 40
0.7498529629
 40
1.0
 40
1.0
 40
1.0
 40
1.0
 10
64085.56231746472
 20
-10669.83284500756
 30
0.0
 10
64084.11653806322
 20
-10667.32504241737
 30
0.0
 10
64080.58385265571
 20
-10662.64607704237
 30
0.0
 10
64073.71549296982
 20
-10657.18564737077
 30
0.0
 10
64065.74394940792
 20
-10653.52749665926
 30
0.0
 10
64060.00271360213
 20
-10652.38067342066
 30
0.0
 10
64057.11505136382
 20
-10652.13280837457
 30
0.0
  0
LINE
  5
16C
330
2
100
AcDbEntity
  8
0
  6
Continuous
 62
     7
100
AcDbLine
 10
63851.78693661452
 20
-11006.33397617296
 30
0.0
 11
63654.93292171702
 21
-11006.32556405806
 31
0.0
  0
SPLINE
  5
16D
330
2
100
AcDbEntity
  8
0
  6
Continuous
 62
     7
100
AcDbSpline
210
0.0
220
0.0
230
1.0
 70
     8
 71
     3
 72
     8
 73
     4
 74
     0
 42
0.0000000001
 43
0.0000000001
 40
0.0
 40
0.0
 40
0.0
 40
0.0
 40
1.0
 40
1.0
 40
1.0
 40
1.0
 10
63654.93292116832
 20
-11006.33170006126
 30
0.0
 10
63648.19003207152
 20
-11006.33432899086
 30
0.0
 10
63641.44714220812
 20
-11006.33815719157
 30
0.0
 10
63634.70425774653
 20
-11006.34648904696
 30
0.0
  0
SPLINE
  5
16E
330
2
100
AcDbEntity
  8
0
  6
Continuous
 62
     7
100
AcDbSpline
210
0.0
220
0.0
230
1.0
 70
     8
 71
     3
 72
    11
 73
     7
 74
     0
 42
0.0000000001
 43
0.0000000001
 40
0.0
 40
0.0
 40
0.0
 40
0.0
 40
0.2499824359
 40
0.5000028456000001
 40
0.7500223634000001
 40
1.0
 40
1.0
 40
1.0
 40
1.0
 10
63634.70425774653
 20
-11006.34648904696
 30
0.0
 10
63631.42486283292
 20
-11006.47794502916
 30
0.0
 10
63624.72796423902
 20
-11005.40033390597
 30
0.0
 10
63616.24558743992
 20
-10999.86254450386
 30
0.0
 10
63610.72282954372
 20
-10991.37033527206
 30
0.0
 10
63609.65648824672
 20
-10984.67224843806
 30
0.0
 10
63609.79187327262
 20
-10981.39307644226
 30
0.0
  0
SPLINE
  5
16F
330
2
100
AcDbEntity
  8
0
  6
Continuous
 62
     7
100
AcDbSpline
210
0.0
220
0.0
230
1.0
 70
     8
 71
     3
 72
     8
 73
     4
 74
     0
 42
0.0000000001
 43
0.0000000001
 40
0.0
 40
0.0
 40
0.0
 40
0.0
 40
1.0
 40
1.0
 40
1.0
 40
1.0
 10
63609.79187327262
 20
-10981.39307644226
 30
0.0
 10
63609.79869288492
 20
-10975.34383234866
 30
0.0
 10
63609.80224257212
 20
-10969.29458459656
 30
0.0
 10
63609.80468633292
 20
-10963.24533715246
 30
0.0
  0
SPLINE
  5
170
330
2
100
AcDbEntity
  8
0
  6
Continuous
 62
     7
100
AcDbSpline
210
0.0
220
0.0
230
1.0
 70
     8
 71
     3
 72
     9
 73
     5
 74
     0
 42
0.0000000001
 43
0.0000000001
 40
0.0
 40
0.0
 40
0.0
 40
0.0
 40
0.2506328677
 40
1.0
 40
1.0
 40
1.0
 40
1.0
 10
63609.80753630152
 20
-10963.24533712186
 30
0.0
 10
63609.80661278912
 20
-10940.58340533657
 30
0.0
 10
63609.80352090462
 20
-10850.16457080676
 30
0.0
 10
63609.80369029032
 20
-10759.74573613787
 30
0.0
 10
63609.80628956112
 20
-10691.98883340666
 30
0.0
  0
SPLINE
  5
171
330
2
100
AcDbEntity
  8
0
  6
Continuous
 62
     7
100
AcDbSpline
210
0.0
220
0.0
230
1.0
 70
     8
 71
     3
 72
     9
 73
     5
 74
     0
 42
0.0000000001
 43
0.0000000001
 40
0.0
 40
0.0
 40
0.0
 40
0.0
 40
0.4949946797
 40
1.0
 40
1.0
 40
1.0
 40
1.0
 10
63616.16976592762
 20
-10681.14295170547
 30
0.0
 10
63616.94014920692
 20
-10679.55219023307
 30
0.0
 10
63618.54244749502
 20
-10676.35965480296
 30
0.0
 10
63620.31310325543
 20
-10673.25708494406
 30
0.0
 10
63621.23282175372
 20
-10671.70603160717
 30
0.0
  0
SPLINE
  5
172
330
2
100
AcDbEntity
  8
0
  6
Continuous
 62
     7
100
AcDbSpline
210
0.0
220
0.0
230
1.0
 70
     8
 71
     3
 72
    11
 73
     7
 74
     0
 42
0.0000000001
 43
0.0000000001
 40
0.0
 40
0.0
 40
0.0
 40
0.0
 40
0.2493489672
 40
0.4992971583
 40
0.7495932013
 40
1.0
 40
1.0
 40
1.0
 40
1.0
 10
63646.86922730232
 20
-10656.88846899536
 30
0.0
 10
63644.31360447852
 20
-10657.01905649756
 30
0.0
 10
63639.20343226673
 20
-10657.81755692236
 30
0.0
 10
63632.01178125262
 20
-10660.75181562526
 30
0.0
 10
63625.76283107152
 20
-10665.39981860446
 30
0.0
 10
63622.54353877202
 20
-10669.49561078637
 30
0.0
 10
63621.23282175372
 20
-10671.70603160717
 30
0.0
  0
SPLINE
  5
173
330
2
100
AcDbEntity
  8
0
  6
Continuous
 62
     7
100
AcDbSpline
210
0.0
220
0.0
230
1.0
 70
     8
 71
     3
 72
     8
 73
     4
 74
     0
 42
0.0000000001
 43
0.0000000001
 40
0.0
 40
0.0
 40
0.0
 40
0.0
 40
1.0
 40
1.0
 40
1.0
 40
1.0
 10
63667.46283882712
 20
-10656.10959018946
 30
0.0
 10
63660.59340451892
 20
-10656.09739547156
 30
0.0
 10
63653.72048112552
 20
-10656.38887168186
 30
0.0
 10
63646.86922730232
 20
-10656.88846899536
 30
0.0
  0
SPLINE
  5
174
330
2
100
AcDbEntity
  8
0
  6
Continuous
 62
     7
100
AcDbSpline
210
0.0
220
0.0
230
1.0
 70
     8
 71
     3
 72
     8
 73
     4
 74
     0
 42
0.0000000001
 43
0.0000000001
 40
0.0
 40
0.0
 40
0.0
 40
0.0
 40
1.0
 40
1.0
 40
1.0
 40
1.0
 10
63851.78693661402
 20
-10656.08699335897
 30
0.0
 10
63790.34557022342
 20
-10656.08701100096
 30
0.0
 10
63728.90420311022
 20
-10656.09349703496
 30
0.0
 10
63667.46283882712
 20
-10656.10959018946
 30
0.0
  0
SPLINE
  5
175
330
2
100
AcDbEntity
  8
02___PRT_ALL_AXES
  6
Continuous
 62
     7
100
AcDbSpline
210
0.0
220
0.0
230
1.0
 70
     8
 71
     3
 72
    14
 73
    10
 74
     0
 42
0.0000000001
 43
0.0000000001
 40
0.0
 40
0.0
 40
0.0
 40
0.0
 40
0.3729030514
 40
0.6891751576000001
 40
0.8113507208999999
 40
0.9040132527
 40
0.9386632232
 40
0.9656206978
 40
1.0
 40
1.0
 40
1.0
 40
1.0
 10
63851.78693199073
 20
-10662.37289509586
 30
0.0
 10
63850.31195406692
 20
-10662.37289698997
 30
0.0
 10
63847.58576106272
 20
-10662.28919638266
 30
0.0
 10
63844.38640269262
 20
-10661.98566648177
 30
0.0
 10
63842.31876683742
 20
-10661.60141038786
 30
0.0
 10
63841.36573526962
 20
-10661.34478270566
 30
0.0
 10
63840.79911413942
 20
-10661.10284790276
 30
0.0
 10
63840.47818116583
 20
-10660.91934153867
 30
0.0
 10
63840.28693661402
 20
-10660.70674466486
 30
0.0
 10
63840.28693661402
 20
-10660.57076103186
 30
0.0
  0
LINE
  5
176
330
2
100
AcDbEntity
  8
0
  6
Continuous
 62
     7
100
AcDbLine
 10
64048.64095151112
 20
-11006.32556405776
 30
0.0
 11
63851.78693661362
 21
-11006.33397617277
 31
0.0
  0
SPLINE
  5
177
330
2
100
AcDbEntity
  8
0
  6
Continuous
 62
     7
100
AcDbSpline
210
0.0
220
0.0
230
1.0
 70
     8
 71
     3
 72
     8
 73
     4
 74
     0
 42
0.0000000001
 43
0.0000000001
 40
0.0
 40
0.0
 40
0.0
 40
0.0
 40
1.0
 40
1.0
 40
1.0
 40
1.0
 10
64068.86961548162
 20
-11006.34648904696
 30
0.0
 10
64062.12673102002
 20
-11006.33815714496
 30
0.0
 10
64055.38384115662
 20
-11006.33432905556
 30
0.0
 10
64048.64095205982
 20
-11006.33170006126
 30
0.0
  0
SPLINE
  5
178
330
2
100
AcDbEntity
  8
0
  6
Continuous
 62
     7
100
AcDbSpline
210
0.0
220
0.0
230
1.0
 70
     8
 71
     3
 72
    11
 73
     7
 74
     0
 42
0.0000000001
 43
0.0000000001
 40
0.0
 40
0.0
 40
0.0
 40
0.0
 40
0.2499791629
 40
0.4999985275000001
 40
0.7500190866
 40
1.0
 40
1.0
 40
1.0
 40
1.0
 10
64093.78199995552
 20
-10981.39307644226
 30
0.0
 10
64093.91738276022
 20
-10984.67226858216
 30
0.0
 10
64092.85101652193
 20
-10991.37037178816
 30
0.0
 10
64087.32824255162
 20
-10999.86258970746
 30
0.0
 10
64078.84587176963
 20
-11005.40035967866
 30
0.0
 10
64072.14899033302
 20
-11006.47794640076
 30
0.0
 10
64068.86961548162
 20
-11006.34648904696
 30
0.0
  0
SPLINE
  5
179
330
2
100
AcDbEntity
  8
0
  6
Continuous
 62
     7
100
AcDbSpline
210
0.0
220
0.0
230
1.0
 70
     8
 71
     3
 72
     8
 73
     4
 74
     0
 42
0.0000000001
 43
0.0000000001
 40
0.0
 40
0.0
 40
0.0
 40
0.0
 40
1.0
 40
1.0
 40
1.0
 40
1.0
 10
64093.76918689522
 20
-10963.24533715246
 30
0.0
 10
64093.77163065532
 20
-10969.29458459656
 30
0.0
 10
64093.77518034542
 20
-10975.34383234866
 30
0.0
 10
64093.78199995552
 20
-10981.39307644226
 30
0.0
  0
SPLINE
  5
17A
330
2
100
AcDbEntity
  8
0
  6
Continuous
 62
     7
100
AcDbSpline
210
0.0
220
0.0
230
1.0
 70
     8
 71
     3
 72
     9
 73
     5
 74
     0
 42
0.0000000001
 43
0.0000000001
 40
0.0
 40
0.0
 40
0.0
 40
0.0
 40
0.248914341
 40
1.0
 40
1.0
 40
1.0
 40
1.0
 10
64093.76760717153
 20
-10691.98883340306
 30
0.0
 10
64093.76847054202
 20
-10714.49537800816
 30
0.0
 10
64093.77099313172
 20
-10804.91421257016
 30
0.0
 10
64093.76912793932
 20
-10895.33304721096
 30
0.0
 10
64093.76636045942
 20
-10963.24533712216
 30
0.0
  0
SPLINE
  5
17B
330
2
100
AcDbEntity
  8
0
  6
Continuous
 62
     7
100
AcDbSpline
210
0.0
220
0.0
230
1.0
 70
     8
 71
     3
 72
    11
 73
     7
 74
     0
 42
0.0000000001
 43
0.0000000001
 40
0.0
 40
0.0
 40
0.0
 40
0.0
 40
0.2503413314
 40
0.5006281065
 40
0.7506182637000001
 40
1.0
 40
1.0
 40
1.0
 40
1.0
 10
64082.32429491592
 20
-10671.67925081356
 30
0.0
 10
64081.01460711332
 20
-10669.47204381006
 30
0.0
 10
64077.79414169292
 20
-10665.38464915856
 30
0.0
 10
64071.54960089602
 20
-10660.74535800976
 30
0.0
 10
64064.36364105152
 20
-10657.81650622267
 30
0.0
 10
64059.25800152782
 20
-10657.01892446976
 30
0.0
 10
64056.70464592582
 20
-10656.88846899536
 30
0.0
  0
SPLINE
  5
17C
330
2
100
AcDbEntity
  8
0
  6
Continuous
 62
     7
100
AcDbSpline
210
0.0
220
0.0
230
1.0
 70
     8
 71
     3
 72
     8
 73
     4
 74
     0
 42
0.0000000001
 43
0.0000000001
 40
0.0
 40
0.0
 40
0.0
 40
0.0
 40
1.0
 40
1.0
 40
1.0
 40
1.0
 10
64056.70464592582
 20
-10656.88846899536
 30
0.0
 10
64049.85339211292
 20
-10656.38887154046
 30
0.0
 10
64042.98046870453
 20
-10656.09739285416
 30
0.0
 10
64036.11103440102
 20
-10656.10959018946
 30
0.0
  0
SPLINE
  5
17D
330
2
100
AcDbEntity
  8
0
  6
Continuous
 62
     7
100
AcDbSpline
210
0.0
220
0.0
230
1.0
 70
     8
 71
     3
 72
     8
 73
     4
 74
     0
 42
0.0000000001
 43
0.0000000001
 40
0.0
 40
0.0
 40
0.0
 40
0.0
 40
1.0
 40
1.0
 40
1.0
 40
1.0
 10
64036.11103440102
 20
-10656.10959018946
 30
0.0
 10
63974.66967011792
 20
-10656.09349703496
 30
0.0
 10
63913.22830300472
 20
-10656.08701100096
 30
0.0
 10
63851.78693661402
 20
-10656.08699335897
 30
0.0
  0
SPLINE
  5
17E
330
2
100
AcDbEntity
  8
02___PRT_ALL_AXES
  6
Continuous
 62
     7
100
AcDbSpline
210
0.0
220
0.0
230
1.0
 70
     8
 71
     3
 72
    14
 73
    10
 74
     0
 42
0.0000000001
 43
0.0000000001
 40
0.0
 40
0.0
 40
0.0
 40
0.0
 40
0.0343706209
 40
0.0613217299
 40
0.0959641863
 40
0.1886107602
 40
0.3107783249
 40
0.6270636519
 40
1.0
 40
1.0
 40
1.0
 40
1.0
 10
63863.28693661402
 20
-10660.57076103186
 30
0.0
 10
63863.28693661402
 20
-10660.70671044436
 30
0.0
 10
63863.09576139692
 20
-10660.91926195746
 30
0.0
 10
63862.77492605942
 20
-10661.10276973937
 30
0.0
 10
63862.20842451613
 20
-10661.34468401727
 30
0.0
 10
63861.25551966512
 20
-10661.60130776876
 30
0.0
 10
63859.18793514853
 20
-10661.98561843386
 30
0.0
 10
63855.98842187072
 20
-10662.28918812136
 30
0.0
 10
63853.26204289002
 20
-10662.37289717926
 30
0.0
 10
63851.78693199073
 20
-10662.37289509586
 30
0.0
  0
ARC
  5
17F
330
2
100
AcDbEntity
  8
0
  6
Continuous
 62
     7
100
AcDbCircle
 10
64086.91376376952
 20
-10924.63585244686
 30
0.0
 40
241.8793236101
100
AcDbArc
 50
89.4324260472946
 51
89.54791145520951
  0
ARC
  5
180
330
2
100
AcDbEntity
  8
0
  6
Continuous
 62
     7
100
AcDbCircle
 10
63903.82626485962
 20
-10722.28700307696
 30
0.0
 40
189.1567004170999
100
AcDbArc
 50
12.76750141663071
 51
16.1019135310117
  0
ARC
  5
181
330
2
100
AcDbEntity
  8
0
  6
Continuous
 62
     7
100
AcDbCircle
 10
63978.84328083592
 20
-10737.78758386236
 30
0.0
 40
122.3991390058
100
AcDbArc
 50
25.45359318888613
 51
26.50829629177997
  0
ARC
  5
182
330
2
100
AcDbEntity
  8
0
  6
Continuous
 62
     7
100
AcDbCircle
 10
64166.81646388132
 20
-10682.31350001326
 30
0.0
 40
77.5080094108
100
AcDbArc
 50
180.3362723165832
 51
182.121609292613
  0
SPLINE
  5
183
330
2
100
AcDbEntity
  8
0
  6
Continuous
 62
     7
100
AcDbSpline
210
0.0
220
0.0
230
1.0
 70
     8
 71
     3
 72
     8
 73
     4
 74
     0
 42
0.0000000001
 43
0.0000000001
 40
0.0
 40
0.0
 40
0.0
 40
0.0
 40
1.0
 40
1.0
 40
1.0
 40
1.0
 10
64088.30596063902
 20
-10680.48425556217
 30
0.0
 10
64088.47873986782
 20
-10681.24406273726
 30
0.0
 10
64088.64417585242
 20
-10682.00556142866
 30
0.0
 10
64088.82262844873
 20
-10682.76405617236
 30
0.0
  0
SPLINE
  5
184
330
2
100
AcDbEntity
  8
0
  6
Continuous
 62
     7
100
AcDbSpline
210
0.0
220
0.0
230
1.0
 70
     8
 71
     3
 72
     8
 73
     4
 74
     0
 42
0.0000000001
 43
0.0000000001
 40
0.0
 40
0.0
 40
0.0
 40
0.0
 40
1.0
 40
1.0
 40
1.0
 40
1.0
 10
64088.82262844873
 20
-10682.76405617236
 30
0.0
 10
64088.66791130062
 20
-10682.88916286336
 30
0.0
 10
64088.51744048452
 20
-10683.01989010076
 30
0.0
 10
64088.37380644622
 20
-10683.15757939986
 30
0.0
  0
SPLINE
  5
185
330
2
100
AcDbEntity
  8
0
  6
Continuous
 62
     7
100
AcDbSpline
210
0.0
220
0.0
230
1.0
 70
     8
 71
     3
 72
     9
 73
     5
 74
     0
 42
0.0000000001
 43
0.0000000001
 40
0.0
 40
0.0
 40
0.0
 40
0.0
 40
0.2466537435
 40
1.0
 40
1.0
 40
1.0
 40
1.0
 10
64088.37380644622
 20
-10683.15757939986
 30
0.0
 10
64088.29026366242
 20
-10682.99366602156
 30
0.0
 10
64087.95970643262
 20
-10682.32496224666
 30
0.0
 10
64087.64769113072
 20
-10681.64738475317
 30
0.0
 10
64087.40405619202
 20
-10681.14103984966
 30
0.0
  0
SPLINE
  5
186
330
2
100
AcDbEntity
  8
0
  6
Continuous
 62
     7
100
AcDbSpline
210
0.0
220
0.0
230
1.0
 70
     8
 71
     3
 72
     8
 73
     4
 74
     0
 42
0.0000000001
 43
0.0000000001
 40
0.0
 40
0.0
 40
0.0
 40
0.0
 40
1.0
 40
1.0
 40
1.0
 40
1.0
 10
64089.36158602192
 20
-10685.18289349956
 30
0.0
 10
64089.18174214233
 20
-10684.37663165916
 30
0.0
 10
64089.00170543862
 20
-10683.57041272846
 30
0.0
 10
64088.82227672722
 20
-10682.76405839336
 30
0.0
  0
SPLINE
  5
187
330
2
100
AcDbEntity
  8
0
  6
Continuous
 62
     7
100
AcDbSpline
210
0.0
220
0.0
230
1.0
 70
     8
 71
     3
 72
     9
 73
     5
 74
     0
 42
0.0000000001
 43
0.0000000001
 40
0.0
 40
0.0
 40
0.0
 40
0.0
 40
0.4949946797
 40
1.0
 40
1.0
 40
1.0
 40
1.0
 10
64087.40410726772
 20
-10681.14295170547
 30
0.0
 10
64086.63372398842
 20
-10679.55219023307
 30
0.0
 10
64085.03142570031
 20
-10676.35965480296
 30
0.0
 10
64083.26076993992
 20
-10673.25708494406
 30
0.0
 10
64082.34105144162
 20
-10671.70603160717
 30
0.0
  0
CIRCLE
  5
188
330
2
100
AcDbEntity
  8
0
370
     0
100
AcDbCircle
 10
63852.27067978301
 20
-10749.34997236255
 30
0.0
 40
22.25
  0
CIRCLE
  5
189
330
2
100
AcDbEntity
  8
0
370
     0
100
AcDbCircle
 10
63852.27067978301
 20
-10749.34997236255
 30
0.0
 40
34.0
  0
MTEXT
  5
1CA
330
2
100
AcDbEntity
  8
尺寸标注
100
AcDbMText
 10
63851.78693661402
 20
-9792.418959688374
 30
0.0
 40
75.0
 41
801.6353349369019
 71
     2
 72
     5
  1
SCALE\P1:1
 73
     1
 44
1.0
  0
ENDSEC
  0
SECTION
  2
OBJECTS
  0
DICTIONARY
  5
9
330
0
100
AcDbDictionary
281
     1
  3
ACAD_COLOR
350
34
  3
ACAD_GROUP
350
2F
  3
ACAD_LAYOUT
350
F
  3
ACAD_MATERIAL
350
B
  3
ACAD_MLEADERSTYLE
350
20A
  3
ACAD_MLINESTYLE
350
30
  3
ACAD_PLOTSETTINGS
350
31
  3
ACAD_PLOTSTYLENAME
350
8
  3
ACAD_SCALELIST
350
1E8
  3
ACAD_TABLESTYLE
350
35
  3
ACAD_VISUALSTYLE
350
28
  3
ACDB_RECOMPOSE_DATA
350
217
  3
ACDBHEADERROUNDTRIPXREC
350
211
  3
AcDbVariableDictionary
350
1CE
  0
DICTIONARY
  5
29
330
25
100
AcDbDictionary
280
     1
281
     1
  0
DICTIONARY
  5
18
330
17
100
AcDbDictionary
280
     1
281
     1
  3
ACAD_LAYERFILTERS
360
19
  3
ACAD_LAYERSTATES
360
1A
  3
ACLYDICTIONARY
360
1B
  0
DICTIONARY
  5
3
330
2
100
AcDbDictionary
280
     1
281
     1
  3
ACAD_SORTENTS
360
1CC
  0
DICTIONARY
  5
34
102
{ACAD_REACTORS
330
9
102
}
330
9
100
AcDbDictionary
281
     1
  0
DICTIONARY
  5
2F
102
{ACAD_REACTORS
330
9
102
}
330
9
100
AcDbDictionary
281
     1
  0
DICTIONARY
  5
F
102
{ACAD_REACTORS
330
9
102
}
330
9
100
AcDbDictionary
281
     1
  3
Model
350
E
  3
布局1
350
14
  0
DICTIONARY
  5
B
102
{ACAD_REACTORS
330
9
102
}
330
9
100
AcDbDictionary
281
     1
  3
ByBlock
350
33
  3
ByLayer
350
32
  3
Global
350
A
  0
DICTIONARY
  5
20A
102
{ACAD_REACTORS
330
9
102
}
330
9
100
AcDbDictionary
281
     1
  3
Standard
350
20B
  0
DICTIONARY
  5
30
102
{ACAD_REACTORS
330
9
102
}
330
9
100
AcDbDictionary
281
     1
  3
Standard
350
38
  0
DICTIONARY
  5
31
102
{ACAD_REACTORS
330
9
102
}
330
9
100
AcDbDictionary
281
     1
  0
ACDBDICTIONARYWDFLT
  5
8
102
{ACAD_REACTORS
330
9
102
}
330
9
100
AcDbDictionary
281
     1
  3
Normal
350
7
100
AcDbDictionaryWithDefault
340
7
  0
DICTIONARY
  5
1E8
102
{ACAD_REACTORS
330
9
102
}
330
9
100
AcDbDictionary
281
     1
  3
A0
350
1E9
  3
A1
350
1EA
  3
A2
350
1EB
  3
A3
350
1EC
  3
A4
350
1ED
  3
A5
350
1EE
  3
A6
350
1EF
  3
A7
350
1F0
  3
A8
350
1F1
  3
A9
350
1F2
  3
B0
350
1F3
  3
B1
350
1F4
  3
B2
350
1F5
  3
B3
350
1F6
  3
B4
350
1F7
  3
B5
350
1F8
  3
B6
350
1F9
  3
B7
350
1FA
  3
B8
350
1FB
  3
B9
350
1FC
  3
C0
350
1FD
  3
C1
350
1FE
  3
C2
350
1FF
  3
C3
350
200
  3
C4
350
201
  3
C5
350
202
  3
C6
350
203
  3
C7
350
204
  3
C8
350
205
  3
C9
350
206
  3
D0
350
207
  3
D1
350
208
  3
D2
350
209
  0
DICTIONARY
  5
35
102
{ACAD_REACTORS
330
9
102
}
330
9
100
AcDbDictionary
281
     1
  3
Standard
350
39
  0
DICTIONARY
  5
28
102
{ACAD_REACTORS
330
9
102
}
330
9
100
AcDbDictionary
281
     1
  3
2dWireframe
350
27
  3
3D Hidden
350
1D6
  3
3dWireframe
350
3B
  3
Basic
350
1D5
  3
Brighten
350
1D9
  3
ColorChange
350
1DD
  3
Conceptual
350
1D7
  3
Dim
350
1D8
  3
Facepattern
350
1DC
  3
Flat
350
1D1
  3
FlatWithEdges
350
1D2
  3
Gouraud
350
1D3
  3
GouraudWithEdges
350
1D4
  3
Linepattern
350
1DB
  3
Realistic
350
3A
  3
Thicken
350
1DA
  0
XRECORD
  5
217
102
{ACAD_REACTORS
330
9
102
}
330
9
100
AcDbXrecord
280
     1
 90
        1
330
39
  0
DICTIONARY
  5
211
102
{ACAD_REACTORS
330
9
102
}
330
9
100
AcDbDictionary
281
     1
  0
DICTIONARY
  5
1CE
102
{ACAD_REACTORS
330
9
102
}
330
9
100
AcDbDictionary
281
     1
  3
CMLEADERSTYLE
350
20F
  3
CTABLESTYLE
350
1CF
  0
DICTIONARY
  5
19
102
{ACAD_REACTORS
330
18
102
}
330
18
100
AcDbDictionary
281
     1
  0
DICTIONARY
  5
1A
102
{ACAD_REACTORS
330
18
102
}
330
18
100
AcDbDictionary
281
     1
  0
DICTIONARY
  5
1B
102
{ACAD_REACTORS
330
18
102
}
330
18
100
AcDbDictionary
281
     1
1001
ACAD
1000
<All
  0
SORTENTSTABLE
  5
1CC
102
{ACAD_REACTORS
330
3
102
}
330
3
100
AcDbSortentsTable
330
2
  0
LAYOUT
  5
E
102
{ACAD_REACTORS
330
F
102
}
330
F
100
AcDbPlotSettings
  1

  2
none_device
  4
ISO_A4_(210.00_x_297.00_MM)
  6

 40
7.5
 41
20.0
 42
7.5
 43
20.0
 44
210.0
 45
297.0
 46
11.54999923706054
 47
-13.65000009536743
 48
0.0
 49
0.0
140
0.0
141
0.0
142
1.0
143
8.704084754739808
 70
 11952
 72
     1
 73
     0
 74
     0
  7
acad.ctb
 75
     0
147
0.1148885871608098
 76
     0
 77
     2
 78
   300
148
0.0
149
0.0
100
AcDbLayout
  1
Model
 70
     1
 71
     0
 10
0.0
 20
0.0
 11
12.0
 21
9.0
 12
0.0
 22
0.0
 32
0.0
 14
0.0
 24
0.0
 34
0.0
 15
0.0
 25
0.0
 35
0.0
146
0.0
 13
0.0
 23
0.0
 33
0.0
 16
1.0
 26
0.0
 36
0.0
 17
0.0
 27
1.0
 37
0.0
 76
     0
330
2
331
26
1001
ACAD_PSEXT
1000
None
1000
None
1000
Not applicable
1000
The layout will not be plotted unless a new plotter configuration name is selected.
1070
     0
  0
LAYOUT
  5
14
102
{ACAD_XDICTIONARY
360
15
102
}
102
{ACAD_REACTORS
330
F
102
}
330
F
100
AcDbPlotSettings
  1

  2
none_device
  4
ISO_A4_(210.00_x_297.00_MM)
  6

 40
7.5
 41
20.0
 42
7.5
 43
20.0
 44
210.0
 45
297.0
 46
0.0
 47
0.0
 48
0.0
 49
0.0
140
0.0
141
0.0
142
1.0
143
1.0
 70
   688
 72
     1
 73
     1
 74
     5
  7
acad.ctb
 75
    16
147
1.0
 76
     0
 77
     2
 78
   300
148
0.0
149
0.0
100
AcDbLayout
  1
布局1
 70
     1
 71
     1
 10
-20.0
 20
-7.5
 11
277.0
 21
202.5
 12
0.0
 22
0.0
 32
0.0
 14
25.69999999999999
 24
19.5
 34
0.0
 15
231.3
 25
175.5
 35
0.0
146
0.0
 13
0.0
 23
0.0
 33
0.0
 16
1.0
 26
0.0
 36
0.0
 17
0.0
 27
1.0
 37
0.0
 76
     0
330
11
1001
ACAD_PSEXT
1000
无
1000
无
1000
不可用
1000
在选择新的绘图仪配置名称之前，不能打印该布局。
1070
     0
  0
MATERIAL
  5
33
102
{ACAD_REACTORS
330
B
102
}
330
B
100
AcDbMaterial
  1
ByBlock
  2

  0
MATERIAL
  5
32
102
{ACAD_REACTORS
330
B
102
}
330
B
100
AcDbMaterial
  1
ByLayer
  2

  0
MATERIAL
  5
A
102
{ACAD_REACTORS
330
B
102
}
330
B
100
AcDbMaterial
  1
Global
  2

  0
MLEADERSTYLE
  5
20B
102
{ACAD_REACTORS
330
20A
102
}
330
20A
100
AcDbMLeaderStyle
170
     2
171
     1
172
     0
 90
        2
 40
0.0
 41
0.0
173
     1
 91
-1056964608
340
21
 92
       -2
290
     1
 42
0.09
291
     1
 43
8.0
  3
Standard
341
0
 44
0.18
300

342
1E
174
     1
178
     1
175
     1
176
     0
 93
-1056964608
 45
0.18
292
     0
297
     0
 46
0.18
343
0
 94
-1056964608
 47
1.0
 49
1.0
140
1.0
293
     1
141
0.0
294
     1
177
     0
142
1.0
295
     0
296
     0
143
3.75
1001
ACAD_MLEADERVER
1070
     2
  0
MLINESTYLE
  5
38
102
{ACAD_REACTORS
330
30
102
}
330
30
100
AcDbMlineStyle
  2
STANDARD
 70
     0
  3

 62
   256
 51
90.0
 52
90.0
 71
     2
 49
0.5
 62
   256
  6
BYLAYER
 49
-0.5
 62
   256
  6
BYLAYER
  0
ACDBPLACEHOLDER
  5
7
102
{ACAD_REACTORS
330
8
102
}
330
8
  0
SCALE
  5
1E9
102
{ACAD_REACTORS
330
1E8
102
}
330
1E8
100
AcDbScale
 70
     0
300
1:1
140
1.0
141
1.0
290
     1
  0
SCALE
  5
1EA
102
{ACAD_REACTORS
330
1E8
102
}
330
1E8
100
AcDbScale
 70
     0
300
1:2
140
1.0
141
2.0
290
     0
  0
SCALE
  5
1EB
102
{ACAD_REACTORS
330
1E8
102
}
330
1E8
100
AcDbScale
 70
     0
300
1:4
140
1.0
141
4.0
290
     0
  0
SCALE
  5
1EC
102
{ACAD_REACTORS
330
1E8
102
}
330
1E8
100
AcDbScale
 70
     0
300
1:5
140
1.0
141
5.0
290
     0
  0
SCALE
  5
1ED
102
{ACAD_REACTORS
330
1E8
102
}
330
1E8
100
AcDbScale
 70
     0
300
1:8
140
1.0
141
8.0
290
     0
  0
SCALE
  5
1EE
102
{ACAD_REACTORS
330
1E8
102
}
330
1E8
100
AcDbScale
 70
     0
300
1:10
140
1.0
141
10.0
290
     0
  0
SCALE
  5
1EF
102
{ACAD_REACTORS
330
1E8
102
}
330
1E8
100
AcDbScale
 70
     0
300
1:16
140
1.0
141
16.0
290
     0
  0
SCALE
  5
1F0
102
{ACAD_REACTORS
330
1E8
102
}
330
1E8
100
AcDbScale
 70
     0
300
1:20
140
1.0
141
20.0
290
     0
  0
SCALE
  5
1F1
102
{ACAD_REACTORS
330
1E8
102
}
330
1E8
100
AcDbScale
 70
     0
300
1:30
140
1.0
141
30.0
290
     0
  0
SCALE
  5
1F2
102
{ACAD_REACTORS
330
1E8
102
}
330
1E8
100
AcDbScale
 70
     0
300
1:40
140
1.0
141
40.0
290
     0
  0
SCALE
  5
1F3
102
{ACAD_REACTORS
330
1E8
102
}
330
1E8
100
AcDbScale
 70
     0
300
1:50
140
1.0
141
50.0
290
     0
  0
SCALE
  5
1F4
102
{ACAD_REACTORS
330
1E8
102
}
330
1E8
100
AcDbScale
 70
     0
300
1:100
140
1.0
141
100.0
290
     0
  0
SCALE
  5
1F5
102
{ACAD_REACTORS
330
1E8
102
}
330
1E8
100
AcDbScale
 70
     0
300
2:1
140
2.0
141
1.0
290
     0
  0
SCALE
  5
1F6
102
{ACAD_REACTORS
330
1E8
102
}
330
1E8
100
AcDbScale
 70
     0
300
4:1
140
4.0
141
1.0
290
     0
  0
SCALE
  5
1F7
102
{ACAD_REACTORS
330
1E8
102
}
330
1E8
100
AcDbScale
 70
     0
300
8:1
140
8.0
141
1.0
290
     0
  0
SCALE
  5
1F8
102
{ACAD_REACTORS
330
1E8
102
}
330
1E8
100
AcDbScale
 70
     0
300
10:1
140
10.0
141
1.0
290
     0
  0
SCALE
  5
1F9
102
{ACAD_REACTORS
330
1E8
102
}
330
1E8
100
AcDbScale
 70
     0
300
100:1
140
100.0
141
1.0
290
     0
  0
SCALE
  5
1FA
102
{ACAD_REACTORS
330
1E8
102
}
330
1E8
100
AcDbScale
 70
     0
300
1/128" = 1'-0"
140
0.0078125
141
12.0
290
     0
  0
SCALE
  5
1FB
102
{ACAD_REACTORS
330
1E8
102
}
330
1E8
100
AcDbScale
 70
     0
300
1/64" = 1'-0"
140
0.015625
141
12.0
290
     0
  0
SCALE
  5
1FC
102
{ACAD_REACTORS
330
1E8
102
}
330
1E8
100
AcDbScale
 70
     0
300
1/32" = 1'-0"
140
0.03125
141
12.0
290
     0
  0
SCALE
  5
1FD
102
{ACAD_REACTORS
330
1E8
102
}
330
1E8
100
AcDbScale
 70
     0
300
1/16" = 1'-0"
140
0.0625
141
12.0
290
     0
  0
SCALE
  5
1FE
102
{ACAD_REACTORS
330
1E8
102
}
330
1E8
100
AcDbScale
 70
     0
300
3/32" = 1'-0"
140
0.09375
141
12.0
290
     0
  0
SCALE
  5
1FF
102
{ACAD_REACTORS
330
1E8
102
}
330
1E8
100
AcDbScale
 70
     0
300
1/8" = 1'-0"
140
0.125
141
12.0
290
     0
  0
SCALE
  5
200
102
{ACAD_REACTORS
330
1E8
102
}
330
1E8
100
AcDbScale
 70
     0
300
3/16" = 1'-0"
140
0.1875
141
12.0
290
     0
  0
SCALE
  5
201
102
{ACAD_REACTORS
330
1E8
102
}
330
1E8
100
AcDbScale
 70
     0
300
1/4" = 1'-0"
140
0.25
141
12.0
290
     0
  0
SCALE
  5
202
102
{ACAD_REACTORS
330
1E8
102
}
330
1E8
100
AcDbScale
 70
     0
300
3/8" = 1'-0"
140
0.375
141
12.0
290
     0
  0
SCALE
  5
203
102
{ACAD_REACTORS
330
1E8
102
}
330
1E8
100
AcDbScale
 70
     0
300
1/2" = 1'-0"
140
0.5
141
12.0
290
     0
  0
SCALE
  5
204
102
{ACAD_REACTORS
330
1E8
102
}
330
1E8
100
AcDbScale
 70
     0
300
3/4" = 1'-0"
140
0.75
141
12.0
290
     0
  0
SCALE
  5
205
102
{ACAD_REACTORS
330
1E8
102
}
330
1E8
100
AcDbScale
 70
     0
300
1" = 1'-0"
140
1.0
141
12.0
290
     0
  0
SCALE
  5
206
102
{ACAD_REACTORS
330
1E8
102
}
330
1E8
100
AcDbScale
 70
     0
300
1-1/2" = 1'-0"
140
1.5
141
12.0
290
     0
  0
SCALE
  5
207
102
{ACAD_REACTORS
330
1E8
102
}
330
1E8
100
AcDbScale
 70
     0
300
3" = 1'-0"
140
3.0
141
12.0
290
     0
  0
SCALE
  5
208
102
{ACAD_REACTORS
330
1E8
102
}
330
1E8
100
AcDbScale
 70
     0
300
6" = 1'-0"
140
6.0
141
12.0
290
     0
  0
SCALE
  5
209
102
{ACAD_REACTORS
330
1E8
102
}
330
1E8
100
AcDbScale
 70
     0
300
1'-0" = 1'-0"
140
12.0
141
12.0
290
     0
  0
TABLESTYLE
  5
39
102
{ACAD_XDICTIONARY
360
214
102
}
102
{ACAD_REACTORS
330
35
102
}
330
35
100
AcDbTableStyle
  3
Standard
 70
     0
 71
     0
 40
1.5
 41
1.5
280
     0
281
     0
  7
Standard
140
4.5
170
     2
 62
     0
 63
   257
283
     0
274
    -2
284
     1
 64
     0
275
    -2
285
     1
 65
     0
276
    -2
286
     1
 66
     0
277
    -2
287
     1
 67
     0
278
    -2
288
     1
 68
     0
279
    -2
289
     1
 69
     0
  7
Standard
140
6.0
170
     5
 62
     0
 63
   257
283
     0
274
    -2
284
     1
 64
     0
275
    -2
285
     1
 65
     0
276
    -2
286
     1
 66
     0
277
    -2
287
     1
 67
     0
278
    -2
288
     1
 68
     0
279
    -2
289
     1
 69
     0
  7
Standard
140
4.5
170
     5
 62
     0
 63
   257
283
     0
274
    -2
284
     1
 64
     0
275
    -2
285
     1
 65
     0
276
    -2
286
     1
 66
     0
277
    -2
287
     1
 67
     0
278
    -2
288
     1
 68
     0
279
    -2
289
     1
 69
     0
  0
VISUALSTYLE
  5
27
102
{ACAD_XDICTIONARY
360
212
102
}
102
{ACAD_REACTORS
330
28
102
}
330
28
100
AcDbVisualStyle
  2
2dWireframe
 70
     4
 71
     0
 72
     2
 73
     1
 90
        0
 40
-0.6
 41
-30.0
 62
     5
 63
     7
 74
     1
 91
        4
 64
     7
 65
   257
 75
     1
175
     1
 42
1.0
 92
        0
 66
   257
 43
1.0
 76
     1
 77
     6
 78
     2
 67
     7
 79
     5
170
     0
171
     0
290
     0
174
     0
 93
        1
 44
0.0
173
     0
291
     0
 45
0.0
1001
ACAD
1000
AcDbSavedByObjectVersion
1070
     0
  0
VISUALSTYLE
  5
1D6
102
{ACAD_XDICTIONARY
360
226
102
}
102
{ACAD_REACTORS
330
28
102
}
330
28
100
AcDbVisualStyle
  2
3D Hidden
 70
     6
 71
     1
 72
     2
 73
     2
 90
        0
 40
-0.6
 41
-30.0
 62
     5
 63
     7
421
 16777215
 74
     2
 91
        2
 64
     7
 65
   257
 75
     2
175
     1
 42
40.0
 92
        0
 66
   257
 43
1.0
 76
     1
 77
     6
 78
     2
 67
     7
 79
     3
170
     0
171
     0
290
     0
174
     0
 93
        1
 44
0.0
173
     0
291
     0
 45
0.0
1001
ACAD
1000
AcDbSavedByObjectVersion
1070
     0
  0
VISUALSTYLE
  5
3B
102
{ACAD_XDICTIONARY
360
21A
102
}
102
{ACAD_REACTORS
330
28
102
}
330
28
100
AcDbVisualStyle
  2
3dWireframe
 70
     5
 71
     0
 72
     2
 73
     1
 90
        0
 40
-0.6
 41
-30.0
 62
     5
 63
     7
 74
     1
 91
        4
 64
     7
 65
   257
 75
     1
175
     1
 42
1.0
 92
        0
 66
   257
 43
1.0
 76
     1
 77
     6
 78
     2
 67
     7
 79
     5
170
     0
171
     0
290
     0
174
     0
 93
        1
 44
0.0
173
     0
291
     0
 45
0.0
1001
ACAD
1000
AcDbSavedByObjectVersion
1070
     0
  0
VISUALSTYLE
  5
1D5
102
{ACAD_XDICTIONARY
360
224
102
}
102
{ACAD_REACTORS
330
28
102
}
330
28
100
AcDbVisualStyle
  2
Basic
 70
     7
 71
     1
 72
     0
 73
     1
 90
        0
 40
-0.6
 41
-30.0
 62
     5
 63
     7
421
 16777215
 74
     0
 91
        4
 64
     7
 65
   257
 75
     1
175
     1
 42
1.0
 92
        8
 66
     7
 43
1.0
 76
     1
 77
     6
 78
     2
 67
     7
 79
     5
170
     0
171
     0
290
     0
174
     0
 93
        1
 44
0.0
173
     0
291
     1
 45
0.0
1001
ACAD
1000
AcDbSavedByObjectVersion
1070
     0
  0
VISUALSTYLE
  5
1D9
102
{ACAD_XDICTIONARY
360
22C
102
}
102
{ACAD_REACTORS
330
28
102
}
330
28
100
AcDbVisualStyle
  2
Brighten
 70
    12
 71
     2
 72
     2
 73
     0
 90
        0
 40
-0.6
 41
-30.0
 62
     5
 63
     7
421
 16777215
 74
     1
 91
        4
 64
     7
 65
   257
 75
     1
175
     1
 42
1.0
 92
        8
 66
     7
 43
1.0
 76
     1
 77
     6
 78
     2
 67
     7
 79
     5
170
     0
171
     0
290
     0
174
     0
 93
        1
 44
50.0
173
     0
291
     1
 45
0.0
1001
ACAD
1000
AcDbSavedByObjectVersion
1070
     0
  0
VISUALSTYLE
  5
1DD
102
{ACAD_XDICTIONARY
360
234
102
}
102
{ACAD_REACTORS
330
28
102
}
330
28
100
AcDbVisualStyle
  2
ColorChange
 70
    16
 71
     2
 72
     2
 73
     3
 90
        0
 40
-0.6
 41
-30.0
 62
     5
 63
     8
421
  8421504
 74
     1
 91
        4
 64
     7
 65
   257
 75
     1
175
     1
 42
1.0
 92
        8
 66
     8
424
  8421504
 43
1.0
 76
     1
 77
     6
 78
     2
 67
     7
 79
     5
170
     0
171
     0
290
     0
174
     0
 93
        1
 44
0.0
173
     0
291
     1
 45
0.0
1001
ACAD
1000
AcDbSavedByObjectVersion
1070
     0
  0
VISUALSTYLE
  5
1D7
102
{ACAD_XDICTIONARY
360
228
102
}
102
{ACAD_REACTORS
330
28
102
}
330
28
100
AcDbVisualStyle
  2
Conceptual
 70
     9
 71
     3
 72
     2
 73
     0
 90
        0
 40
-0.6
 41
-30.0
 62
     5
 63
     7
421
 16777215
 74
     2
 91
        2
 64
     7
 65
   257
 75
     1
175
     1
 42
40.0
 92
        8
 66
     7
 43
1.0
 76
     1
 77
     6
 78
     2
 67
     7
 79
     3
170
     0
171
     0
290
     0
174
     0
 93
        1
 44
0.0
173
     0
291
     0
 45
0.0
1001
ACAD
1000
AcDbSavedByObjectVersion
1070
     0
  0
VISUALSTYLE
  5
1D8
102
{ACAD_XDICTIONARY
360
22A
102
}
102
{ACAD_REACTORS
330
28
102
}
330
28
100
AcDbVisualStyle
  2
Dim
 70
    11
 71
     2
 72
     2
 73
     0
 90
        0
 40
-0.6
 41
-30.0
 62
     5
 63
     7
421
 16777215
 74
     1
 91
        4
 64
     7
 65
   257
 75
     1
175
     1
 42
1.0
 92
        8
 66
     7
 43
1.0
 76
     1
 77
     6
 78
     2
 67
     7
 79
     5
170
     0
171
     0
290
     0
174
     0
 93
        1
 44
-50.0
173
     0
291
     1
 45
0.0
1001
ACAD
1000
AcDbSavedByObjectVersion
1070
     0
  0
VISUALSTYLE
  5
1DC
102
{ACAD_XDICTIONARY
360
232
102
}
102
{ACAD_REACTORS
330
28
102
}
330
28
100
AcDbVisualStyle
  2
Facepattern
 70
    15
 71
     2
 72
     2
 73
     0
 90
        0
 40
-0.6
 41
-30.0
 62
     5
 63
     7
421
 16777215
 74
     1
 91
        4
 64
     7
 65
   257
 75
     1
175
     1
 42
1.0
 92
        8
 66
     7
 43
1.0
 76
     1
 77
     6
 78
     2
 67
     7
 79
     5
170
     0
171
     0
290
     0
174
     0
 93
        1
 44
0.0
173
     0
291
     1
 45
0.0
1001
ACAD
1000
AcDbSavedByObjectVersion
1070
     0
  0
VISUALSTYLE
  5
1D1
102
{ACAD_XDICTIONARY
360
21C
102
}
102
{ACAD_REACTORS
330
28
102
}
330
28
100
AcDbVisualStyle
  2
Flat
 70
     0
 71
     2
 72
     1
 73
     1
 90
        2
 40
-0.6
 41
30.0
 62
     5
 63
     7
421
 16777215
 74
     0
 91
        4
 64
     7
 65
   257
 75
     1
175
     1
 42
1.0
 92
        8
 66
     7
 43
1.0
 76
     1
 77
     6
 78
     2
 67
     7
 79
     5
170
     0
171
     0
290
     0
174
     0
 93
       13
 44
0.0
173
     0
291
     1
 45
0.0
1001
ACAD
1000
AcDbSavedByObjectVersion
1070
     0
  0
VISUALSTYLE
  5
1D2
102
{ACAD_XDICTIONARY
360
21E
102
}
102
{ACAD_REACTORS
330
28
102
}
330
28
100
AcDbVisualStyle
  2
FlatWithEdges
 70
     1
 71
     2
 72
     1
 73
     1
 90
        2
 40
-0.6
 41
30.0
 62
     5
 63
     7
421
 16777215
 74
     1
 91
        4
 64
     7
 65
   257
 75
     1
175
     1
 42
1.0
 92
        0
 66
   257
 43
1.0
 76
     1
 77
     6
 78
     2
 67
     7
 79
     5
170
     0
171
     0
290
     0
174
     0
 93
       13
 44
0.0
173
     0
291
     1
 45
0.0
1001
ACAD
1000
AcDbSavedByObjectVersion
1070
     0
  0
VISUALSTYLE
  5
1D3
102
{ACAD_XDICTIONARY
360
220
102
}
102
{ACAD_REACTORS
330
28
102
}
330
28
100
AcDbVisualStyle
  2
Gouraud
 70
     2
 71
     2
 72
     2
 73
     1
 90
        2
 40
-0.6
 41
30.0
 62
     5
 63
     7
421
 16777215
 74
     0
 91
        4
 64
     7
 65
   257
 75
     1
175
     1
 42
1.0
 92
        0
 66
     7
 43
1.0
 76
     1
 77
     6
 78
     2
 67
     7
 79
     5
170
     0
171
     0
290
     0
174
     0
 93
       13
 44
0.0
173
     0
291
     1
 45
0.0
1001
ACAD
1000
AcDbSavedByObjectVersion
1070
     0
  0
VISUALSTYLE
  5
1D4
102
{ACAD_XDICTIONARY
360
222
102
}
102
{ACAD_REACTORS
330
28
102
}
330
28
100
AcDbVisualStyle
  2
GouraudWithEdges
 70
     3
 71
     2
 72
     2
 73
     1
 90
        2
 40
-0.6
 41
30.0
 62
     5
 63
     7
421
 16777215
 74
     1
 91
        4
 64
     7
 65
   257
 75
     1
175
     1
 42
1.0
 92
        0
 66
   257
 43
1.0
 76
     1
 77
     6
 78
     2
 67
     7
 79
     5
170
     0
171
     0
290
     0
174
     0
 93
       13
 44
0.0
173
     0
291
     1
 45
0.0
1001
ACAD
1000
AcDbSavedByObjectVersion
1070
     0
  0
VISUALSTYLE
  5
1DB
102
{ACAD_XDICTIONARY
360
230
102
}
102
{ACAD_REACTORS
330
28
102
}
330
28
100
AcDbVisualStyle
  2
Linepattern
 70
    14
 71
     2
 72
     2
 73
     0
 90
        0
 40
-0.6
 41
-30.0
 62
     5
 63
     7
421
 16777215
 74
     1
 91
        4
 64
     7
 65
   257
 75
     7
175
     7
 42
1.0
 92
        8
 66
     7
 43
1.0
 76
     1
 77
     6
 78
     2
 67
     7
 79
     5
170
     0
171
     0
290
     0
174
     0
 93
        1
 44
0.0
173
     0
291
     1
 45
0.0
1001
ACAD
1000
AcDbSavedByObjectVersion
1070
     0
  0
VISUALSTYLE
  5
3A
102
{ACAD_XDICTIONARY
360
218
102
}
102
{ACAD_REACTORS
330
28
102
}
330
28
100
AcDbVisualStyle
  2
Realistic
 70
     8
 71
     2
 72
     2
 73
     1
 90
        0
 40
-0.6
 41
-30.0
 62
     5
 63
     7
 74
     1
 91
        0
 64
     7
 65
   257
 75
     1
175
     1
 42
1.0
 92
        8
 66
     8
 43
1.0
 76
     1
 77
     6
 78
     2
 67
     7
 79
     5
170
     0
171
     0
290
     0
174
     0
 93
       13
 44
0.0
173
     0
291
     0
 45
0.0
1001
ACAD
1000
AcDbSavedByObjectVersion
1070
     0
  0
VISUALSTYLE
  5
1DA
102
{ACAD_XDICTIONARY
360
22E
102
}
102
{ACAD_REACTORS
330
28
102
}
330
28
100
AcDbVisualStyle
  2
Thicken
 70
    13
 71
     2
 72
     2
 73
     0
 90
        0
 40
-0.6
 41
-30.0
 62
     5
 63
     7
421
 16777215
 74
     1
 91
        4
 64
     7
 65
   257
 75
     1
175
     1
 42
1.0
 92
       12
 66
     7
 43
1.0
 76
     1
 77
     6
 78
     2
 67
     7
 79
     5
170
     0
171
     0
290
     0
174
     0
 93
        1
 44
0.0
173
     0
291
     1
 45
0.0
1001
ACAD
1000
AcDbSavedByObjectVersion
1070
     0
  0
DICTIONARYVAR
  5
20F
102
{ACAD_REACTORS
330
1CE
102
}
330
1CE
100
DictionaryVariables
280
     0
  1
STANDARD
  0
DICTIONARYVAR
  5
1CF
102
{ACAD_REACTORS
330
1CE
102
}
330
1CE
100
DictionaryVariables
280
     0
  1
STANDARD
  0
DICTIONARY
  5
15
330
14
100
AcDbDictionary
280
     1
281
     1
  3
ADSK_XREC_LAYOUTTHUMBNAIL
360
16
  0
DICTIONARY
  5
214
330
39
100
AcDbDictionary
280
     1
281
     1
  3
ACAD_ROUNDTRIP_2008_TABLESTYLE_CELLSTYLEMAP
360
216
  3
ACAD_XREC_ROUNDTRIP
360
215
  0
DICTIONARY
  5
212
330
27
100
AcDbDictionary
280
     1
281
     1
  3
ACAD_XREC_ROUNDTRIP
360
213
  0
DICTIONARY
  5
226
330
1D6
100
AcDbDictionary
280
     1
281
     1
  3
ACAD_XREC_ROUNDTRIP
360
227
  0
DICTIONARY
  5
21A
330
3B
100
AcDbDictionary
280
     1
281
     1
  3
ACAD_XREC_ROUNDTRIP
360
21B
  0
DICTIONARY
  5
224
330
1D5
100
AcDbDictionary
280
     1
281
     1
  3
ACAD_XREC_ROUNDTRIP
360
225
  0
DICTIONARY
  5
22C
330
1D9
100
AcDbDictionary
280
     1
281
     1
  3
ACAD_XREC_ROUNDTRIP
360
22D
  0
DICTIONARY
  5
234
330
1DD
100
AcDbDictionary
280
     1
281
     1
  3
ACAD_XREC_ROUNDTRIP
360
235
  0
DICTIONARY
  5
228
330
1D7
100
AcDbDictionary
280
     1
281
     1
  3
ACAD_XREC_ROUNDTRIP
360
229
  0
DICTIONARY
  5
22A
330
1D8
100
AcDbDictionary
280
     1
281
     1
  3
ACAD_XREC_ROUNDTRIP
360
22B
  0
DICTIONARY
  5
232
330
1DC
100
AcDbDictionary
280
     1
281
     1
  3
ACAD_XREC_ROUNDTRIP
360
233
  0
DICTIONARY
  5
21C
330
1D1
100
AcDbDictionary
280
     1
281
     1
  3
ACAD_XREC_ROUNDTRIP
360
21D
  0
DICTIONARY
  5
21E
330
1D2
100
AcDbDictionary
280
     1
281
     1
  3
ACAD_XREC_ROUNDTRIP
360
21F
  0
DICTIONARY
  5
220
330
1D3
100
AcDbDictionary
280
     1
281
     1
  3
ACAD_XREC_ROUNDTRIP
360
221
  0
DICTIONARY
  5
222
330
1D4
100
AcDbDictionary
280
     1
281
     1
  3
ACAD_XREC_ROUNDTRIP
360
223
  0
DICTIONARY
  5
230
330
1DB
100
AcDbDictionary
280
     1
281
     1
  3
ACAD_XREC_ROUNDTRIP
360
231
  0
DICTIONARY
  5
218
330
3A
100
AcDbDictionary
280
     1
281
     1
  3
ACAD_XREC_ROUNDTRIP
360
219
  0
DICTIONARY
  5
22E
330
1DA
100
AcDbDictionary
280
     1
281
     1
  3
ACAD_XREC_ROUNDTRIP
360
22F
  0
XRECORD
  5
16
102
{ACAD_REACTORS
330
15
102
}
330
15
100
AcDbXrecord
280
     1
310
28000000B40000007F00000001000800000000004C59000000000000000000000001000000000000FFFFFF0000000000FFFFFF000000000000000000000000000000000000000000000000000000000000000000330000006600000099000000CC000000FF00000000330000333300006633000099330000CC330000FF3300
310
0000660000336600006666000099660000CC660000FF66000000990000339900006699000099990000CC990000FF99000000CC000033CC000066CC000099CC0000CCCC0000FFCC000000FF000033FF000066FF000099FF0000CCFF0000FFFF000000003300330033006600330099003300CC003300FF003300003333003333
310
33006633330099333300CC333300FF33330000663300336633006666330099663300CC663300FF66330000993300339933006699330099993300CC993300FF99330000CC330033CC330066CC330099CC3300CCCC3300FFCC330000FF330033FF330066FF330099FF3300CCFF3300FFFF330000006600330066006600660099
310
006600CC006600FF00660000336600333366006633660099336600CC336600FF33660000666600336666006666660099666600CC666600FF66660000996600339966006699660099996600CC996600FF99660000CC660033CC660066CC660099CC6600CCCC6600FFCC660000FF660033FF660066FF660099FF6600CCFF6600
310
FFFF660000009900330099006600990099009900CC009900FF00990000339900333399006633990099339900CC339900FF33990000669900336699006666990099669900CC669900FF66990000999900339999006699990099999900CC999900FF99990000CC990033CC990066CC990099CC9900CCCC9900FFCC990000FF99
310
0033FF990066FF990099FF9900CCFF9900FFFF99000000CC003300CC006600CC009900CC00CC00CC00FF00CC000033CC003333CC006633CC009933CC00CC33CC00FF33CC000066CC003366CC006666CC009966CC00CC66CC00FF66CC000099CC003399CC006699CC009999CC00CC99CC00FF99CC0000CCCC0033CCCC0066CC
310
CC0099CCCC00CCCCCC00FFCCCC0000FFCC0033FFCC0066FFCC0099FFCC00CCFFCC00FFFFCC000000FF003300FF006600FF009900FF00CC00FF00FF00FF000033FF003333FF006633FF009933FF00CC33FF00FF33FF000066FF003366FF006666FF009966FF00CC66FF00FF66FF000099FF003399FF006699FF009999FF00CC
310
99FF00FF99FF0000CCFF0033CCFF0066CCFF0099CCFF00CCCCFF00FFCCFF0000FFFF0033FFFF0066FFFF0099FFFF00CCFFFF00FFFFFF00000000000D0D0D001A1A1A00282828003535350043434300505050005D5D5D006B6B6B00787878008686860093939300A1A1A100AEAEAE00BBBBBB00C9C9C900D6D6D600E4E4E400
310
F1F1F100FFFFFF0000000000000000000000000000000000000000000000000000000000000000000000000000000000E2E2E2E2E2E2E2E2E2E2E2E2E2E2E2E2E2E2E2E2E2E2E2E2E2E2E2E2E2E2E2E2E2E2E2E2E2E2E2E2E2E2E2E2E2E2E2E2E2E2E2E2E2E2E2E2E2E2E2E2E2E2E2E2E2E2E2E2E2E2E2E2E2E2E2E2E2E2E2
310
E2E2E2E2E2E2E2E2E2E2E2E2E2E2E2E2E2E2E2E2E2E2E2E2E2E2E2E2E2E2E2E2E2E2E2E2E2E2E2E2E2E2E2E2E2E2E2E2E2E2E2E2E2E2E2E2E2E2E2E2E2E2E2E2E2E2E2E2E2E2E2E2E2E2E2E2E2E2E2E2E2E2E2E2E2E2E2E2E2E2E2E2E2E2E2E2E2E2E2E2E2E2F5F5F5F5F5F5F5F5F5F5F5F5F5F5F5F5F5F5F5F5F5F5F5F5F5
310
F5F5F5F5F5F5F5F5F5F5F5F5F5F5F5F5F5F5F5F5F5F5F5F5F5F5F5F5F5F5F5F5F5F5F5F5F5F5F5F5F5F5F5F5F5F5F5F5F5F5F5F5F5F5F5F5F5F5F5F5F5F5F5F5F5F5F5F5F5F5F5F5F5F5F5F5F5F5F5F5F5F5F5F5F5F5F5F5F5F5F5F5F5F5F5F5F5F5F5F5F5F5F5F5F5F5F5F5F5F5F5F5F5F5F5F5F5F5F5F5F5F5F5F5F5F5F5
310
F5F5F5F5F5F5F5F5F5F5F5F5F5F5F5F5F5F5F5F5F5F5F5F5F5F5E2E2F5F5F5F5F5F5F5F5F5F5F5F5F5F5F5F5F5F5F5F5F5F5F5F5F5F5F5F5F5F5F5F5F5F5F5F5F5F5F5F5F5F5F5F5F5F5F5F5F5F5F5F5F5F5F5F5F5F5F5F5F5F5F5F5F5F5F5F5F5F5F5F5F5F5F5F5F5F5F5F5F5F5F5F5F5F5F5F5F5F5F5F5F5F5F5F5F5F5F5
310
F5F5F5F5F5F5F5F5F5F5F5F5F5F5F5F5F5F5F5F5F5F5F5F5F5F5F5F5F5F5F5F5F5F5F5F5F5F5F5F5F5F5F5F5F5F5F5F5F5F5F5F5F5F5F5F5F5F5F5F5F5F5F5F5F5F5F5F5F5F5F5F5F5F5F5F5F5F5F5E2E2F5F5F5F5F5F5F5F5F5F5F5F5F5F5F5F5F5F5F5F5F5F5F5F5F5F5F5F5F5F5F5F5F5F5F5F5F5F5F5F5F5F5F5F5F5F5
310
F5F5F5F5F5F5F5F5F5F5F5F5F5F5F5F5F5F5F5F5F5F5F5F5F5F5F5F5F5F5F5F5F5F5F5F5F5F5F5F5F5F5F5F5F5F5F5F5F5F5F5F5F5F5F5F5F5F5F5F5F5F5F5F5F5F5F5F5F5F5F5F5F5F5F5F5F5F5F5F5F5F5F5F5F5F5F5F5F5F5F5F5F5F5F5F5F5F5F5F5F5F5F5F5F5F5F5F5F5F5F5F5F5F5F5F5F5F5F5F5F5F5F5F5F5F5F5
310
F5F5F5F5F5E2E2F5F5F5F5F5F5F5F5F5F5F5F5F5F5F5F5F5F5F5F5F5F5F5F5F5F5F5F5F5F5F5F5F5F5F5F5F5F5F5F5F5F5F5F5F5F5F5F5F5F5F5F5F5F5F5F5F5F5F5F5F5F5F5F5F5F5F5F5F5F5F5F5F5F5F5F5F5F5F5F5F5F5F5F5F5F5F5F5F5F5F5F5F5F5F5F5F5F5F5F5F5F5F5F5F5F5F5F5F5F5F5F5F5F5F5F5F5F5F5F5
310
F5F5F5F5F5F5F5F5F5F5F5F5F5F5F5F5F5F5F5F5F5F5F5F5F5F5F5F5F5F5F5F5F5F5F5F5F5F5F5F5F5F5F5F5F5F5F5F5F5F5F5F5F5F5F5F5F5F5E2E2F5F5F5F5F5F5F5F5F5F5F5E2E2E2E2E2E2E2E2E2F5F5F5F5F5F5F5F5F5E2E2E2E2E2E2E2E2E2E2E2E2E2E2E2E2E2F5F5F5F5F5F5F5F5F5E2E2E2E2E2E2E2E2E2E2E2E2
310
E2E2E2E2F5F5F5F5F5F5F5F5F5F5E2E2E2E2E2E2E2E2E2E2E2E2E2E2E2E2F5F5F5F5F5F5F5F5F5F5E2E2E2E2E2E2E2E2E2E2E2E2E2E2E2E2F5F5F5F5F5F5F5F5F5E2E2E2E2E2E2E2E2E2E2E2E2E2E2E2E2E2F5F5F5F5F5F5F5F5F5E2E2E2E2E2E2E2E2E2F5F5F5F5F5F5F5F5F5F5F5E2E2F5F5F5F5F5F5F5F5F5F5F5E2F5F5
310
F5F5F5F5F5F5F5F5F5F5F5F5F5F5F5F5F5F5F5F5F5F5F5F5F5F5F5F5F5F5F5F5F5F5F5F5F5F5F5F5F5F5F5F5F5F5F5F5F5F5F5F5F5F5F5F5F5F5F5F5F5F5F5F5F5F5F5F5F5F5F5F5F5F5F5F5F5F5F5F5F5F5F5F5F5F5F5F5F5F5F5F5F5F5F5F5F5F5F5F5F5F5F5F5F5F5F5F5F5F5F5F5F5F5F5F5F5F5F5F5F5F5F5F5F5F5F5
310
F5F5F5F5F5F5F5F5F5F5F5F5F5F5F5F5F5F5F5F5F5F5F5F5F5E2F5F5F5F5F5F5F5F5F5F5F5E2E2F5F5F5F5F5F5F5F5F5F5F5E2F5F5F5F5F5F5F5F5F5F5F5F5F5F5F5F5F5F5F5F5F5F5F5F5F5F5F5F5F5F5F5F5F5F5F5F5F5F5F5F5F5F5F5F5F5F5F5F5F5F5F5F5F5F5F5F5F5F5F5F5F5F5F5F5F5F5F5F5F5F5F5F5F5F5F5F5
310
F5F5F5F5F5F5F5F5F5F5F5F5F5F5F5F5F5F5F5F5F5F5F5F5F5F5F5F5F5F5F5F5F5F5F5F5F5F5F5F5F5F5F5F5F5F5F5F5F5F5F5F5F5F5F5F5F5F5F5F5F5F5F5F5F5F5F5F5F5F5F5F5F5F5F5F5F5F5E2F5F5F5F5F5F5F5F5F5F5F5E2E2F5F5F5F5F5F5F5F5F5F5F5E2F5F5F5F5F5F5F5F5F5F5F5F5F5F5F5F5F5F5F5F5F5F5F5
310
F5F5F5F5F5F5F5F5F5F5F5F5F5F5F5F5F5F5F5F5F5F5F5F5F5F5F5F5F5F5F5F5F5F5F5F5F5F5F5F5F5F5F5F5F5F5F5F5F5F5F5F5F5F5F5F5F5F5F5F5F5F5F5F5F5F5F5F5F5F5F5F5F5F5F5F5F5F5F5F5F5F5F5F5F5F5F5F5F5F5F5F5F5F5F5F5F5F5F5F5F5F5F5F5F5F5F5F5F5F5F5F5F5F5F5F5F5F5F5F5F5F5F5F5F5F5F5
310
F5F5F5F5E2F5F5F5F5F5F5F5F5F5F5F5E2E2F5F5F5F5F5F5F5F5F5F5F5E2F5F5F5F5F5F5F5F5F5F5F5F5F5F5F5F5F5F5F5F5F5F5F5F5F5F5F5F5F5F5F5F5F5F5F5F5F5F5F5F5F5F5F5F5F5F5F5F5F5F5F5F5F5F5F5F5F5F5F5F5F5F5F5F5F5F5F5F5F5F5F5F5F5F5F5F5F5F5F5F5F5F5F5F5F5F5F5F5F5F5F5F5F5F5F5F5F5
310
F5F5F5F5F5F5F5F5F5F5F5F5F5F5F5F5F5F5F5F5F5F5F5F5F5F5F5F5F5F5F5F5F5F5F5F5F5F5F5F5F5F5F5F5F5F5F5F5F5F5F5F5F5F5F5F5F5E2F5F5F5F5F5F5F5F5F5F5F5E2E2F5F5F5F5F5F5F5F5F5F5F5E2F5F5F5F5F5F5F5F5F5F5F5F5F5F5F5F5F5F5F5F5F5F5F5F5F5F5F5F5F5F5F5F5F5F5F5F5F5F5F5F5F5F5F5F5
310
F5F5F5F5F5F5F5F5F5F5F5F5F5F5F5F5F5F5F5F5F5F5F5F5F5F5F5F5F5F5F5F5F5F5F5F5F5F5F5F5F5F5F5F5F5F5F5F5F5F5F5F5F5F5F5F5F5F5F5F5F5F5F5F5F5F5F5F5F5F5F5F5F5F5F5F5F5F5F5F5F5F5F5F5F5F5F5F5F5F5F5F5F5F5F5F5F5F5F5F5F5F5F5F5F5F5F5F5F5F5E2F5F5F5F5F5F5F5F5F5F5F5E2E2F5F5F5
310
F5F5F5F5F5F5F5F5E2F5F5F5F5F5F5F5F5F5F5F5F5F5F5F5F5F5F5F5F5F5F5F5F5F5F5F5F5F5F5F5F5F5F5F5F5F5F5F5F5F5F5F5F5F5F5F5F5F5F5F5F5F5F5F5F5F5F5F5F5F5F5F5F5F5F5F5F5F5F5F5F5F5F5F5F5F5F5F5F5F5F5F5F5F5F5F5F5F5F5F5F5F5F5F5F5F5F5F5F5F5F5F5F5F5F5F5F5F5F5F5F5F5F5F5F5F5F5
310
F5F5F5F5F5F5F5F5F5F5F5F5F5F5F5F5F5F5F5F5F5F5F5F5F5F5F5F5F5F5F5F5F5F5F5F5E2F5F5F5F5F5F5F5F5F5F5F5E2E2F5F5F5F5F5F5F5F5F5F5F5E2F5F5F5F5F5F5F5F5F5F5F5F5F5F5F5F5F5F5F5F5F5F5F5F5F5F5F5F5F5F5F5F5F5F5F5F5F5F5F5F5F5F5F5F5F5F5F5F5F5F5F5F5F5F5F5F5F5F5F5F5F5F5F5F5F5
310
F5F5F5F5F5F5F5F5F5F5F5F5F5F5F5F5F5F5F5F5F5F5F5F5F5F5F5F5F5F5F5F5F5F5F5F5F5F5F5F5F5F5F5F5F5F5F5F5F5F5F5F5F5F5F5F5F5F5F5F5F5F5F5F5F5F5F5F5F5F5F5F5F5F5F5F5F5F5F5F5F5F5F5F5F5F5F5F5F5E2F5F5F5F5F5F5F5F5F5F5F5E2E2F5F5F5F5F5F5F5F5F5F5F5F5F5F5F5F5F5F5F5F5F5F5F5F5
310
F5F5F5F5F5F5F5F5F5F5F5F5F5F5F5F5F5F5F5F5F5F5F5F5F5F5F5F5F5F5F5F5F5F5F5F5F5F5F5F5F5F5F5F5F5F5F5F5F5F5F5F5F5F5F5F5F5F5F5F5F5F5F5F5F5F5F5F5F5F5F5F5F5F5F5F5F5F5F5F5F5F5F5F5F5F5F5F5F5F5F5F5F5F5F5F5F5F5F5F5F5F5F5F5F5F5F5F5F5F5F5F5F5F5F5F5F5F5F5F5F5F5F5F5F5F5F5
310
F5F5F5F5F5F5F5F5F5F5F5F5F5F5F5F5F5F5F5F5F5F5F5F5F5F5F5E2E2F5F5F5F5F5F5F5F5F5F5F5F5F5F5F5F5F5F5F5F5F5F5F5F5F5F5F5F5F5F5F5F5F5F5F5F5F5F5F5F5F5F5F5F5F5F5F5F5F5F5F5F5F5F5F5F5F5F5F5F5F5F5F5F5F5F5F5F5F5F5F5F5F5F5F5F5F5F5F5F5F5F5F5F5F5F5F5F5F5F5F5F5F5F5F5F5F5F5
310
F5F5F5F5F5F5F5F5F5F5F5F5F5F5F5F5F5F5F5F5F5F5F5F5F5F5F5F5F5F5F5F5F5F5F5F5F5F5F5F5F5F5F5F5F5F5F5F5F5F5F5F5F5F5F5F5F5F5F5F5F5F5F5F5F5F5F5F5F5F5F5F5F5F5F5F5F5F5F5F5E2E2F5F5F5F5F5F5F5F5F5F5F5F5F5F5F5F5F5F5F5F5F5F5F5F5F5F5F5F5F5F5F5F5F5F5F5F5F5F5F5F5F5F5F5F5F5
310
F5F5F5F5F5F5F5F5F5F5F5F5F5F5F5F5F5F5F5F5F5F5F5F5F5F5F5F5F5F5F5F5F5F5F5F5F5F5F5F5F5F5F5F5F5F5F5F5F5F5F5F5F5F5F5F5F5F5F5F5F5F5F5F5F5F5F5F5F5F5F5F5F5F5F5F5F5F5F5F5F5F5F5F5F5F5F5F5F5F5F5F5F5F5F5F5F5F5F5F5F5F5F5F5F5F5F5F5F5F5F5F5F5F5F5F5F5F5F5F5F5F5F5F5F5F5F5
310
F5F5F5F5F5F5E2E2F5F5F5F5F5F5F5F5F5F5F5F5F5F5F5F5F5F5F5F5F5F5F5F5F5F5F52828282828282828282828282828282828282828282828282828282828282828282828282828282828282828282828282828282828282828282828282828282828282828282828282828282828282828282828282828282828282828
310
2828282828282828282828282828282828282828282828282828282828282828F5F5F5F5F5F5F5F5F5F5F5F5F5F5F5F5F5F5F5F5F5F5F5F5F5F5F5E2E2F5F5F5F5F5F5F5F5F5F5F5F5F5F5F5F5F5F5F5F5F5F5F5F5F5F5F528F5F5F5F5F5F5F5F5F5F5F5F5F5F5F5F5F5F5F5F5F5F5F5F5F5F5F5F5F5F5F5F5F5F5F5F5F5F5
310
F5F5F5F5F5F5F5F5F5F5F5F5F5F5F5F5F5F5F5F5F5F5F5F5F5F5F5F5F5F5F5F5F5F5F5F5F5F5F5F5F5F5F5F5F5F5F5F5F5F5F5F5F5F5F5F5F5F5F5F5F5F5F5F5F5F5F5F5F5F5F5F5F5F5F5F5F5F5F5F5F5F5F5F528F5F5F5F5F5F5F5F5F5F5F5F5F5F5F5F5F5F5F5F5F5F5F5F5F5F5F5E2E2F5F5F5F5F5F5F5F5F5F5F5F5F5
310
F5F5F5F5F5F5F5F5F5F5F5F5F5F528F5F5F5F5F5F5F5F5F5F5F5F5F5F5F5F5F5F5F5F5F5F5F5F5F5F5F5F5F5F5F5F5F5F5F5F5F5F5F5F5F5F5F5F5F5F5F5F5F5F5F5F5F5F5F5F5F5F5F5F5F5F5F5F5F5F5F5F5F5F5F5F5F5F5F5F5F5F5F5F5F5F5F5F5F5F5F5F5F5F5F5F5F5F5F5F5F5F5F5F5F5F5F5F5F5F5F5F5F5F5F5F5
310
F5F5F5F5F5F5F5F5F5F528F5F5F5F5F5F5F5F5F5F5F5F5F5F5F5F5F5F5F5F5F5F5F5F5F5F5F5E2E2F5F5F5F5F5F5F5F5F5F5F5F5F5F5F5F5F5F5F5F5F5F5F5F5F5F5F528F5F5F5F5F5F5F5F5F5F5F5F5F5F5F5F5F5F5F5F5F5F5F5F5F5F5F5F5F5F5F5F5F5F5F5F5F5F5F5F5F5F5F5F5F5F5F5F5F5F5F5F5F5F5F5F5F5F5F5
310
F5F5F5F5F5F5F5F5F5F5F5F5F5F5F5F5F5F5F5F5F5F5F5F5F5F5F5F5F5F5F5F5F5F5F5F5F5F5F5F5F5F5F5F5F5F5F5F5F5F5F5F5F5F5F5F5F5F5F5F5F5F5F528F5F5F5F5F5F5F5F5F5F5F5F5F5F5F5F5F5F5F5F5F5F5F5F5F5F5F5E2E2F5F5F5F5F5F5F5F5F5F5F5F5F5F5F5F5F5F5F5F5F5F5F5F5F5F5F528F5F5F5F5F5F5
310
F5F5F5F5F5F5F5F5F5F5F5F5F5F5F5F5F5F5F5F5F5F5F5F5F5F5F5F5F5F5F5F5F5F5F5F5F5F5F5F5F5F5F5F5F5F5F5F5F5F5F5F5F5F5F5F5F5F5F5F5F5F5F5F5F5F5F5F5F5F5F5F5F5F5F5F5F5F5F5F5F5F5F5F5F5F5F5F5F5F5F5F5F5F5F5F5F5F5F5F5F5F5F5F5F5F5F5F5F5F5F5F5F5F5F5F528F5F5F5F5F5F5F5F5F5F5
310
F5F5F5F5F5F5F5F5F5F5F5F5F5F5F5F5F5E2E2F5F5F5F5F5F5F5F5F5F5F5E2F5F5F5F5F5F5F5F5F5F5F5F5F5F5F528F5F5F5F5F5F5F5F5F5F5F5F5F5F5F5F5F5E2E2E2E2E2E2E2E2E2E2E2E2E2E2E2F5F5F5F5F5F5F5F5F5F5F5F5F5F5F5F5F5F5F5F5F5F5F5F5F5F5F5F5F5F5F5F5F5F5F5F5F5F5F5F5F5F5F5F5F5F5F5F5
310
F5F5F5F5F5F5F5F5F5F5F5F5F5F5F5F5F5F5F5F5F5F5F5F5F5F5F5F5F5F5F5F5F5F5F5F5F5F5F5F5F5F528F5F5F5F5F5F5F5F5F5F5F5F5F5F5F5E2F5F5F5F5F5F5F5F5F5F5F5E2E2F5F5F5F5F5F5F5F5F5F5F5E2F5F5F5F5F5F5F5F5F5F5F5F5F5F5F528F5F5F5F5F5F5F5F5F5F5F5F5F5F5F5E2E2E20F0F0F0F0FF5F5F5F5
310
F5E2E2F5E2F5F5F5F5F5F5F5F5F5F5F5F5F5F5F5F5F5F5F5F5F5F5F5F5F5F5F5F5F5F5F5F5F5F5F5F5F5F5F5F5F5F5F5F5F5F5F5F5F5F5F5F5F5F5F5F5F5F5F5F5F5F5F5F5F5F5F5F5F5F5F5F5F5F5F5F5F5F5F5F5F5F5F5F5F5F5F5F5F5F528F5F5F5F5F5F5F5F5F5F5F5F5F5F5F5E2F5F5F5F5F5F5F5F5F5F5F5E2E2F5F5
310
F5F5F5F5F5F5F5F5F5E2F5F5F5F5F5F5F5F5F5F5F5F5F5F5F528F5F5F5F5F5F5F5F5F5F5F5F5F5F5F5E20F0F0F0F0F0F0F0FF5E2F5F5E2F5E2E2F5F5F5F5F5F5F5F5F5F5F5F5F5F5F5F5F5F5F5F5F5F5F5F5F5F5F5F5F5F5F5F5F5F5F5F5F5F5F5F5F5F5F5F5F5F5F5F5F5F5F5F5F5F5F5F5F5F5F5F5F5F5F5F5F5F5F5F5F5
310
F5F5F5F5F5F5F5F5F5F5F5F5F5F5F5F5F5F5F5F5F528F5F5F5F5F5F5F5F5F5F5F5F5F5F5F5E2F5F5F5F5F5F5F5F5F5F5F5E2E2F5F5F5F5F5F5F5F5F5F5F5E2F5F5F5F5F5F5F5F5F5F5F5F5F5F5F528F5F5F5F5F5F5F5F5F5F5F5F5F5F5E2E20F0FF5F5E2E2E2E20FE2F5F5E2E2E2E2F5F5F5F5F5F5F5F5F5F5F5F5F5F5F5F5
310
F5F5F5F5F5F5F5F5F5F5F5F5F5F5F5F5F5F5F5F5F5F5F5F5F5F5F5F5F5F5F5F5F5F5F5F5F5F5F5F5F5F5F5F5F5F5F5F5F5F5F5F5F5F5F5F5F5F5F5F5F5F5F5F5F5F5F5F5F5F5F5F5F5F528F5F5F5F5F5F5F5F5F5F5F5F5F5F5F5E2F5F5F5F5F5F5F5F5F5F5F5E2E2F5F5F5F5F5F5F5F5F5F5F5E2F5F5F5F5F5F5F5F5F5F5F5
310
F5F5F5F528F5F5F5F5F5F5F5F5F5F5F5F5F5F5E20F0FF5F5E2E2F5F5E20FF5F5F5E2E2E2E2F5F5F5F5F5F5F5F5F5F5F5F5F5F5F5F5F5F5F5E2E2F5F5F5F5F5F5F5F5F5F5F5F5F5F5F5F5F5F5F5F5F5F5F5F5F5F5F5F5F5F5F5F5F5F5F5F5F5F5F5F5F5F5F5F5F5F5F5F5F5F5F5F5F5F5F5F5F5F5F5F5F5F5F5F5F5F5F5F5F5
310
28F5F5F5F5F5F5F5F5F5F5F5F5F5F5F5E2F5F5F5F5F5F5F5F5F5F5F5E2E2F5F5F5F5F5F5F5F5F5F5F5E2F5F5F5F5F5F5F5F5F5F5F5F5F5F5F528F5F5F5F5F5F5F5F5F5F5F5F5F5F5E20F0FF5F5E2E2F5F5E20FF5F5F5E2E2E2E2F5F5F5F5F5F5F5F5F5F5F5F5F5F5F5F5F5E2E2F5F5E2F5F5F5F5F5F5F5F5F5F5F5F5F5F5F5
310
F5F5F5F5F5F5F5F5F5F5F5F5F5F5F5F5F5F5F5F5F5F5F5F5F5F5F5F5F5F5F5F5F5F5F5F5F5F5F5F5F5F5F5F5F5F5F5F5F5F5F5F5F528F5F5F5F5F5F5F5F5F5F5F5F5F5F5F5E2F5F5F5F5F5F5F5F5F5F5F5E2E2F5F5F5F5F5F5F5F5F5F5F5E2F5F5F5F5F5F5F5F5F5F5F5F5F5F5F528F5F5F5F5F5F5F5F5F5F5F5F5F5F5E2F5
310
0FE2F5F5E2E2E2E20FF5F5F5E2E2E2E2F5F5F5F5F5F5F5F5F5F5F5F5F5F5E2E2E2E2E2E2E2E2F5F5F5F5F5F5F5F5F5F5F5F5F5F5F5F5F5F5F5F5F5F5F5F5F5F5F5F5E2E2E2E2E2E2E2E2E2E2E2F5F5F5F5F5F5F5F5F5F5F5F5F5F5F5F5F5F5F5F5F5F5F5F5F5F5F5F5F528F5F5F5F5F5F5F5F5F5F5F5F5F5F5F5E2F5F5F5F5
310
F5F5F5F5F5F5F5E2E2F5F5F5F5F5F5F5F5F5F5F5E2F5F5F5F5F5F5F5F5F5F5F5F5F5F5F528F5F5F5F5F5F5F5F5F5F5F5F5F5F5F5E20F0FE2E2E2E2E20F0FE2F5F5E2F5E2E2F5F5F5F5F5F5F5F5F5F5F5F5E2E2E2E2E2F5F5F5E2F5E2F5F5F5F5F5F5F5F5F5F5F5F5F5F5F5F5F5F5F5F5F5F5F5F5F5F5F5E2E2E2E2E2E2E2E2
310
F5F5E2F5F5F5F5F5F5F5F5F5F5F5F5F5F5F5F5F5F5F5F5F5F5F5F5F5F5F5F5F528F5F5F5F5F5F5F5F5F5F5F5F5F5F5F5E2F5F5F5F5F5F5F5F5F5F5F5E2E2F5F5F5F5F5F5F5F5F5F5F5E2F5F5F5F5F5F5F5F5F5F5F5F5F5F5F528F5F5F5F5F5F5F5F5F5F5F5F5F5F5F5E2E20F0F0F0F0F0F0FF5F5F5F5E2E2F5E2F5F5F5F5F5
310
F5F5F5F5F5E2E2E2E2E2E2F5F5F5F5E2E2E2F5F5F5F5F5F5F5F5F5F5F5F5F5F5F5F5F5F5F5F5F5F5F5F5F5F5F5E2E2E2E2E2F5E2E2E2F5E2F5F5F5F5F5F5F5F5F5F5F5F5F5F5F5F5F5F5F5F5F5F5F5F5F5F5F5F5F528F5F5F5F5F5F5F5F5F5F5F5F5F5F5F5E2F5F5F5F5F5F5F5F5F5F5F5E2E2F5F5F5F5F5F5F5F5F5F5F5E2
310
F5F5F5F5F5F5F5F5F5F5F5F5F5F5F528F5F5F5F5F5F5F5F5F5F5F5F5F5F5F5F5E2E2E2E2E2E2E2E2E2E2E2E2E2E2E2E2F5F5F5F5F5F5F5F5F5F5F5E2E2F5F5F5F5F5F5F5F5E2F5F5F5F5F5F5F5F5F5F5F5F5F5F5F5F5F5F5F5F5F5F5F5F5F5F5F5F5F5E2E2E2E2F5E2E2E2E2E2F5F5F5F5F5F5F5F5F5F5F5F5F5F5F5F5F5F5
310
F5F5F5F5F5F5F5F5F5F5F528F5F5F5F5F5F5F5F5F5F5F5F5F5F5F5E2F5F5F5F5F5F5F5F5F5F5F5E2E2F5F5F5F5F5F5F5F5F5F5F5E2F5F5F5F5F5F5F5F5F5F5F5F5F5F5F528F5F5F5F5F5F5F5F5F5F5F5F5F5F5F5F5F5F5F5F5F5F5F5F5F5F5F5F5F5F5F5F5F5F5F5F5F5F5F5F5F5F5F5E2E2F5F5F5F5F5F5F5F5E2F5F5F5F5
310
F5F5F5F5F5F5F5F5F5F5F5F5F5F5F5F5F5F5F5F5F5F5F5F5F52828282828E2E2F5E2E2F5F5F5F5F5F5F5F5F5F5F5F5F5F5F5F5F5F5F5F5F5F5F5F5F5F5F5F5F528F5F5F5F5F5F5F5F5F5F5F5F5F5F5F5E2F5F5F5F5F5F5F5F5F5F5F5E2E2F5F5F5F5F5F5F5F5F5F5F5E2F5F5F5F5F5F5F5F5F5F5F5F5F5F5F528F5F5F5F5F5
310
F5F5F5F5F5F5F5F5F5F5F5F5F5F5F5F5F5F5F5F5F5F5F5F5F5F5F5F5F5F5F5F5F5F5F5F5F5F5E2F5F5F5F5E2E2E2E2E2E2F5F5F5F5F5F5F5F5F5F5F5F5F5F5F5F5F5F5F5F5F5F5F5F5F5F5F5F5F5F5E2E2F5F5E2E2E2E2E2F5F5F5F5F5F5F5F5F5F5F5F5F5F5F5F5F5F5F5F5F5F5F5F5F5F5F5F5F528F5F5F5F5F5F5F5F5F5
310
F5F5F5F5F5F5E2F5F5F5F5F5F5F5F5F5F5F5E2E2F5F5F5F5F5F5F5F5F5F5F5E2F5F5F5F5F5F5F5F5F5F5F5F5F5F5F528F5F5F5F5F5F5F5F5F5F5F5F5F5F5F5F5F5F5F5F5F5F5F5F5F5F5F5F5F5F5F5F5F5F5F5F5F5F5F5F5F5F5F5E2F5F5F5E2E2E2F5F5E2E2E2F5F5F5F5F5F5F5F5F5F5F5F5F5F5F5F5F5F5F5F5F5F5F5F5
310
F5F5F5F5E2E2E2E2F5E2E2E2E2E2F5F5F5F5F5F5F5F5F5F5F5F5F5F5F5F5F5F5F5F5F5F5F5F5F5F5F5F5F528F5F5F5F5F5F5F5F5F5F5F5F5F5F5F5E2F5F5F5F5F5F5F5F5F5F5F5E2E2F5F5F5F5F5F5F5F5F5F5F5E2F5F5F5F5F5F5F5F5F5F5F5F5F5F5F528F5F5F5F5F5F5F5F5F5F5F5F5F5F5F5F5F5E2E2E2E2E2E2E2E2E2
310
E2E2E2E2E2E2F5F5F5F5F5F5F5F5F5F5F5E2F5E2E2E2E2E2E2E2E2E2F5F5F5F5F5F5F5F5F5F5F5F5F5F5F5F5F5F5F5F5F5F5F5F5F5F5F5F5E2E2E2E2E2F5E2E2E2F5E2F5F5F5F5F5F5F5F5F5F5F5F5F5F5F5F5F5F5F5F5F5F5F5F5F5F5F5F5F528F5F5F5F5F5F5F5F5F5F5F5F5F5F5F5E2F5F5F5F5F5F5F5F5F5F5F5E2E2F5
310
F5F5F5F5F5F5F5F5F5F5E2F5F5F5F5F5F5F5F5F5F5F5F5F5F5F528F5F5F5F5F5F5F5F5F5F5F5F5F5F5F5F5F5E2E2F5F5E2E2E2E2E2F5F5F5F5E2E2F5F5F5F5F5F5F5F5F5F5F5E2E2E2E2E2E2E2E2E2E2F5F5F5F5F5F5F5F5F5F5F5F5F5F5F5F5F5F5F5F5F5F5F5F5F5F5F5F5F5E2E2F5F5F5F5E2E2F5F5E2F5F5F5F5F5F5F5
310
F5F5F5F5F5F5F5F5F5F5F5F5F5F5F5F5F5F5F5F5F5F528F5F5F5F5F5F5F5F5F5F5F5F5F5F5F5E2F5F5F5F5F5F5F5F5F5F5F5E2E2F5F5F5F5F5F5F5F5F5F5F5F5F5F5F5F5F5F5F5F5F5F5F5F5F5F5F528F5F5F5F5F5F5F5F5F5F5F5F5F5F5F5F5F5E2E2E2F5E2E2F5F5E2F5F5F5F5F5E2F5F5F5F5F5F5F5F5F5F5F5F5E2E2E2
310
E2E2E2E2F5F5F5F5F5F5F5F5F5F5F5F5F5F5F5F5F5F5F5F5F5F5F5F5F5F5F5F5F5F5F5E2E2E2E2E2E2E2E2E2E2E2F5F5F5F5F5F5F5F5F5F5F5F5F5F5F5F5F5F5F5F5F5F5F5F5F5F5F5F5F528F5F5F5F5F5F5F5F5F5F5F5F5F5F5F5F5F5F5F5F5F5F5F5F5F5F5F5E2E2F5F5F5F5F5F5F5F5F5F5F5F5F5F5F5F5F5F5F5F5F5F5
310
F5F5F5F5F528F5F5F5F5F5F5F5F5F5F5F5F5F5F5F5F5E2E2F5E2E2E2F528F5E2F5F5F5F5F5E2F5F5F5F5F5F5F5F5F5F5F5F5F5F5E2E2E2F5F5F5F5F5F5F5F5F5F5F5F5F5F5F5F5F5F5F5F5F5F5F5F5F5F5F5F5F5F5F5F5F5F5F5F5F5F5F5F5F5F5F5F5F5F5F5F5F5F5F5F5F5F5F5F5F5F5F5F5F5F5F5F5F5F5F5F5F5F5F5F5
310
F528F5F5F5F5F5F5F5F5F5F5F5F5F5F5F5F5F5F5F5F5F5F5F5F5F5F5F5E2E2F5F5F5F5F5F5F5F5F5F5F5F5F5F5F5F5F5F5F5F5F5F5F5F5F5F5F528F5F5F5F5F5F5F5F5F5F5F5F5F5F5F5F5E2F5F5E2E2F5F5E2F5E2E2E2F5F5F5E2F5F5F5F5F5F5F5F5F5F5F5F5F5F5F5F5F5F5F5F5F5F5F5F5F5F5F5F5F5F5F5F5F5F5F5F5
310
F5F5F5F5F5F5F5F5F5F5F5F5F5F5F5F5F5F5F5F5F5F5F5F5F5F5F5F5F5F5F5F5F5F5F5F5F5F5F5F5F5F5F5F5F5F5F5F5F5F5F5F5F5F528F5F5F5F5F5F5F5F5F5F5F5F5F5F5F5F5F5F5F5F5F5F5F5F5F5F5F5E2E2F5F5F5F5F5F5F5F5F5F5F5F5F5F5F5F5F5F5F5F5F5F5F5F5F5F5F528F5F5F5F5F5F5F5F5F5F5F5F5F5F5F5
310
E2E2F5E2E2F5F5F5E2E2F5E2E2F5F5F5E2F5F5F5F5F5F5F5F5F5F5F5F5F5F5F5F5F5F5F5F5F5F5F5F5F5F5F5F5F5F5F5F5F5F5F5F5F5F5F5F5F5F5F5F5F5F5F5F5F5F5F5F5F5F5F5F5F5F5F5F5F5F5F5F5F5F5F5F5F5F5F5F5F5F5F5F5F5F5F5F5F5F5F5F5F5F5F5F5F5F528F5F5F5F5F5F5F5F5F5F5F5F5F5F5F5F5F5F5F5
310
F5F5F5F5F5F5F5F5E2E2F5F5F5F5F5F5F5F5F5F5F5F5F5F5F5F5F5F5F5F5F5F5F5F5F5F5F528F5F5F5F5F5F5F5F5F5F5F5F5F5F5F5E2E2E2E2F5F5F5F5E2E2E2E2E2F5F5F5E2F5F5F5F5F5F5F5F5F5F5F5F5F5F5F5F5F5F5F5F5F5F5F5F5F5F5F5F5F5F5F5F5F5F5F5F5F5F5F5F5F5F5F5F5F5F5F5F5F5F5F5F5F5F5F5F5F5
310
F5F5F5F5F5F5F5F5F5F5F5F5F5F5F5F5F5F5F5F5F5F5F5F5F5F5F5F5F5F5F5F5F528F5F5F5F5F5F5F5F5F5F5F5F5F5F5F5F5F5F5F5F5F5F5F5F5F5F5F5E2E2F5F5F5F5F5F5F5F5F5F5F5F5F5F5F5F5F5F5F5F5F5F5F5F5F5F5F528F5F5F5F5F5F5F5F5F5F5F5F5F5F5F5E2E2E2F5F5F5F5F5F5E2E2E2E2F5F5F5E2F5F5F5F5
310
F5F5F5F5F5F5F5F5F5F5F5F5F5F5F5F5F5F5F5F5F5F5F5F5F5F5F5F5F5F5F5F5F5F5F5F5F5F5F5F5F5F5F5F5F5F5F5F5F5F5F5F5F5F5F5F5F5F5F5F5F5F5F5F5F5F5F5F5F5F5F5F5F5F5F5F5F5F5F5F5F5F5F5F5F5F528F5F5F5F5F5F5F5F5F5F5F5F5F5F5F5F5F5F5F5F5F5F5F5F5F5F5F5E2E2F5F5F5F5F5F5F5F5F5F5F5
310
F5F5F5F5F5F5F5F5F5F5F5F5F5F5F5F528F5F5F5F5F5F5F5F5F5F5F5F5F5F5F5E2E2F5F5F5F5F5F5F5E2E2E2E2E2E2E2E2F5F5F5F5F5F5F5F5F5F5F5F5F5F5F5F5F5F5F5F5F5F5F5F5F5F5F5F5F5F5F5F5F5F5F5F5F5F5F5F5F5F5F5F5F5F5F5F5F5F5F5F5F5F5F5F5F5F5F5F5F5F5F5F5F5F5F5F5F5F5F5F5F5F5F5F5F5F5
310
F5F5F5F5F5F5F5F5F5F5F5F528F5F5F5F5F5F5F5F5F5F5F5F5F5F5F5F5F5F5F5F5F5F5F5F5F5F5F5E2E2F5F5F5F5F5F5F5F5F5F5F5F5F5F5F5F5F5F5F5F5F5F5F5F5F5F5F528F5F5F5F5F5F5F5F5F5F5F5F5F5F5E2E2F5F5F5F5F5F5F5F5E2E2F5F5F5F5E2E2F5F5F5F5F5F5F5F5F5F5F5F5F5F5F5F5F5F5F5F5F5F5F5F5F5
310
F5F5F5F5F5F5F5F5F5F5F5F5F5F5F5F5F5F5F5F5F5F5F5F5F5F5F5F5F5F5F5F5F5F5F5F5F5F5F5F5F5F5F5F5F5F5F5F5F5F5F5F5F5F5F5F5F5F5F5F5F5F5F5F5F528F5F5F5F5F5F5F5F5F5F5F5F5F5F5F5F5F5F5F5F5F5F5F5F5F5F5F5E2E2F5F5F5F5F5F5F5F5F5F5F5E2F5F5F5F5F5F5F5F5F5F5F5F5F5F5F528F5F5F5F5
310
F5F5F5F5F5F5F5F5F5F5E2E2F5E2E2E2E2E2E2E2E2E2E2E2E2E2E2E2F5F5F5F5F5F5F5F5F5F5F5F5F5F5F5F5F5F5F5F5F5F5F5F5F5F5F5F5F5F5F5F5F5F5F5F5F5F5F5F5F5F5F5F5F5F5F5F5F5F5F5F5F5F5F5F5F5F5F5F5F5F5F5F5F5F5F5F5F5F5F5F5F5F5F5F5F5F5F5F5F5F5F5F5F5F5F5F5F5F528F5F5F5F5F5F5F5F5
310
F5F5F5F5F5F5F5E2F5F5F5F5F5F5F5F5F5F5F5E2E2F5F5F5F5F5F5F5F5F5F5F5E2F5F5F5F5F5F5F5F5F5F5F5F5F5F5F528F5F5F5F5F5F5F5F5F5F5F5F5F5F5E2E2E2E2E2E2E2F5F5F5E2F5F5F5F5F5E2E2F5F5F5F5F5F5F5F5F5F5F5F5F5F5F5F5F5F5F5F5F5F5F5F5F5F5F5F5F5F5F5F5F5F5F5F5F5F5F5F5F5F5F5F5F5F5
310
F5F5F5F5F5F5F5F5F5F5F5F5F5F5F5F5F5F5F5F5F5F5F5F5F5F5F5F5F5F5F5F5F5F5F5F5F5F5F5F5F5F5F5F528F5F5F5F5F5F5F5F5F5F5F5F5F5F5F5E2F5F5F5F5F5F5F5F5F5F5F5E2E2F5F5F5F5F5F5F5F5F5F5F5E2F5F5F5F5F5F5F5F5F5F5F5F5F5F5F528F5F5F5F5F5F5F5F5F5F5F5F5F5F5E2E2E2E2E2E2E2E2E2E2E2
310
E2E2E2E2E2E2E2F5F5F5F5F5F5F5F5F5F5F5F5F5F5F5F5F5F5F5F5F5F5F5F5F5F5F5F5F5F5F5F5F5F5F5F5F5F5F5F5F5F5F5F5F5F5F5F5F5F5F5F5F5F5F5F5F5F5F5F5F5F5F5F5F5F5F5F5F5F5F5F5F5F5F5F5F5F5F5F5F5F5F5F5F5F5F5F5F5F528F5F5F5F5F5F5F5F5F5F5F5F5F5F5F5E2F5F5F5F5F5F5F5F5F5F5F5E2E2
310
F5F5F5F5F5F5F5F5F5F5F5E2F5F5F5F5F5F5F5F5F5F5F5F5F5F5F528F5F5F5F5F5F5F5F5F5F5F5F5F5F5F5F5F5F5F5F5F5F5F5F5F5F5F5F5F5F5F5F5F5F5F5F5F5F5F5F5F5F5F5F5F5F5F5F5F5F5F5F5F5F5F5F5F5F5F5F5F5F5F5F5F5F5F5F5F5F5F5F5F5F5F5F5F5F5F5F5F5F5F5F5F5F5F5F5F5F5F5F5F5F5F5F5F5F5F5
310
F5F5F5F5F5F5F5F5F5F5F5F5F5F5F5F5F5F5F5F5F5F5F528F5F5F5F5F5F5F5F5F5F5F5F5F5F5F5E2F5F5F5F5F5F5F5F5F5F5F5E2E2F5F5F5F5F5F5F5F5F5F5F5E2F5F5F5F5F5F5F5F5F5F5F5F5F5F5F528F5F5F5F5F5F5F5F5F5F5F5F5F5F5F5F5F5F5F5F5F5F5F5F5F5F5F5F5F5F5F5F5F5F5F5F5F5F5F5F5F5F5F5F5F5F5
310
F5F5F5F5F5F5F5F5F5F5F5F5F5F5F5F5F5F5F5F5F5F5F5F5F5F5F5F5F5F5F5F5F5F5F5F5F5F5F5F5F5F5F5F5F5F5F5F5F5F5F5F5F5F5F5F5F5F5F5F5F5F5F5F5F5F5F5F5F5F5F5F5F5F5F5F528F5F5F5F5F5F5F5F5F5F5F5F5F5F5F5E2F5F5F5F5F5F5F5F5F5F5F5E2E2F5F5F5F5F5F5F5F5F5F5F5E2F5F5F5F5F5F5F5F5F5
310
F5F5F5F5F5F528F5F5F5F5F5F5F5F5F5F5F5F5F5F5F5F5F5F5F5F5F5F5F5F5F5F5F5F5F5F5F5F5F5F5F5F5F5F5F5F5F5F5F5F5F5F5F5F5F5F5F5F5F5F5F5F5F5F5F5F5F5F5F5F5F5F5F5F5F5F5F5F5F5F5F5F5F5F5F5F5F5F5F5F5F5F5F5F5F5F5F5F5F5F5F5F5F5F5F5F5F5F5F5F5F5F5F5F5F5F5F5F5F5F5F5F5F5F5F5F5
310
F5F528F5F5F5F5F5F5F5F5F5F5F5F5F5F5F5E2F5F5F5F5F5F5F5F5F5F5F5E2E2F5F5F5F5F5F5F5F5F5F5F5E2F5F5F5F5F5F5F5F5F5F5F5F5F5F5F528F5F5F5F5F5F5F5F5F5F5F5F5F5F5F5F5F5F5F5F5F5F5F5F5F5F5F5F5F5F5F5F5F5F5F5F5F5F5F5F5F5F5F5F5F5F5F5F5F5F5F5F5F5F5F5F5F5F5F5F5F5F5F5F5F5F5F5
310
F5F5F5F5F5F5F5F5F5F5F5F5F5F5F5F5F5F5F5F5F5F5F5F5F5F5F5F5F5F5F5F5F5F5F5F5F5F5F5F5F5F5F5F5F5F5F5F5F5F5F5F5F5F5F528F5F5F5F5F5F5F5F5F5F5F5F5F5F5F5E2F5F5F5F5F5F5F5F5F5F5F5E2E2F5F5F5F5F5F5F5F5F5F5F5E2F5F5F5F5F5F5F5F5F5F5F5F5F5F5F528F5F5F5F5F5F5F5F5F5F5F5F5F5F5
310
F5F5F5F5F5F5F5F5F5F5F5F5F5F5F5F5F5F5F5F5F5F5F5F5F5F5F5F5F5F5F5F5F5F5F5F5F5F5F5F5F5F5F5F5F5F5F5F5F5F5F5F5F5F5F5F5F5F5F5F5F5F5F5F5F5F5F5F5F5F5F5F5F5F5F5F5F5F5F5F5F5F5F5F5F5F5F5F5F5F5F5F5F5F5F5F5F5F5F5F5F5F5F5F5F5F5F5F528F5F5F5F5F5F5F5F5F5F5F5F5F5F5F5E2F5F5
310
F5F5F5F5F5F5F5F5F5E2E2F5F5F5F5F5F5F5F5F5F5F5E2F5F5F5F5F5F5F5F5F5F5F5F5F5F5F528F5F5F5F5F5F5F5F5F5F5F5F5F5F5F5F5F5F5F5F5F5F5F5F5F5F5F5F5F5F5F5F5F5F5F5F5F5F5F5F5F5F5F5F5F5F5F5F5F5F5F5F5F5F5F5F5F5F5F5F5F5F5F5F5F5F5F5F5F5F5F5F5F5F5F5F5F5F5F5F5F5F5F5F5F5F5F5F5
310
F5F5F5F5F5F5F5F5F5F5F5F5F5F5F5F5F5F5F5F5F5F5F5F5F5F5F5F5F5F5F5F5F5F528F5F5F5F5F5F5F5F5F5F5F5F5F5F5F5E2F5F5F5F5F5F5F5F5F5F5F5E2E2F5F5F5F5F5F5F5F5F5F5F5E2F5F5F5F5F5F5F5F5F5F5F5F5F5F5F528F5F5F5F5F5F5F5F5F5F5F5F5F5F5F5F5F5F5F5F5F5F5F5F5F5F5F5F5F5F5F5F5F5F5F5
310
F5F5F5F5F5F5F5F5F5F5F5F5F5F5F5F5F5F5F5F5F5F5F5F5F5F5F5F5F5F5F5F5F5F5F5F5F5F5F5F5F5F5F5F5F5F5F5F5F5F5F5F5F5F5F5F5F5F5F5F5F5F5F5F5F5F5F5F5F5F5F5F5F5F5F5F5F5F5F5F5F5F5F5F5F5F5F528F5F5F5F5F5F5F5F5F5F5F5F5F5F5F5E2F5F5F5F5F5F5F5F5F5F5F5E2E2F5F5F5F5F5F5F5F5F5F5
310
F5E2F5F5F5F5F5F5F5F5F5F5F5F5F5F5F528F5F5F5F5F5F5F5F5F5F5F5F5F5F5F5F5F5F5F5F5F5F5F5F5F5F5F5F5F5F5F5F5F5F5F5F5F5F5F5F5F5F5F5F5F5F5F5F5F5F5F5F5F5F5F5F5F5F5F5F5F5F5F5F5F5F5F5F5F5F5F5F5F5F5F5F5F5F5F5F5F5F5F5F5F5F5F5F5F5F5F5F5F5F5F5F5F5F5F5F5F5F5F5F5F5F5F5F5F5
310
F5F5F5F5F5F5F5F5F5F5F5F5F528F5F5F5F5F5F5F5F5F5F5F5F5F5F5F5E2F5F5F5F5F5F5F5F5F5F5F5E2E2F5F5F5F5F5F5F5F5F5F5F5E2F5F5F5F5F5F5F5F5F5F5F5F5F5F5F528F5F5F5F5F5F5F5F5F5F5F5F5F5F5F5F5F5F5F5F5F5F5F5F5F5F5F5F5F5F5F5F5F5F5F5F5F5F5F5F5F5F5F5F5F5F5F5F5F5F5CACACACACACA
310
CACACACACACACACACACACACACACACACACACACACACACACACACACACACACACACACACACACACACACACACACACACACACACACACACACACACACACACACACAC3C3C3C3C3C3C3CACA28F5F5F5F5F5F5F5F5F5F5F5F5F5F5F5E2F5F5F5F5F5F5F5F5F5F5F5E2E2F5F5F5F5F5F5F5F5F5F5F5E2F5F5F5F5F5F5F5F5F5F5F5F5F5F5F528F5F5F5
310
F5F5F5F5F5F5F5F5F5F5F5F5F5F5F5F5F5F5F5F5F5F5F5F5F5F5F5F5F5F5F5F5F5F5F5F5F5F5F5F5F5F5F5F5F5F5F5CAF5F5F5EFEFEFEFEFEFEFEFEF4CEFEF4CEFEFEFEFEFEFEFEFEFEFEFEFEFEFEFEF4CEFEF4CEFEFEFC3C3C34CEFEFEF4CEFEFEF4CC3EFEFEFEFC3EF4CEFEFEFEFEFEFEFEFEFEFEFF528F5F5F5F5F5F5F5
310
F5F5F5F5F5F5F5F5E2F5F5F5F5F5F5F5F5F5F5F5E2E2F5F5F5F5F5F5F5F5F5F5F5E2F5F5F5F5F5F5F5F5F5F5F5F5F5F5F528F5F5F5F5F5F5F5F5F5F5F5F5F5F5F5F5F5F5F5F5F5F5F5F5F5F5F5F5F5F5F5F5F5F5F5F5F5F5F5F5F5F5F5F5F5F5F5F5F5F5CAF5F5F5EFF5F5F5F5F5F5F5F54CC3C34CF5F5F5F5F5F5F5F5F5F5
310
F5F5F5F5F5F54CF5F54CF5F5F54CC3C34CF5F5F54CF5F5F5C3C3C3F5F5C3C3C34CF5F5F5C3C3C3C3C3F5F5EFF528F5F5F5F5F5F5F5F5F5F5F5F5F5F5F5E2F5F5F5F5F5F5F5F5F5F5F5E2E2F5F5F5F5F5F5F5F5F5F5F5E2F5F5F5F5F5F5F5F5F5F5F5F5F5F5F528F5F5F5F5F5F5F5F5F5F5F5F5F5F5F5F5F5F5F5F5F5F5F5F5
310
F5F5F5F5F5F5F5F5F5F5F5F5F5F5F5F5F5F5F5F5F5F5F5F5F5F5CAF5F5F5EFF5F5F5F5F5F5F5F54CC3C34C4C4C4C4C4C4C4C4C4C4C4C4C4C4C4C4C4C4C4C4C4C4C4C4CC3C34C4C4C4C4C4C4C4CBEBEC3C3BEC34CC34CF5F5F5EFEFEFEFEFEFF5EFF528F5F5F5F5F5F5F5F5F5F5F5F5F5F5F5E2F5F5F5F5F5F5F5F5F5F5F5E2
310
E2F5F5F5F5F5F5F5F5F5F5F5F5F5F5F5F5F5F5F5F5F5F5F5F5F5F5F528F5F5F5F5F5F5F5F5F5F5F5F5F5F5F5F5F5F5F5F5F5F5F5F5F5F5F5F5F5F5F5F5F5F5F5F5F5F5F5F5F5F5F5F5F5F5F5F5F5F5CAF5F5F5EFF5F5F5F5F5F5F5F54CC3C34C4C4C4C4C4C4C4C4C4C4C4C4C4C4C4C4C4C4C4C4C4C4C4CC3C3C34C4C4C4C4C
310
4C4C4CC3BEC3C34CC34CC34CC3C34C4C4CC3C34C4C4CEFF528F5F5F5F5F5F5F5F5F5F5F5F5F5F5F5F5F5F5F5F5F5F5F5F5F5F5F5E2E2F5F5F5F5F5F5F5F5F5F5F5F5F5F5F5F5F5F5F5F5F5F5F5F5F5F5F528F5F5F5F5F5F5F5F5F5F5F5F5F5F5F5F5F5F5F5F5F5F5F5F5F5F5F5F5F5F5F5F5F5F5F5F5F5F5F5F5F5F5F5F5F5
310
F5F5F5F5F5CAF5F5F5EFF5F5F5F5F5F5F5F54CC3C34C4C4C4C4C4C4C4C4C4C4C4C4C4C4C4C4C4C4C4C4C4C4C4CC3C3C34C4C4C4C4C4C4C4CC3C34C4C4C4C4C4C4CC3C34C4C4C4C4C4C4C4CEFF528F5F5F5F5F5F5F5F5F5F5F5F5F5F5F5F5F5F5F5F5F5F5F5F5F5F5F5E2E2F5F5F5F5F5F5F5F5F5F5F5F5F5F5F5F5F5F5F5F5
310
F5F5F5F5F5F5F528F5F5F5F5F5F5F5F5F5F5F5F5F5F5F5F5F5F5F5F5F5F5F5F5F5F5F5F5F5F5F5F5F5F5F5F5F5F5F5F5F5F5F5F5F5F5F5F5F5F5CAF5F5F5EFF5F5F5F5F5F5F5F54CC3C34CF5F5F5F5F5F5F5F5F5F5F5F5F5F5F5F54CF5F54CF5F5F54CC3C34CF5F5F54CF5F5F5C3C34CF5F5F5F5F54CC3C34CF5F5F5F5F5F5
310
F5EFF528F5F5F5F5F5F5F5F5F5F5F5F5F5F5F5F5F5F5F5F5F5F5F5F5F5F5F5E2E2F5F5F5F5F5F5F5F5F5F5F5F5F5F5F5F5F5F5F5F5F5F5F5F5F5F5F528F5F5F5F5F5F5F5F5F5F5F5F5F5F5F5F5F5F5F5F5F5F5F5F5F5F5F5F5F5F5F5F5F5F5F5F5F5F5F5F5F5F5F5F5F5F5F5F5F5F5CAF5F5F5EFF5F5F5F5F5F5F5F54CC34C
310
4C4C4C4C4C4C4C4C4C4C4C4C4C4C4C4C4C4C4C4C4C4C4C4C4C4C4C4C4C4C4C4C4C4C4C4C4C4C4C4C4C4C4C4C4C4C4C4C4C4C4C4C4C4CEFF528F5F5F5F5F5F5F5F5F5F5F5F5F5F5F5F5F5F5F5F5F5F5F5F5F5F5F5E2E2F5F5F5F5F5F5F5F5F5F5F5F5F5F5F5F5F5F5F5F5F5F5F5F5F5F5F528F5F5F5F5F5F5F5F5F5F5F5F5F5
310
F5F5F5F5F5F5F5F5F5F5F5F5F5F5F5F5F5F5F5F5F5F5F5F5F5F5F5F5F5F5F5F5F5F5F5F5F5CAF5F5F5EFF5F5F5F5282828282828F5F5F5F5F5F5F5F5F5F5F5F5F5F5F5F5F5F5F5F5282828F528282828F5F5F5F5F5F5F5F54C4C4C4C4C4C4C4C4C4CF5F5F5F5F5F5F5F5F5EFF528F5F5F5F5F5F5F5F5F5F5F5F5F5F5F5F5F5
310
F5F5F5F5F5F5F5F5F5F5E2E2F5F5F5F5F5F5F5F5F5F5F5F5F5F5F5F5F5F5F5F5F5F5F5F5F5F5F528F5F5F5F5F5F5F5F5F5F5F5F5F5F5F5F5F5F5F5F5F5F5F5F5F5F5F5F5F5F5F5F5F5F5F5F5F5F5F5F5F5F5F5F5F5F5F5F5F5F5CAF5F5F5EFF5F5F5F5F5E2E2E2E2E2E2E2E2F5F5F5F5F5F528282828282828E2E2E2E22828
310
282828E2E2E2E2F5F5F5F5F5F5F54C4C4C4C4C4C4C4C4C4C4C4C4C4C4C4C4CF5F5EFF528F5F5F5F5F5F5F5F5F5F5F5F5F5F5F5F5F5F5F5F5F5F5F5F5F5F5F5E2E2F5F5F5F5F5F5F5F5F5F5F5F5F5F5F5F5F5F5F5F5F5F5F5F5F5F5F528F5F5F5F5F5F5F5F5F5F5F5F5F5F5F5F5F5F5F5F5F5F5F5F5F5F5F5F5F5F5F5F5F5F5
310
F5F5F5F5F5F5F5F5F5F5F5F5F5F5F5F5CAC3C3C3C3F5F5F5E2E2E2E2E2E2E2E2E2E2F5F5F5F5F5F528F5F5E2E2F5F5F5F5F5F52828F528E2E2E2F5E2F5F5F5F5F5F5F54C4C4C4C4C4C4CF5F5F5F5F5F5F5F5F5F5F5F5EFF528F5F5F5F5F5F5F5F5F5F5F5F5F5F5F5F5F5F5F5F5F5F5F5F5F5F5F5E2E2F5F5F5F5F5F5F5F5F5
310
F5F5F5F5F5F5F5F5F5F5F5F5F5F5F5F5F5F528F5F5F5F5F5F5F5F5F5F5F5F5F5F5F5F5F5F5F5F5F5F5F5F5F5F5F5F5F5F5F5F5F5F5F5F5F5F5F5F5F5F5F5F5F5F5F5F5F5F5CAC3C3C3C3F5F5E2E2E2E2E2E2E2E2E2E2E2F5F5F5F5F5F528F5E2E2E2E2E2E2E2E2E22828F528E2E2F5F5E2F5F5F5F5F5F5F5F5F5F5F5F5F5F5
310
F5F5F5F5F5F5F5F5F5F5F5F5EFF528F5F5F5F5F5F5F5F5F5F5F5F5F5F5F5F5F5F5F5F5F5F5F5F5F5F5F5E2E2F5F5F5F5F5F5F5F5F5F5F5F5F5F5F5F5F5F5F5F5F5F5F5F5F5F5F528F5F5F5F5F5F5F5F5F5F5F5F5F5F5F5F5F5F5F5F5F5F5F5F5F5F5F5F5F5F5F5F5F5F5F5F5F5F5F5F5F5F5F5F5F5F5F5F5F5F5CAC3C3C3C3
310
F5F5E2E2E2E2F5F5F5F5E2E2E2F5F5F5F5F5F528E2E2E2E2282828282828282828F528E2E2282828F5F5F5F5F5F54C4C4C4C4C4C4C4C4C4C4C4C4C4C4C4C4CF5F5EFF528F5F5F5F5F5F5F5F5F5F5F5F5F5F5F5F5F5F5F5F5F5F5F5F5F5F5F5E2E2F5F5F5F5F5F5F5F5F5F5F5E2F5F5F5F5F5F5F5F5F5F5F5F5F5F5F528F5F5
310
F5F5F5F5F5F5F5F5F5F5F5F5F5F5F5F5F5F5F5F5F5F5F5F5F5F5F5F5F5F5F5F5F5F5F5F5F5F5F5F5F5F5F5F5F5F5F5F5CAC3C3C3C3F5F5E2E2E2F5F5F5F5F5F5BE2828F5F5F5F5F528E2F5E2F52828E2E2F528282828F5E228E2E22828F5F5F5F5F5F54C4C4C4C4C4C4C4C4C4C4C4C4C4C4C4C4C4C4CEFF528F5F5F5F5F5F5
310
F5F5F5F5F5F5F5F5F5E2F5F5F5F5F5F5F5F5F5F5F5E2E2F5F5F5F5F5F5F5F5F5F5F5E2F5F5F5F5F5F5F5F5F5F5F5F5F5F5F528F5F5F5F5F5F5F5F5F5F5F5F5F5F5F5F5F5F5F5F5F5F5F5F5F5F5F5F5F5F5F5F5F5F5F5F5F5F5F5F5F5F5F5F5F5F5F5F5F5F5CAF5F5F5EFF5BEBEBEBEBEBEBEBEBEBEBEBE28F5F5F5F5F52828
310
E2E2BE2828E2BEBE28282828BEE2E228E22828F5F5F5F5F5F54C4C4C4C4C4C4C4C4C4C4C4C4C4C4C4C4C4CF5EFF528F5F5F5F5F5F5F5F5F5F5F5F5F5F5F5E2F5F5F5F5F5F5F5F5F5F5F5E2E2F5F5F5F5F5F5F5F5F5F5F5E2F5F5F5F5F5F5F5F5F5F5F5F5F5F5F528F5F5F5F5F5F5F5F5F5F5F5F5F5F5F5F5F5F5F5F5F5F5F5
310
F5F5F5F5F5F5F5F5F5F5F5F5F5F5F5F5F5F5F5F5F5F5F5F5F5F5F5CAF5F5F5EF282828E2E2F5F5F5F5F5F5282828F5F5F5F5F52828F5E2F528282828E2E2E22828F5E2E2E228E228F5F5F5F5F5F54C4C4C4C4C4C4C4C4C4C4C4C4C4C4C4C4CF5F5EFF528F5F5F5F5F5F5F5F5F5F5F5F5F5F5F5E2F5F5F5F5F5F5F5F5F5F5F5
310
E2E2F5F5F5F5F5F5F5F5F5F5F5E2F5F5F5F5F5F5F5F5F5F5F5F5F5F5F528F5F5F5F5F5F5F5F5F5F5F5F5F5F5F5F5F5F5F5F5F5F5F5F5F5F5F5F5F5F5F5F5F5F5F5F5F5F5F5F5F5F5F5F5F5F5F5F5F5F5CAF5F5F5EFF528E22828E2F5F5F5F5E2E2E228F5F5F5F5F52828E2E2E2E2F5F5F5E2E2E22828F5E2F528282828F5F5
310
F5F5F5F54C4C4C4C4C4C4C4C4C4C4C4C4C4CF5F5F5F5F5EFF528F5F5F5F5F5F5F5F5F5F5F5F5F5F5F5E2F5F5F5F5F5F5F5F5F5F5F5E2E2F5F5F5F5F5F5F5F5F5F5F5E2F5F5F5F5F5F5F5F5F5F5F5F5F5F5F528F5F5F5F5F5F5F5F5F5F5F5F5F5F5F5F5F5F5F5F5F5F5F5F5F5F5F5F5F5F5F5F5F5F5F5F5F5F5F5F5F5F5F5F5
310
F5F5F5F5F5F5CAF5F5F5EFF5F528E2282828E2E2E2E2E2E2282828F5F5F52828E2E2E2E2E2E2E2E2E2F528F5F5E2E22828282828F5F5F5F5F5F5F5F5F5F5F5F5F5F5F5F5F5F5F5F5F5F5F5F5EFF528F5F5F5F5F5F5F5F5F5F5F5F5F5F5F5E2F5F5F5F5F5F5F5F5F5F5F5E2E2F5F5F5F5F5F5F5F5F5F5F5E2F5F5F5F5F5F5F5
310
F5F5F5F5F5F5F5F528F5F5F5F5F5F5F5F5F5F5F5F5F5F5F5F5F5F5F5F5F5F5F5F5F5F5F5F5F5F5F5F5F5F5F5F5F5F5F5F5F5F5F5F5F5F5F5F5F5F5CAF5F5F5EFF5F5282828282828E2E2E2E2E2F5F5F5F5F5F52828F5E2E2E2E2F5F5F5F5F52828F5F5E228E22828282828F5F5F5F5F5F5F5F5F5F5F5F5F5F5F5F5F5F5F5F5
310
F5F5EFF528F5F5F5F5F5F5F5F5F5F5F5F5F5F5F5E2F5F5F5F5F5F5F5F5F5F5F5E2E2F5F5F5F5F5F5F5F5F5F5F5E2F5F5F5F5F5F5F5F5F5F5F5F5F5F5F528F5F5F5F5F5F5F5F5F5F5F5F5F5F5F5F5F5F5F5F5F5F5F5F5F5F5F5F5F5F5F5F5F5F5F5F5F5F5F5F5F5F5F5F5F5F5F5F5F5F5CAF5F5F5EF28282828F5282828E2E2
310
E2E2E2F5F5F5F5F5F52828282828282828282828282828E2E2E228282828F5F5F5F5F5F54C4C4C4CF5F5F5F5F5F5F5F5F5F5F5F5F5F5F5EFF528F5F5F5F5F5F5F5F5F5F5F5F5F5F5F5E2F5F5F5F5F5F5F5F5F5F5F5E2E2F5F5F5F5F5F5F5F5F5F5F5E2F5F5F5F5F5F5F5F5F5F5F5F5F5F5F528F5F5F5F5F5F5F5F5F5F5F5F5
310
F5F5F5F5F5F5F5F5F5F5F5F5F5F5F5F5F5F5F5F5F5F5F5F5F5F5F5F5F5F5F5F5F5F5F5F5F5F5CAF5F5F5EFF5F5F5F5F5F5F5F5282828F5F5F5F5F5F5F5F5F528F5F5F5F5F5F5F5F5F5F5F528282828282828F5F5F5F5F5F5F5F5F5F5F5F5F5F5F5F5F5F5F5F5F5F5F5F5F5F5EFF528F5F5F5F5F5F5F5F5F5F5F5F5F5F5F5E2
310
F5F5F5F5F5F5F5F5F5F5F5E2E2F5F5F5F5F5F5F5F5F5F5F5E2F5F5F5F5F5F5F5F5F5F5F5F5F5F5F528F5F5F5F5F5F5F5F5F5F5F5F5F5F5F5F5F5F5F5F5F5F5F5F5F5F5F5F5F5F5F5F5F5F5F5F5F5F5F5F5F5F5F5F5F5F5F5F5F5F5CAF5F5F5EFF5F5F5F5F5F5F5F5F5F5F5F5F5F5F5F5F5F5F5F52828282828282828282828
310
2828282828282828F5F5F5F5F5F5F5F5F5F5F5F5F5F5F5F5F5F5F5F5F5F5F5F5F5F5EFF528F5F5F5F5F5F5F5F5F5F5F5F5F5F5F5E2F5F5F5F5F5F5F5F5F5F5F5E2E2F5F5F5F5F5F5F5F5F5F5F5E2F5F5F5F5F5F5F5F5F5F5F5F5F5F5F528F5F5F5F5F5F5F5F5F5F5F5F5F5F5F5F5F5F5F5F5F5F5F5F5F5F5F5F5F5F5F5F5F5
310
F5F5F5F5F5F5F5F5F5F5F5F5F5F5F5F5F5CAF5F5F5EFF5F5F5F5F52828282828F5F5F5F5F5F5F5F5F5F5F5F5F5F5F5F5F528282828F5F5F5F5F5F5F5F5F5F5F5F5F5F5F5F5F5F5F5F5F5F5F5F5F5F5F5F5F5F5F5F5F5F5EFF528F5F5F5F5F5F5F5F5F5F5F5F5F5F5F5E2F5F5F5F5F5F5F5F5F5F5F5E2E2F5F5F5F5F5F5F5F5
310
F5F5F5E2F5F5F5F5F5F5F5F5F5F5F5F5F5F5F528F5F5F5F5F5F5F5F5F5F5F5F5F5F5F5F5F5F5F5F5F5F5F5F5F5F5F5F5F5F5F5F5F5F5F5F5F5F5F5F5F5F5F5F5F5F5F5F5F5F5CAF5F5F5EFF5F5F5F5F5F5F5F5BEF5F5F5F5F5F5F5F5F5F5F5F5F5F5F5F5F5F5F52828282828282828282828F5F5F5F5F5F5F5F5F5F5F5BEF5
310
F5F5F5F5F5F5F5F5F5F5F5F5F5EFF528F5F5F5F5F5F5F5F5F5F5F5F5F5F5F5E2F5F5F5F5F5F5F5F5F5F5F5E2E2F5F5F5F5F5F5F5F5F5F5F5E2F5F5F5F5F5F5F5F5F5F5F5F5F5F5F528F5F5F5F5F5F5F5F5F5F5F5F5F5F5F5F5F5F5F5F5F5F5F5F5F5F5F5F5F5F5F5F5F5F5F5F5F5F5F5F5F5F5F5F5F5F5F5F5F5F5CAF5F5F5
310
EFF5F5F5F5DCDCE2DCBEDCDCDCF5F5F5F5F5F5F52828282828282828282828E228E2E2E2E2E2282828F5F5F5F5F5F5E2E2E2E2E2E2E2E2E22828F5F5F5F5F5F5F5F5EFF528F5F5F5F5F5F5F5F5F5F5F5F5F5F5F5E2F5F5F5F5F5F5F5F5F5F5F5E2E2F5F5F5F5F5F5F5F5F5F5F5E2F5F5F5F5F5F5F5F5F5F5F5F5F5F5F528F5
310
F5F5F5F5F5F5F5F5F5F5F5F5F5F5F5F5F5F5F5F5F5F5F5F5F5F5F5F5F5F5F5F5F5F5F5F5F5F5F5F5F5F5F5F5F5F5F5F5F5CAF5F5F5EFF5F5F5F5DCDCE2DCBEDCDCDCF5F5F5F5F5F5F528F52828E2E2E2F5E2E2F5E2282828282828282828F5F5F5F5F5F5E2E2E2E2E2E2E2E2E2282828F5F5F5F5F5F5F5EFF528F5F5F5F5F5
310
F5F5F5F5F5F5F5F5F5F5E2F5F5F5F5F5F5F5F5F5F5F5E2E2F5F5F5F5F5F5F5F5F5F5F5E2F5F5F5F5F5F5F5F5F5F5F5F5F5F5F528F5F5F5F5F5F5F5F5F5F5F5F5F5F5F5F5F5F5F5F5F5F5F5F5F5F5F5F5F5F5F5F5F5F5F5F5F5F5F5F5F5F5F5F5F5F5F5F5F5F5CAF5F5F5EFF5F5F5F5DCDCDCDCBEDCDCDCDCF5F5F5F5F5F528
310
F5282828282828282828F528F528F5F5F5E22828F5F5F5F5F5F5E2E2F5C3C3C3E22828F5F5F5F5F5F5F5F5F5F5EFF528F5F5F5F5F5F5F5F5F5F5F5F5F5F5F5E2F5F5F5F5F5F5F5F5F5F5F5E2E2F5F5F5F5F5F5F5F5F5F5F5E2F5F5F5F5F5F5F5F5F5F5F5F5F5F5F528F5F5F5F5F5F5F5F5F5F5F5F5F5F5F5F5F5F5F5F5F5F5
310
F5F5F5F5F5F5F5F5F5F5F5F5F5F5F5F5F5F5F5F5F5F5F5F5F5F5F5F5CAF5F5F5EFF5F5F5F5DCDCDCE2BEDCDCDCDCF5F5F5F5F5F528F52828282828E2E2BEE2BE28E228F5F5F5E22828F5F5F5F5F5F5E2E2C3C3E2E228E2E2F5F5F5F5F5F5F5F5F5F5EFF528F5F5F5F5F5F5F5F5F5F5F5F5F5F5F5E2F5F5F5F5F5F5F5F5F5F5
310
F5E2E2F5F5F5F5F5F5F5F5F5F5F5F5F5F5F5F5F5F5F5F5F5F5F5F5F5F5F528F5F5F5F5F5F5F5F5F5F5F5F5F5F5F5F5F5F5F5F5F5F5F5F5F5F5F5F5F5F5F5F5F5F5F5F5F5F5F5F5F5F5F5F5F5F5F5F5F5F5CAF5F5F5EFF5F5F5F5DCDCDCF5BEDCDCDCDCF5F5F5F5F5F528F5F5E2F5E2E2F5F5BEE2E2E2E228282828282828F5
310
F5F5F5F5F5E2E2C3E22828E2C3E2F5F5F5F5F5F5F5F5F5F5EFF528F5F5F5F5F5F5F5F5F5F5F5F5F5F5F5F5F5F5F5F5F5F5F5F5F5F5F5E2E2F5F5F5F5F5F5F5F5F5F5F5F5F5F5F5F5F5F5F5F5F5F5F5F5F5F5F528F5F5F5F5F5F5F5F5F5F5F5F5F5F5F5F5F5F5F5F5F5F5F5F5F5F5F5F5F5F5F5F5F5F5F5F5F5F5F5F5F5F5F5
310
F5F5F5F5F5F5F5CAF5F5F5EFF5F5F5DCDCDCDCF5BEF5DCE2DCF5F5F5F5F5F528F5E2E2E2E2E2F5F5BEE2E2F5E2E2F5F5F5E228F5F5F5F5F5F5F5E2E2E228E2E2C3C3E2F5F5F5F5F5F5F5F5F5F5EFF528F5F5F5F5F5F5F5F5F5F5F5F5F5F5F5F5F5F5F5F5F5F5F5F5F5F5F5E2E2F5F5F5F5F5F5F5F5F5F5F5F5F5F5F5F5F5F5
310
F5F5F5F5F5F5F5F5F528F5F5F5F5F5F5F5F5F5F5F5F5F5F5F5F5F5F5F5F5F5F5F5F5F5F5F5F5F5F5F5F5F5F5F5F5F5F5F5F5F5F5F5F5F5F5F5F5F5F5CAF5F5F5EFF5F5F5DCDCDCF5F5BEF5DCDCDCF5F5F5F5F5F528F5E2E2E2F5F5F5F5BEF5E2E2E2282828282828F5F5F5F5F5F5F5E2E228E2E2C3C3E2E2E2F5F5F5F5F5F5
310
F5F5F5EFF528F5F5F5F5F5F5F5F5F5F5F5F5F5F5F5F5F5F5F5F5F5F5F5F5F5F5F5E2E2F5F5F5F5F5F5F5F5F5F5F5F5F5F5F5F5F5F5F5F5F5F5F5F5F5F5F528F5F5F5F5F5F5F5F5F5F5F5F5F5F5F5F5F5F5F5F5F5F5F5F5F5F5F5F5F5F5F5F5F5F5F5F5F5F5F5F5F5F5F5F5F5F5F5F5F5F5CAF5F5F5EFF5F5F5DCDCDCF5F5BE
310
F5F5DCDCF5F5F5F5F5F52828E2E2F5F5F5F5F5BEF5E22828E2F5F5F5E2E2F5F5F5F5F5F5F5E2E2E2C3C3C3E2E2E2E2F5F5F5F5F5F5F5F5F5EFF528F5F5F5F5F5F5F5F5F5F5F5F5F5F5F5F5F5F5F5F5F5F5F5F5F5F5F5E2E2F5F5F5F5F5F5F5F5F5F5F5F5F5F5F5F5F5F5F5F5F5F5F5F5F5F5F528F5F5F5F5F5F5F5F5F5F5F5
310
F5F5F5F5F5F5F5F5F5F5F5F5F5F5F5F5F5F5F5F5F5F5F5F5F5F5F5F5F5F5F5F5F5F5F5F5F5F5F5CAF5F5F5EFF5F5F5DCDCF5F5F5BEF5F5DCDCF5F5F5F5F5F52828E2E2F5F5F5F5F5BEF5E22828F5E2E2E2E2E2F5F5F5F5F5F5F5E2E2E2E2E2E2E2E2E2E2F5F5F5F5F5F5F5F5F5EFF528F5F5F5F5F5F5F5F5F5F5F5F5F5F5F5
310
F5F5F5F5F5F5F5F5F5F5F5F5E2E2F5F5F5F5F5F5F5F5F5F5F5F5F5F5F5F5F5F5F5F5F5F5F5F5F5F5F528F5F5F5F5F5F5F5F5F5F5F5F5F5F5F5F5F5F5F5F5F5F5F5F5F5F5F5F5F5F5F5F5F5F5F5F5F5F5F5F5F5F5F5F5F5F5F5F5F5F5CAF5F5F5EFF5F5F5DCDCF5F5F5BEF5F5DCDCF5F5F5F5F5F52828E2F5F5F5F5E2E2E2E2
310
E228E2E2E2E2E2E2E2F5F5F5F5F5F5F5E2F5F5F5BEF5F5F5E2E2F5F5F5F5F5F5F5F5F5EFF528F5F5F5F5F5F5F5F5F5F5F5F5F5F5F5F5F5F5F5F5F5F5F5F5F5F5F5E2E2F5F5F5F5F5F5F5F5F5F5F5F5F5F5F5F5F5F5F5F5F5F5F5F5F5F5F528F5F5F5F5F5F5F5F5F5F5F5F5F5F5F5F5F5F5F5F5F5F5F5F5F5F5F5F5F5F5F5F5
310
F5F5F5F5F5F5F5F5F5F5F5F5F5F5F5F5F5F5CAF5F5F5EFF5F5F5DCDCDCE2E2BEE2E2DCDCF5F5F5F5F5F52828E2E2E2E2E2E2E2E22828E2E2E2E2E2E2E2E2F5F5F5F5F5F5F5E2E2E2E2E2E2E2E2E2E2F5F5F5F5F5F5F5F5F5EFF528F5F5F5F5F5F5F5F5F5F5F5F5F5F5F5F5F5F5F5F5F5F5F5F5F5F5F5E2E2F5F5F5F5F5F5F5
310
F5F5F5F5F5F5F5F5F5F5F5F5F5F5F5F5F5F5F5F528F5F5F5F5F5F5F5F5F5F5F5F5F5F5F5F5F5F5F5F5F5F5F5F5F5F5F5F5F5F5F5F5F5F5F5F5F5F5F5F5F5F5F5F5F5F5F5F5F5F5CAF5F5F5EFF5F5F5DCDCDCE2E2BEE2E2DCDCF5F5F5F5F5F52828E228E2E2E2E2E2E22828E2282828E228282828F5F5F5F5F5F5E2E2E2E2E2
310
E2E2E2E2E2F5F5F5F5F5F5F5F5F5EFF528F5F5F5F5F5F5F5F5F5F5F5F5F5F5F5F5F5F5F5F5F5F5F5F5F5F5F5E2E2F5F5F5F5F5F5F5F5F5F5F5E2F5F5F5F5F5F5F5F5F5F5F5F5F5F5F528F5F5F5F5F5F5F5F5F5F5F5F5F5F5F5F5F5F5F5F5F5F5F5F5F5F5F5F5F5F5F5F5F5F5F5F5F5F5F5F5F5F5F5F5F5F5F5F5F5F5CAF5F5
310
F5EFF5F5F5F5F5F5F5F5BEF5F5F5F5F5F5F5F5F528282828282828282828282828F528F5282828282828F5F5F5F5F5F5F5F5F5F5BEF5F5F5F5F5F5F5F5F5F5F5F5F5F5EFF528F5F5F5F5F5F5F5F5F5F5F5F5F5F5F5E2F5F5F5F5F5F5F5F5F5F5F5E2E2F5F5F5F5F5F5F5F5F5F5F5E2F5F5F5F5F5F5F5F5F5F5F5F5F5F5F528
310
F5F5F5F5F5F5F5F5F5F5F5F5F5F5F5F5F5F5F5F5F5F5F5F5F5F5F5F5F5F5F5F5F5F5F5F5F5F5F5F5F5F5F5F5F5F5F5F5F5F5CAF5F5F5EFF5F5F5F5F5F5F5F5F5F5F5F5F5F5F5F5F5F5F5F5F5F5F5F5F5F5F5F5F5F5F5F528F5F5F5F5F5F528F5F5F5F5F5F5E2E2F5F5F5F5F5F5F5F5F5F5F5F5F5F5F5F5F5EFF528F5F5F5F5
310
F5F5F5F5F5F5F5F5F5F5F5E2F5F5F5F5F5F5F5F5F5F5F5E2E2F5F5F5F5F5F5F5F5F5F5F5E2F5F5F5F5F5F5F5F5F5F5F5F5F5F5F528F5F5F5F5F5F5F5F5F5F5F5F5F5F5F5F5F5F5F5F5F5F5F5F5F5F5F5F5F5F5F5F5F5F5F5F5F5F5F5F5F5F5F5F5F5F5F5F5F5F5CAF5F5F5EFF5F5F5F5F5F5F5F5F5F5F5F5F5F5F5F5F5F5F5
310
F5F5F5F5E2E2E2E2E2E2E2E2E2E2E2E2E2E2E2E2F5F5F5F5F5F5E2E2F5E2E2E2F5F5F5F5F5F5F5F5F5F5F5F5F5F5EFF528F5F5F5F5F5F5F5F5F5F5F5F5F5F5F5E2F5F5F5F5F5F5F5F5F5F5F5E2E2F5F5F5F5F5F5F5F5F5F5F5E2F5F5F5F5F5F5F5F5F5F5F5F5F5F5F528F5F5F5F5F5F5F5F5F5F5F5F5F5F5F5F5F5F5F5F5F5
310
F5F5F5F5F5F5F5F5F5F5F5F5F5F5F5F5F5F5F5F5F5F5F5F5F5F5F5F5F5CAF5F5F5EFF5F5F5F5F5F5F5F5F5F5F5F5F5F5F5F5F5F5F5F5F5E2E2F5F5F5F5E2E2E2E2E2E2E2E2E2E2E22828F5F5F5F5E2E2F5F5F5F5E2E2E2F5F5F5F5F5F5F5F5F5F5F5F5EFF528F5F5F5F5F5F5F5F5F5F5F5F5F5F5F5E2F5F5F5F5F5F5F5F5F5
310
F5F5E2E2F5F5F5F5F5F5F5F5F5F5F5E2F5F5F5F5F5F5F5F5F5F5F5F5F5F5F528F5F5F5F5F5F5F5F5F5F5F5F5F5F5F5F5F5F5F5F5F5F5F5F5F5F5F5F5F5F5F5F5F5F5F5F5F5F5F5F5F5F5F5F5F5F5F5F5F5F5CAF5F5F5EFF5F5F5F5F5F5F5F5F5F5F5F5F5F5F5F5F5F5F5F5F5E2F5F5E2E2E2E2E2E2E2E2E2E2E2E2E2E228F5
310
F5F5F5F5E2F5F5F5F5F5F5F5F5E2F5F5F5F5F5F5F5F5F5F5F5EFF528F5F5F5F5F5F5F5F5F5F5F5F5F5F5F5E2F5F5F5F5F5F5F5F5F5F5F5E2E2F5F5F5F5F5F5F5F5F5F5F5E2F5F5F5F5F5F5F5F5F5F5F5F5F5F5F528F5F5F5F5F5F5F5F5F5F5F5F5F5F5F5F5F5F5F5F5F5F5F5F5F5F5F5F5F5F5F5F5F5F5F5F5F5F5F5F5F5F5
310
F5F5F5F5F5F5F5F5CAF5F5F5EFF5F5F5F5F5F5F5F5F5F5F5F5F5F5F5F5F5F5F5F5E2E2F5F5E2E2E2E2E2E2E2E2E2E2E2E2E2E228F5F5F5F5F5E2F5F5F5F5F5F5F5F5E2F5F5F5F5F5F5F5F5F5F5F5EFF528F5F5F5F5F5F5F5F5F5F5F5F5F5F5F5E2F5F5F5F5F5F5F5F5F5F5F5E2E2F5F5F5F5F5F5F5F5F5F5F5E2F5F5F5F5F5
310
F5F5F5F5F5F5F5F5F5F528F5F5F5F5F5F5F5F5F5F5F5F5F5F5F5F5F5F5F5F5F5F5F5F5F5F5F5F5F5F5F5F5F5F5F5F5F5F5F5F5F5F5F5F5F5F5F5F5F5F5CAF5F5F5EFF5F5F5F5F5F5F5F5F5F5F5F5F5F5F5F5F5F5F5F5E2F5F5F5E2E2E2E2F5F5F5E2E2E2F5F5E2E228F5F5F5F5E2E2E2E2E2F5F5F5F5F5E2F5F5F5F5F5F5F5
310
F5F5F5F5EFF528F5F5F5F5F5F5F5F5F5F5F5F5F5F5F5E2F5F5F5F5F5F5F5F5F5F5F5E2E2F5F5F5F5F5F5F5F5F5F5F5E2F5F5F5F5F5F5F5F5F5F5F5F5F5F5F528F5F5F5F5F5F5F5F5F5F5F5F5F5F5F5F5F5F5F5F5F5F5F5F5F5F5F5F5F5F5F5F5F5F5F5F5F5F5F5F5F5F5F5F5F5F5F5F5F5F5CAF5F5F5EFF5F5F5F5F5F5F5F5
310
F5F5F5F5F5F5F5F5F5F5F5F5E2BEBEBE28E2BEE2BEBEBEE2E2E2BEBEE2E228F5F5F5F5E2E2E2E2E2E2E2F5F5F5E2F5F5F5F5F5F5F5F5F5F5F5EFF528F5F5F5F5F5F5F5F5F5F5F5F5F5F5F5E2F5F5F5F5F5F5F5F5F5F5F5E2E2F5F5F5F5F5F5F5F5F5F5F5E2F5F5F5F5F5F5F5F5F5F5F5F5F5F5F528F5F5F5F5F5F5F5F5F5F5
310
F5F5F5F5F5F5F5F5F5F5F5F5F5F5F5F5F5F5F5F5F5F5F5F5F5F5F5F5F5F5F5F5F5F5F5F5F5F5F5F5CAF5F5F5EFF5F5F5F5F5F5F5F5F5F5F5F5F5F5F5F5F5F5F5F5E2E2F5F528E2E2E2E2E2E2E2E2E2E2E2E2E228F5F5F5F5E2E2E2E2E2E2E2E2F5F5E2F5F54C4C4C4C4C4C4C4C4C4CF528F5F5F5F5F5F5F5F5F5F5F5F5F5F5
310
F5E2F5F5F5F5F5F5F5F5F5F5F5E2E2F5F5F5F5F5F5F5F5F5F5F5E2F5F5F5F5F5F5F5F5F5F5F5F5F5F5F528F5F5F5F5F5F5F5F5F5F5F5F5F5F5F5F5F5F5F5F5F5F5F5F5F5F5F5F5F5F5F5F5F5F5F5F5F5F5F5F5F5F5F5F5F5F5F5F5F5F5CAF5F5F5EFF5F5F5F5F5F5F5F5F5F5F5F5F5F5F5F5F5F5F5F5F5E2F5F528E2E2E2E2
310
E2E2E2E2E2E2E2E2E228F5F5F5F5F5E2E2E2E2E2E2E2E2E2E2F5F54CF54CF5F5F54CF5F5EFF528F5F5F5F5F5F5F5F5F5F5F5F5F5F5F5E2F5F5F5F5F5F5F5F5F5F5F5E2E2F5F5F5F5F5F5F5F5F5F5F5E2F5F5F5F5F5F5F5F5F5F5F5F5F5F5F528F5F5F5F5F5F5F5F5F5F5F5F5F5F5F5F5F5F5F5F5F5F5F5F5F5F5F5F5F5F5F5
310
F5F5F5F5F5F5F5F5F5F5F5F5F5F5F5F5F5F5F5CAF5F5F5EFF5F5F5F5F5F5F5F5F5F5F5F5F5F5F5F5F5F5F5F5F5E2E2F528F5F5E2E2E2E2E2E2E2E2E2E2282828F5F5F5F5F5F5E2F5E2E2E2E2E2E2F5F54C4C4C4C4C4C4C4C4C4CF528F5F5F5F5F5F5F5F5F5F5F5F5F5F5F5E2F5F5F5F5F5F5F5F5F5F5F5E2E2F5F5F5F5F5F5
310
F5F5F5F5F5E2F5F5F5F5F5F5F5F5F5F5F5F5F5F5F528F5F5F5F5F5F5F5F5F5F5F5F5F5F5F5F5F5F5F5F5F5F5F5F5F5F5F5F5F5F5F5F5F5F5F5F5F5F5F5F5F5F5F5F5F5F5F5F5F5F5CAF5F5F5EFF5F5F5F5F5F5F5F5F5F5F5F5F5F5F5F5F5F5F5F5F5F5E2E228E2E2E2E2E2E2E2E2E2E2E2E2E228F5F5F5F5F5F5F5F5E2E2E2
310
E2E2E2F5F5F54CC3C3C3C3C34CC34C4CF528F5F5F5F5F5F5F5F5F5F5F5F5F5F5F5E2F5F5F5F5F5F5F5F5F5F5F5E2E2F5F5F5F5F5F5F5F5F5F5F5E2F5F5F5F5F5F5F5F5F5F5F5F5F5F5F528F5F5F5F5F5F5F5F5F5F5F5F5F5F5F5F5F5F5F5F5F5F5F5F5F5F5F5F5F5F5F5F5F5F5F5F5F5F5F5F5F5F5F5F5F5F5F5F5F5F5CAF5
310
F5F5EFF5F5F5F5F5F5F5F5F5F5F5F5F5F5F5F5F5F5F5F5F5F5F5F5282828282828282828282828282828F5F5F5F5F5F5F5F5F5F5E2E2F5F5F5F5F54CC34CC3C34CC3C3C34CF528F5F5F5F5F5F5F5F5F5F5F5F5F5F5F5E2F5F5F5F5F5F5F5F5F5F5F5E2E2F5F5F5F5F5F5F5F5F5F5F5E2F5F5F5F5F5F5F5F5F5F5F5F5F5F5F5
310
28F5F5F5F5F5F5F5F5F5F5F5F5F5F5F5F5F5F5F5F5F5F5F5F5F5F5F5F5F5F5F5F5F5F5F5F5F5F5F5F5F5F5F5F5F5F5F5F5F5F5CAF5F5F5EFF5F5F5F5F5F5F5F5F5F5F5F5F5F5F5F5F5F5F5F5F5F5F5F5F5F5F5F5F5F5F5F5F5F5F5F5F5F5F5F5F5F5F5F5F5F5F5F5F5F5F5F5F5F5F5F5C3C34CC3C3F54CC3F5EFF528F5F5F5
310
F5F5F5F5F5F5F5F5F5F5F5F5E2F5F5F5F5F5F5F5F5F5F5F5E2E2F5F5F5F5F5F5F5F5F5F5F5E2F5F5F5F5F5F5F5F5F5F5F5F5F5F5F528F5F5F5F5F5F5F5F5F5F5F5F5F5F5F5F5F5F5F5F5F5F5F5F5F5F5F5F5F5F5F5F5F5F5F5F5F5F5F5F5F5F5F5F5F5F5F5F5F5F5CAF5F5F5EFEFEFEFEFEFEFEFEFEFEFEFEFEFEFEFEFEFEF
310
EFEFEFEFEFEFEFEFEFEFEFEFEFEFEFEFEFEFEFEFEFEFEFEFEFEFEFEFEFEFEFEFEFEFEFEFEFEFEFEFEFEFEFEFEFEFEFEFF528F5F5F5F5F5F5F5F5F5F5F5F5F5F5F5E2F5F5F5F5F5F5F5F5F5F5F5E2E2F5F5F5F5F5F5F5F5F5F5F5F5F5F5F5F5F5F5F5F5F5F5F5F5F5F5F528F5F5F5F5F5F5F5F5F5F5F5F5F5F5F5F5F5F5F5F5
310
F5F5F5F5F5F5F5F5F5F5F5F5F5F5F5F5F5F5F5F5F5F5F5F5F5F5F5F5F5F5CACACACACACACACACACACACACACACACACACACACACACACACACACACACACACACACACACACACACACACACACACACACACACACACACACACACACACACACACACACACACACACACACACACACACACACACA28F5F5F5F5F5F5F5F5F5F5F5F5F5F5F5F5F5F5F5F5F5F5F5F5
310
F5F5F5E2E2F5F5F5F5F5F5F5F5F5F5F5F5F5F5F5F5F5F5F5F5F5F5F5F5F5F5F528F5F5F5F5F5F5F5F5F5F5F5F5F5F5F5F5F5F5F5F5F5F5F5F5F5F5F5F5F5F5F5F5F5F5F5F5F5F5F5F5F5F5F5F5F5F5F5F5F5F5F5F5F5F5F5F5F5F5F5F5F5F5F5F5F5F5F5F5F5F5F5F5F5F5F5F5F5F5F5F5F5F5F5F5F5F5F5F5F5F5F5F5F5F5
310
F5F5F5F5F5F5F5F5F5F5F5F5F5F5F5F5F5F5F5F5F5F5F5F5F5F5F5F528F5F5F5F5F5F5F5F5F5F5F5F5F5F5F5F5F5F5F5F5F5F5F5F5F5F5F5E2E2F5F5F5F5F5F5F5F5F5F5F5F5F5F5F5F5F5F5F5F5F5F5F5F5F5F5F528F5F5F5F5F5F5F5F5F5F5F5F5F5F5F5F5F5F5F5F5F5F5F5F5F5F5F5F5F5F5F5F5F5F5F5F5F5F5F5F5F5
310
F5F5F5F5F5F5F5F5F5F5F5F5F5F5F5F5F5F5F5F5F5F5F5F5F5F5F5F5F5F5F5F5F5F5F5F5F5F5F5F5F5F5F5F5F5F5F5F5F5F5F5F5F5F5F5F5F5F5F5F5F5F5F5F5F5F5F5F5F5F5F5F5F5F5F5F5F5F5F5F5F528F5F5F5F5F5F5F5F5F5F5F5F5F5F5F5F5F5F5F5F5F5F5F5F5F5F5F5E2E2F5F5F5F5F5F5F5F5F5F5F5F5F5F5F5F5
310
F5F5F5F5F5F5F5F5F5F5F528F5F5F5F5F5F5F5F5F5F5F5F5F5F5F5F5F5F5F5F5F5F5F5F5F5F5F5F5F5F5F5F5F5F5F5F5F5F5F5F5F5F5F5F5F5F5F5F5F5F5F5F5F5F5F5F5F5F5F5F5F5F5F5F5F5F5F5F5F5F5F5F5F5F5F5F5F5F5F5F5F5F5F5F5F5F5F5F5F5F5F5F5F5F5F5F5F5F5F5F5F5F5F5F5F5F5F5F5F5F5F5F5F5F5F5
310
F5F5F5F5F5F5F528F5F5F5F5F5F5F5F5F5F5F5F5F5F5F5F5F5F5F5F5F5F5F5F5F5F5F5E2E2F5F5F5F5F5F5F5F5F5F5F5F5F5F5F5F5F5F5F5F5F5F5F5F5F5F5F5282828282828282828282828282828282828282828282828282828282828282828282828282828282828282828282828282828282828282828282828282828
310
28282828282828282828282828282828282828282828282828282828282828282828282828282828282828282828282828282828282828282828282828F5F5F5F5F5F5F5F5F5F5F5F5F5F5F5F5F5F5F5F5F5F5F5F5F5F5F5E2E2F5F5F5F5F5F5F5F5F5F5F5F5F5F5F5F5F5F5F5F5F5F5F5F5F5F5F5F5F5F5F5F5F5F5F5F5F5
310
F5F5F5F5F5F5F5F5F5F5F5F5F5F5F5F5F5F5F5F5F5F5F5F5F5F5F5F5F5F5F5F5F5F5F5F5F5F5F5F5F5F5F5F5F5F5F5F5F5F5F5F5F5F5F5F5F5F5F5F5F5F5F5F5F5F5F5F5F5F5F5F5F5F5F5F5F5F5F5F5F5F5F5F5F5F5F5F5F5F5F5F5F5F5F5F5F5F5F5F5F5F5F5F5F5F5F5F5F5F5F5F5F5F5F5F5F5F5F5F5F5F5F5F5F5F5F5
310
F5F5F5F5F5F5F5F5F5F5F5F5F5F5E2E2F5F5F5F5F5F5F5F5F5F5F5F5F5F5F5F5F5F5F5F5F5F5F5F5F5F5F5F5F5F5F5F5F5F5F5F5F5F5F5F5F5F5F5F5F5F5F5F5F5F5F5F5F5F5F5F5F5F5F5F5F5F5F5F5F5F5F5F5F5F5F5F5F5F5F5F5F5F5F5F5F5F5F5F5F5F5F5F5F5F5F5F5F5F5F5F5F5F5F5F5F5F5F5F5F5F5F5F5F5F5F5
310
F5F5F5F5F5F5F5F5F5F5F5F5F5F5F5F5F5F5F5F5F5F5F5F5F5F5F5F5F5F5F5F5F5F5F5F5F5F5F5F5F5F5F5F5F5F5F5F5F5F5F5F5F5F5F5F5F5F5F5F5F5F5F5F5F5F5F5E2E2F5F5F5F5F5F5F5F5F5F5F5F5F5F5F5F5F5F5F5F5F5F5F5F5F5F5F5F5F5F5F5F5F5F5F5F5F5F5F5F5F5F5F5F5F5F5F5F5F5F5F5F5F5F5F5F5F5F5
310
F5F5F5F5F5F5F5F5F5F5F5F5F5F5F5F5F5F5F5F5F5F5F5F5F5F5F5F5F5F5F5F5F5F5F5F5F5F5F5F5F5F5F5F5F5F5F5F5F5F5F5F5F5F5F5F5F5F5F5F5F5F5F5F5F5F5F5F5F5F5F5F5F5F5F5F5F5F5F5F5F5F5F5F5F5F5F5F5F5F5F5F5F5F5F5F5F5F5F5F5F5F5F5F5F5F5F5F5F5F5F5F5F5F5F5F5F5F5F5F5E2E2F5F5F5F5F5
310
F5F5F5F5F5F5E2F5F5F5F5F5F5F5F5F5F5F5F5F5F5F5F5F5F5F5F5F5F5F5F5F5F5F5F5F5F5F5F5F5F5F5F5F5F5F5F5F5F5F5F5F5F5F5F5F5F5F5F5F5F5F5F5F5F5F5F5F5F5F5F5F5F5F5F5F5F5F5F5F5F5F5F5F5F5F5F5F5F5F5F5F5F5F5F5F5F5F5F5F5F5F5F5F5F5F5F5F5F5F5F5F5F5F5F5F5F5F5F5F5F5F5F5F5F5F5F5
310
F5F5F5F5F5F5F5F5F5F5F5F5F5F5F5F5F5F5F5F5F5F5F5F5F5F5F5F5F5F5F5F5F5F5E2F5F5F5F5F5F5F5F5F5F5F5E2E2F5F5F5F5F5F5F5F5F5F5F5E2F5F5F5F5F5F5F5F5F5F5F5F5F5F5F5F5F5F5F5F5F5F5F5F5F5F5F5F5F5F5F5F5F5F5F5F5F5F5F5F5F5F5F5F5F5F5F5F5F5F5F5F5F5F5F5F5F5F5F5F5F5F5F5F5F5F5F5
310
F5F5F5F5F5F5F5F5F5F5F5F5F5F5F5F5F5F5F5F5F5F5F5F5F5F5F5F5F5F5F5F5F5F5F5F5F5F5F5F5F5F5F5F5F5F5F5F5F5F5F5F5F5F5F5F5F5F5F5F5F5F5F5F5F5F5F5F5F5F5F5F5F5F5F5F5F5F5F5F5F5F5F5F5F5F5F5E2F5F5F5F5F5F5F5F5F5F5F5E2E2F5F5F5F5F5F5F5F5F5F5F5E2F5F5F5F5F5F5F5F5F5F5F5F5F5F5
310
F5F5F5F5F5F5F5F5F5F5F5F5F5F5F5F5F5F5F5F5F5F5F5F5F5F5F5F5F5F5F5F5F5F5F5F5F5F5F5F5F5F5F5F5F5F5F5F5F5F5F5F5F5F5F5F5F5F5F5F5F5F5F5F5F5F5F5F5F5F5F5F5F5F5F5F5F5F5F5F5F5F5F5F5F5F5F5F5F5F5F5F5F5F5F5F5F5F5F5F5F5F5F5F5F5F5F5F5F5F5F5F5F5F5F5F5F5F5F5F5F5F5F5F5F5F5F5
310
F5F5F5F5F5F5F5F5F5F5F5F5F5E2F5F5F5F5F5F5F5F5F5F5F5E2E2F5F5F5F5F5F5F5F5F5F5F5E2F5F5F5F5F5F5F5F5F5F5F5F5F5F5F5F5F5F5F5F5F5F5F5F5F5F5F5F5F5F5F5F5F5F5F5F5F5F5F5F5F5F5F5F5F5F5F5F5F5F5F5F5F5F5F5F5F5F5F5F5F5F5F5F5F5F5F5F5F5F5F5F5F5F5F5F5F5F5F5F5F5F5F5F5F5F5F5F5
310
F5F5F5F5F5F5F5F5F5F5F5F5F5F5F5F5F5F5F5F5F5F5F5F5F5F5F5F5F5F5F5F5F5F5F5F5F5F5F5F5F5F5F5F5F5F5F5F5F5F5F5F5F5F5F5F5F5F5F5F5F5F5F5F5F5F5E2F5F5F5F5F5F5F5F5F5F5F5E2E2F5F5F5F5F5F5F5F5F5F5F5E2F5F5F5F5F5F5F5F5F5F5F5F5F5F5F5F5F5F5F5F5F5F5F5F5F5F5F5F5F5F5F5F5F5F5F5
310
F5F5F5F5F5F5F5F5F5F5F5F5F5F5F5F5F5F5F5F5F5F5F5F5F5F5F5F5F5F5F5F5F5F5F5F5F5F5F5F5F5F5F5F5F5F5F5F5F5F5F5F5F5F5F5F5F5F5F5F5F5F5F5F5F5F5F5F5F5F5F5F5F5F5F5F5F5F5F5F5F5F5F5F5F5F5F5F5F5F5F5F5F5F5F5F5F5F5F5F5F5F5F5F5F5F5F5F5F5F5F5F5F5F5F5F5F5F5F5E2F5F5F5F5F5F5F5
310
F5F5F5F5E2E2F5F5F5F5F5F5F5F5F5F5F5E2F5F5F5F5F5F5F5F5F5F5F5F5F5F5F5F5F5F5F5F5F5F5F5F5F5F5F5F5F5F5F5F5F5F5F5F5F5F5F5F5F5F5F5F5F5F5F5F5F5F5F5F5F5F5F5F5F5F5F5F5F5F5F5F5F5F5F5F5F5F5F5F5F5F5F5F5F5F5F5F5F5F5F5F5F5F5F5F5F5F5F5F5F5F5F5F5F5F5F5F5F5F5F5F5F5F5F5F5F5
310
F5F5F5F5F5F5F5F5F5F5F5F5F5F5F5F5F5F5F5F5F5F5F5F5F5F5F5F5F5F5F5F5F5F5F5F5F5F5F5F5F5F5F5F5F5E2F5F5F5F5F5F5F5F5F5F5F5E2E2F5F5F5F5F5F5F5F5F5F5F5E2F5F5F5F5F5F5F5F5F5F5F5F5F5F5F5F5F5F5F5F5F5F5F5F5F5F5F5F5F5F5F5F5F5F5F5F5F5F5F5F5F5F5F5F5F5F5F5F5F5F5F5F5F5F5F5F5
310
F5F5F5F5F5F5F5F5F5F5F5F5F5F5F5F5F5F5F5F5F5F5F5F5F5F5F5F5F5F5F5F5F5F5F5F5F5F5F5F5F5F5F5F5F5F5F5F5F5F5F5F5F5F5F5F5F5F5F5F5F5F5F5F5F5F5F5F5F5F5F5F5F5F5F5F5F5F5F5F5F5F5F5F5F5F5F5F5F5F5F5F5F5F5F5F5F5F5E2F5F5F5F5F5F5F5F5F5F5F5E2E2F5F5F5F5F5F5F5F5F5F5F5E2E2E2E2
310
E2E2E2E2E2F5F5F5F5F5F5F5F5F5E2E2E2E2E2E2E2E2E2E2E2E2E2E2E2E2E2F5F5F5F5F5F5F5F5F5E2E2E2E2E2E2E2E2E2E2E2E2E2E2E2E2F5F5F5F5F5F5F5F5F5F5E2E2E2E2E2E2E2E2E2E2E2E2E2E2E2E2F5F5F5F5F5F5F5F5F5F5E2E2E2E2E2E2E2E2E2E2E2E2E2E2E2E2F5F5F5F5F5F5F5F5F5E2E2E2E2E2E2E2E2E2E2
310
E2E2E2E2E2E2E2F5F5F5F5F5F5F5F5F5E2E2E2E2E2E2E2E2E2F5F5F5F5F5F5F5F5F5F5F5E2E2F5F5F5F5F5F5F5F5F5F5F5F5F5F5F5F5F5F5F5F5F5F5F5F5F5F5F5F5F5F5F5F5F5F5F5F5F5F5F5F5F5F5F5F5F5F5F5F5F5F5F5F5F5F5F5F5F5F5F5F5F5F5F5F5F5F5F5F5F5F5F5F5F5F5F5F5F5F5F5F5F5F5F5F5F5F5F5F5F5
310
F5F5F5F5F5F5F5F5F5F5F5F5F5F5F5F5F5F5F5F5F5F5F5F5F5F5F5F5F5F5F5F5F5F5F5F5F5F5F5F5F5F5F5F5F5F5F5F5F5F5F5F5F5F5F5F5F5F5F5F5F5F5F5F5F5F5F5F5F5F5F5F5F5F5F5F5F5F5F5F5F5F5F5F5F5F5F5F5F5E2E2F5F5F5F5F5F5F5F5F5F5F5F5F5F5F5F5F5F5F5F5F5F5F5F5F5F5F5F5F5F5F5F5F5F5F5F5
310
F5F5F5F5F5F5F5F5F5F5F5F5F5F5F5F5F5F5F5F5F5F5F5F5F5F5F5F5F5F5F5F5F5F5F5F5F5F5F5F5F5F5F5F5F5F5F5F5F5F5F5F5F5F5F5F5F5F5F5F5F5F5F5F5F5F5F5F5F5F5F5F5F5F5F5F5F5F5F5F5F5F5F5F5F5F5F5F5F5F5F5F5F5F5F5F5F5F5F5F5F5F5F5F5F5F5F5F5F5F5F5F5F5F5F5F5F5F5F5F5F5F5F5F5F5F5F5
310
F5F5F5F5F5F5F5F5F5F5F5F5F5F5F5E2E2F5F5F5F5F5F5F5F5F5F5F5F5F5F5F5F5F5F5F5F5F5F5F5F5F5F5F5F5F5F5F5F5F5F5F5F5F5F5F5F5F5F5F5F5F5F5F5F5F5F5F5F5F5F5F5F5F5F5F5F5F5F5F5F5F5F5F5F5F5F5F5F5F5F5F5F5F5F5F5F5F5F5F5F5F5F5F5F5F5F5F5F5F5F5F5F5F5F5F5F5F5F5F5F5F5F5F5F5F5F5
310
F5F5F5F5F5F5F5F5F5F5F5F5F5F5F5F5F5F5F5F5F5F5F5F5F5F5F5F5F5F5F5F5F5F5F5F5F5F5F5F5F5F5F5F5F5F5F5F5F5F5F5F5F5F5F5F5F5F5F5F5F5F5F5F5F5F5F5F5E2E2F5F5F5F5F5F5F5F5F5F5F5F5F5F5F5F5F5F5F5F5F5F5F5F5F5F5F5F5F5F5F5F5F5F5F5F5F5F5F5F5F5F5F5F5F5F5F5F5F5F5F5F5F5F5F5F5F5
310
F5F5F5F5F5F5F5F5F5F5F5F5F5F5F5F5F5F5F5F5F5F5F5F5F5F5F5F5F5F5F5F5F5F5F5F5F5F5F5F5F5F5F5F5F5F5F5F5F5F5F5F5F5F5F5F5F5F5F5F5F5F5F5F5F5F5F5F5F5F5F5F5F5F5F5F5F5F5F5F5F5F5F5F5F5F5F5F5F5F5F5F5F5F5F5F5F5F5F5F5F5F5F5F5F5F5F5F5F5F5F5F5F5F5F5F5F5F5F5F5F5E2E2E2E2E2E2
310
E2E2E2E2E2E2E2E2E2E2E2E2E2E2E2E2E2E2E2E2E2E2E2E2E2E2E2E2E2E2E2E2E2E2E2E2E2E2E2E2E2E2E2E2E2E2E2E2E2E2E2E2E2E2E2E2E2E2E2E2E2E2E2E2E2E2E2E2E2E2E2E2E2E2E2E2E2E2E2E2E2E2E2E2E2E2E2E2E2E2E2E2E2E2E2E2E2E2E2E2E2E2E2E2E2E2E2E2E2E2E2E2E2E2E2E2E2E2E2E2E2E2E2E2E2E2E2
310
E2E2E2E2E2E2E2E2E2E2E2E2E2E2E2E2E2E2E2E2E2E2E2E2E2E2E2E2E2E2E2E2E2E2E2E2E2E2E2E2E2E2E2E2E2E2E2E2
  0
CELLSTYLEMAP
  5
216
102
{ACAD_REACTORS
330
214
102
}
330
214
100
AcDbCellStyleMap
 90
        3
300
CELLSTYLE
  1
TABLEFORMAT_BEGIN
 90
        5
170
     1
 91
        0
 92
        0
 62
   257
 93
        1
300
CONTENTFORMAT
  1
CONTENTFORMAT_BEGIN
 90
        0
 91
        0
 92
      512
 93
        0
300

 40
0.0
140
1.0
 94
        5
 62
     0
340
1E
144
6.0
309
CONTENTFORMAT_END
171
     1
301
MARGIN
  1
CELLMARGIN_BEGIN
 40
1.5
 40
1.5
 40
1.5
 40
1.5
 40
4.5
 40
4.5
309
CELLMARGIN_END
 94
        6
 95
        1
302
GRIDFORMAT
  1
GRIDFORMAT_BEGIN
 90
        0
 91
        1
 62
     0
 92
       -2
340
0
 93
        0
 40
0.045
309
GRIDFORMAT_END
 95
        2
302
GRIDFORMAT
  1
GRIDFORMAT_BEGIN
 90
        0
 91
        1
 62
     0
 92
       -2
340
0
 93
        0
 40
0.045
309
GRIDFORMAT_END
 95
        4
302
GRIDFORMAT
  1
GRIDFORMAT_BEGIN
 90
        0
 91
        1
 62
     0
 92
       -2
340
0
 93
        0
 40
0.045
309
GRIDFORMAT_END
 95
        8
302
GRIDFORMAT
  1
GRIDFORMAT_BEGIN
 90
        0
 91
        1
 62
     0
 92
       -2
340
0
 93
        0
 40
0.045
309
GRIDFORMAT_END
 95
       16
302
GRIDFORMAT
  1
GRIDFORMAT_BEGIN
 90
        0
 91
        1
 62
     0
 92
       -2
340
0
 93
        0
 40
0.045
309
GRIDFORMAT_END
 95
       32
302
GRIDFORMAT
  1
GRIDFORMAT_BEGIN
 90
        0
 91
        1
 62
     0
 92
       -2
340
0
 93
        0
 40
0.045
309
GRIDFORMAT_END
309
TABLEFORMAT_END
  1
CELLSTYLE_BEGIN
 90
        1
 91
        1
300
_TITLE
309
CELLSTYLE_END
300
CELLSTYLE
  1
TABLEFORMAT_BEGIN
 90
        5
170
     1
 91
        0
 92
        0
 62
   257
 93
        1
300
CONTENTFORMAT
  1
CONTENTFORMAT_BEGIN
 90
        0
 91
        0
 92
      512
 93
        0
300

 40
0.0
140
1.0
 94
        5
 62
     0
340
1E
144
4.5
309
CONTENTFORMAT_END
171
     1
301
MARGIN
  1
CELLMARGIN_BEGIN
 40
1.5
 40
1.5
 40
1.5
 40
1.5
 40
4.5
 40
4.5
309
CELLMARGIN_END
 94
        6
 95
        1
302
GRIDFORMAT
  1
GRIDFORMAT_BEGIN
 90
        0
 91
        1
 62
     0
 92
       -2
340
0
 93
        0
 40
0.045
309
GRIDFORMAT_END
 95
        2
302
GRIDFORMAT
  1
GRIDFORMAT_BEGIN
 90
        0
 91
        1
 62
     0
 92
       -2
340
0
 93
        0
 40
0.045
309
GRIDFORMAT_END
 95
        4
302
GRIDFORMAT
  1
GRIDFORMAT_BEGIN
 90
        0
 91
        1
 62
     0
 92
       -2
340
0
 93
        0
 40
0.045
309
GRIDFORMAT_END
 95
        8
302
GRIDFORMAT
  1
GRIDFORMAT_BEGIN
 90
        0
 91
        1
 62
     0
 92
       -2
340
0
 93
        0
 40
0.045
309
GRIDFORMAT_END
 95
       16
302
GRIDFORMAT
  1
GRIDFORMAT_BEGIN
 90
        0
 91
        1
 62
     0
 92
       -2
340
0
 93
        0
 40
0.045
309
GRIDFORMAT_END
 95
       32
302
GRIDFORMAT
  1
GRIDFORMAT_BEGIN
 90
        0
 91
        1
 62
     0
 92
       -2
340
0
 93
        0
 40
0.045
309
GRIDFORMAT_END
309
TABLEFORMAT_END
  1
CELLSTYLE_BEGIN
 90
        2
 91
        1
300
_HEADER
309
CELLSTYLE_END
300
CELLSTYLE
  1
TABLEFORMAT_BEGIN
 90
        5
170
     1
 91
        0
 92
        0
 62
   257
 93
        1
300
CONTENTFORMAT
  1
CONTENTFORMAT_BEGIN
 90
        0
 91
        0
 92
      512
 93
        0
300

 40
0.0
140
1.0
 94
        2
 62
     0
340
1E
144
4.5
309
CONTENTFORMAT_END
171
     1
301
MARGIN
  1
CELLMARGIN_BEGIN
 40
1.5
 40
1.5
 40
1.5
 40
1.5
 40
4.5
 40
4.5
309
CELLMARGIN_END
 94
        6
 95
        1
302
GRIDFORMAT
  1
GRIDFORMAT_BEGIN
 90
        0
 91
        1
 62
     0
 92
       -2
340
0
 93
        0
 40
0.045
309
GRIDFORMAT_END
 95
        2
302
GRIDFORMAT
  1
GRIDFORMAT_BEGIN
 90
        0
 91
        1
 62
     0
 92
       -2
340
0
 93
        0
 40
0.045
309
GRIDFORMAT_END
 95
        4
302
GRIDFORMAT
  1
GRIDFORMAT_BEGIN
 90
        0
 91
        1
 62
     0
 92
       -2
340
0
 93
        0
 40
0.045
309
GRIDFORMAT_END
 95
        8
302
GRIDFORMAT
  1
GRIDFORMAT_BEGIN
 90
        0
 91
        1
 62
     0
 92
       -2
340
0
 93
        0
 40
0.045
309
GRIDFORMAT_END
 95
       16
302
GRIDFORMAT
  1
GRIDFORMAT_BEGIN
 90
        0
 91
        1
 62
     0
 92
       -2
340
0
 93
        0
 40
0.045
309
GRIDFORMAT_END
 95
       32
302
GRIDFORMAT
  1
GRIDFORMAT_BEGIN
 90
        0
 91
        1
 62
     0
 92
       -2
340
0
 93
        0
 40
0.045
309
GRIDFORMAT_END
309
TABLEFORMAT_END
  1
CELLSTYLE_BEGIN
 90
        3
 91
        2
300
_DATA
309
CELLSTYLE_END
  0
XRECORD
  5
215
102
{ACAD_REACTORS
330
214
102
}
330
214
100
AcDbXrecord
280
     1
102
ACAD_ROUNDTRIP_PRE2007_TABLESTYLE
 90
      512
 91
        0
  1

 92
      512
 93
        0
  2

 94
      512
 95
        0
  3

  0
XRECORD
  5
213
102
{ACAD_REACTORS
330
212
102
}
330
212
100
AcDbXrecord
280
     1
102
RTVSPropertyOp0
 70
     1
102
RTVSPropertyOp1
 70
     1
102
RTVSPropertyOp2
 70
     1
102
RTVSPropertyOp3
 70
     1
102
RTVSPropertyOp4
 70
     1
102
RTVSPropertyOp5
 70
     1
102
RTVSPropertyOp6
 70
     1
102
RTVSPropertyOp7
 70
     1
102
RTVSPropertyOp8
 70
     1
102
RTVSPropertyOp9
 70
     1
102
RTVSPropertyOp10
 70
     1
102
RTVSPropertyOp11
 70
     1
102
RTVSPropertyOp12
 70
     1
102
RTVSPropertyOp13
 70
     1
102
RTVSPropertyOp14
 70
     1
102
RTVSPropertyOp15
 70
     1
102
RTVSPropertyOp16
 70
     1
102
RTVSPropertyOp17
 70
     1
102
RTVSPropertyOp18
 70
     1
102
RTVSPropertyOp19
 70
     1
102
RTVSPropertyOp20
 70
     1
102
RTVSPropertyOp21
 70
     1
102
RTVSPropertyOp22
 70
     1
102
RTVSPropertyOp23
 70
     1
102
RTVSPropertyOp24
 70
     1
102
RTVSPropertyOp25
 70
     1
102
RTVSPropertyOp26
 70
     1
102
RTVSPropertyOp27
 70
     1
  0
XRECORD
  5
227
102
{ACAD_REACTORS
330
226
102
}
330
226
100
AcDbXrecord
280
     1
102
RTVSPropertyOp0
 70
     1
102
RTVSPropertyOp1
 70
     1
102
RTVSPropertyOp2
 70
     1
102
RTVSPropertyOp3
 70
     1
102
RTVSPropertyOp4
 70
     1
102
RTVSPropertyOp5
 70
     1
102
RTVSPropertyOp6
 70
     1
102
RTVSPropertyOp7
 70
     1
102
RTVSPropertyOp8
 70
     1
102
RTVSPropertyOp9
 70
     1
102
RTVSPropertyOp10
 70
     1
102
RTVSPropertyOp11
 70
     1
102
RTVSPropertyOp12
 70
     1
102
RTVSPropertyOp13
 70
     1
102
RTVSPropertyOp14
 70
     1
102
RTVSPropertyOp15
 70
     1
102
RTVSPropertyOp16
 70
     1
102
RTVSPropertyOp17
 70
     1
102
RTVSPropertyOp18
 70
     1
102
RTVSPropertyOp19
 70
     1
102
RTVSPropertyOp20
 70
     1
102
RTVSPropertyOp21
 70
     1
102
RTVSPropertyOp22
 70
     1
102
RTVSPropertyOp23
 70
     1
102
RTVSPropertyOp24
 70
     1
102
RTVSPropertyOp25
 70
     1
102
RTVSPropertyOp26
 70
     1
102
RTVSPropertyOp27
 70
     1
  0
XRECORD
  5
21B
102
{ACAD_REACTORS
330
21A
102
}
330
21A
100
AcDbXrecord
280
     1
102
RTVSPropertyOp0
 70
     1
102
RTVSPropertyOp1
 70
     1
102
RTVSPropertyOp2
 70
     1
102
RTVSPropertyOp3
 70
     1
102
RTVSPropertyOp4
 70
     1
102
RTVSPropertyOp5
 70
     1
102
RTVSPropertyOp6
 70
     1
102
RTVSPropertyOp7
 70
     1
102
RTVSPropertyOp8
 70
     1
102
RTVSPropertyOp9
 70
     1
102
RTVSPropertyOp10
 70
     1
102
RTVSPropertyOp11
 70
     1
102
RTVSPropertyOp12
 70
     1
102
RTVSPropertyOp13
 70
     1
102
RTVSPropertyOp14
 70
     1
102
RTVSPropertyOp15
 70
     1
102
RTVSPropertyOp16
 70
     1
102
RTVSPropertyOp17
 70
     1
102
RTVSPropertyOp18
 70
     1
102
RTVSPropertyOp19
 70
     1
102
RTVSPropertyOp20
 70
     1
102
RTVSPropertyOp21
 70
     1
102
RTVSPropertyOp22
 70
     1
102
RTVSPropertyOp23
 70
     1
102
RTVSPropertyOp24
 70
     1
102
RTVSPropertyOp25
 70
     1
102
RTVSPropertyOp26
 70
     1
102
RTVSPropertyOp27
 70
     1
  0
XRECORD
  5
225
102
{ACAD_REACTORS
330
224
102
}
330
224
100
AcDbXrecord
280
     1
102
RTVSPropertyOp0
 70
     1
102
RTVSPropertyOp1
 70
     1
102
RTVSPropertyOp2
 70
     1
102
RTVSPropertyOp3
 70
     1
102
RTVSPropertyOp4
 70
     1
102
RTVSPropertyOp5
 70
     1
102
RTVSPropertyOp6
 70
     1
102
RTVSPropertyOp7
 70
     1
102
RTVSPropertyOp8
 70
     1
102
RTVSPropertyOp9
 70
     1
102
RTVSPropertyOp10
 70
     1
102
RTVSPropertyOp11
 70
     1
102
RTVSPropertyOp12
 70
     1
102
RTVSPropertyOp13
 70
     1
102
RTVSPropertyOp14
 70
     1
102
RTVSPropertyOp15
 70
     1
102
RTVSPropertyOp16
 70
     1
102
RTVSPropertyOp17
 70
     1
102
RTVSPropertyOp18
 70
     1
102
RTVSPropertyOp19
 70
     1
102
RTVSPropertyOp20
 70
     1
102
RTVSPropertyOp21
 70
     1
102
RTVSPropertyOp22
 70
     1
102
RTVSPropertyOp23
 70
     1
102
RTVSPropertyOp24
 70
     1
102
RTVSPropertyOp25
 70
     1
102
RTVSPropertyOp26
 70
     1
102
RTVSPropertyOp27
 70
     1
  0
XRECORD
  5
22D
102
{ACAD_REACTORS
330
22C
102
}
330
22C
100
AcDbXrecord
280
     1
102
RTVSPropertyOp0
 70
     1
102
RTVSPropertyOp1
 70
     1
102
RTVSPropertyOp2
 70
     1
102
RTVSPropertyOp3
 70
     1
102
RTVSPropertyOp4
 70
     1
102
RTVSPropertyOp5
 70
     1
102
RTVSPropertyOp6
 70
     1
102
RTVSPropertyOp7
 70
     1
102
RTVSPropertyOp8
 70
     1
102
RTVSPropertyOp9
 70
     1
102
RTVSPropertyOp10
 70
     1
102
RTVSPropertyOp11
 70
     1
102
RTVSPropertyOp12
 70
     1
102
RTVSPropertyOp13
 70
     1
102
RTVSPropertyOp14
 70
     1
102
RTVSPropertyOp15
 70
     1
102
RTVSPropertyOp16
 70
     1
102
RTVSPropertyOp17
 70
     1
102
RTVSPropertyOp18
 70
     1
102
RTVSPropertyOp19
 70
     1
102
RTVSPropertyOp20
 70
     1
102
RTVSPropertyOp21
 70
     1
102
RTVSPropertyOp22
 70
     1
102
RTVSPropertyOp23
 70
     1
102
RTVSPropertyOp24
 70
     1
102
RTVSPropertyOp25
 70
     1
102
RTVSPropertyOp26
 70
     1
102
RTVSPropertyOp27
 70
     1
  0
XRECORD
  5
235
102
{ACAD_REACTORS
330
234
102
}
330
234
100
AcDbXrecord
280
     1
102
RTVSPropertyOp0
 70
     1
102
RTVSPropertyOp1
 70
     1
102
RTVSPropertyOp2
 70
     1
102
RTVSPropertyOp3
 70
     1
102
RTVSPropertyOp4
 70
     1
102
RTVSPropertyOp5
 70
     1
102
RTVSPropertyOp6
 70
     1
102
RTVSPropertyOp7
 70
     1
102
RTVSPropertyOp8
 70
     1
102
RTVSPropertyOp9
 70
     1
102
RTVSPropertyOp10
 70
     1
102
RTVSPropertyOp11
 70
     1
102
RTVSPropertyOp12
 70
     1
102
RTVSPropertyOp13
 70
     1
102
RTVSPropertyOp14
 70
     1
102
RTVSPropertyOp15
 70
     1
102
RTVSPropertyOp16
 70
     1
102
RTVSPropertyOp17
 70
     1
102
RTVSPropertyOp18
 70
     1
102
RTVSPropertyOp19
 70
     1
102
RTVSPropertyOp20
 70
     1
102
RTVSPropertyOp21
 70
     1
102
RTVSPropertyOp22
 70
     1
102
RTVSPropertyOp23
 70
     1
102
RTVSPropertyOp24
 70
     1
102
RTVSPropertyOp25
 70
     1
102
RTVSPropertyOp26
 70
     1
102
RTVSPropertyOp27
 70
     1
  0
XRECORD
  5
229
102
{ACAD_REACTORS
330
228
102
}
330
228
100
AcDbXrecord
280
     1
102
RTVSPropertyOp0
 70
     1
102
RTVSPropertyOp1
 70
     1
102
RTVSPropertyOp2
 70
     1
102
RTVSPropertyOp3
 70
     1
102
RTVSPropertyOp4
 70
     1
102
RTVSPropertyOp5
 70
     1
102
RTVSPropertyOp6
 70
     1
102
RTVSPropertyOp7
 70
     1
102
RTVSPropertyOp8
 70
     1
102
RTVSPropertyOp9
 70
     1
102
RTVSPropertyOp10
 70
     1
102
RTVSPropertyOp11
 70
     1
102
RTVSPropertyOp12
 70
     1
102
RTVSPropertyOp13
 70
     1
102
RTVSPropertyOp14
 70
     1
102
RTVSPropertyOp15
 70
     1
102
RTVSPropertyOp16
 70
     1
102
RTVSPropertyOp17
 70
     1
102
RTVSPropertyOp18
 70
     1
102
RTVSPropertyOp19
 70
     1
102
RTVSPropertyOp20
 70
     1
102
RTVSPropertyOp21
 70
     1
102
RTVSPropertyOp22
 70
     1
102
RTVSPropertyOp23
 70
     1
102
RTVSPropertyOp24
 70
     1
102
RTVSPropertyOp25
 70
     1
102
RTVSPropertyOp26
 70
     1
102
RTVSPropertyOp27
 70
     1
  0
XRECORD
  5
22B
102
{ACAD_REACTORS
330
22A
102
}
330
22A
100
AcDbXrecord
280
     1
102
RTVSPropertyOp0
 70
     1
102
RTVSPropertyOp1
 70
     1
102
RTVSPropertyOp2
 70
     1
102
RTVSPropertyOp3
 70
     1
102
RTVSPropertyOp4
 70
     1
102
RTVSPropertyOp5
 70
     1
102
RTVSPropertyOp6
 70
     1
102
RTVSPropertyOp7
 70
     1
102
RTVSPropertyOp8
 70
     1
102
RTVSPropertyOp9
 70
     1
102
RTVSPropertyOp10
 70
     1
102
RTVSPropertyOp11
 70
     1
102
RTVSPropertyOp12
 70
     1
102
RTVSPropertyOp13
 70
     1
102
RTVSPropertyOp14
 70
     1
102
RTVSPropertyOp15
 70
     1
102
RTVSPropertyOp16
 70
     1
102
RTVSPropertyOp17
 70
     1
102
RTVSPropertyOp18
 70
     1
102
RTVSPropertyOp19
 70
     1
102
RTVSPropertyOp20
 70
     1
102
RTVSPropertyOp21
 70
     1
102
RTVSPropertyOp22
 70
     1
102
RTVSPropertyOp23
 70
     1
102
RTVSPropertyOp24
 70
     1
102
RTVSPropertyOp25
 70
     1
102
RTVSPropertyOp26
 70
     1
102
RTVSPropertyOp27
 70
     1
  0
XRECORD
  5
233
102
{ACAD_REACTORS
330
232
102
}
330
232
100
AcDbXrecord
280
     1
102
RTVSPropertyOp0
 70
     1
102
RTVSPropertyOp1
 70
     1
102
RTVSPropertyOp2
 70
     1
102
RTVSPropertyOp3
 70
     1
102
RTVSPropertyOp4
 70
     1
102
RTVSPropertyOp5
 70
     1
102
RTVSPropertyOp6
 70
     1
102
RTVSPropertyOp7
 70
     1
102
RTVSPropertyOp8
 70
     1
102
RTVSPropertyOp9
 70
     1
102
RTVSPropertyOp10
 70
     1
102
RTVSPropertyOp11
 70
     1
102
RTVSPropertyOp12
 70
     1
102
RTVSPropertyOp13
 70
     1
102
RTVSPropertyOp14
 70
     1
102
RTVSPropertyOp15
 70
     1
102
RTVSPropertyOp16
 70
     1
102
RTVSPropertyOp17
 70
     1
102
RTVSPropertyOp18
 70
     1
102
RTVSPropertyOp19
 70
     1
102
RTVSPropertyOp20
 70
     1
102
RTVSPropertyOp21
 70
     1
102
RTVSPropertyOp22
 70
     1
102
RTVSPropertyOp23
 70
     1
102
RTVSPropertyOp24
 70
     1
102
RTVSPropertyOp25
 70
     1
102
RTVSPropertyOp26
 70
     1
102
RTVSPropertyOp27
 70
     1
  0
XRECORD
  5
21D
102
{ACAD_REACTORS
330
21C
102
}
330
21C
100
AcDbXrecord
280
     1
102
RTVSPropertyOp0
 70
     1
102
RTVSPropertyOp1
 70
     1
102
RTVSPropertyOp2
 70
     1
102
RTVSPropertyOp3
 70
     1
102
RTVSPropertyOp4
 70
     1
102
RTVSPropertyOp5
 70
     1
102
RTVSPropertyOp6
 70
     1
102
RTVSPropertyOp7
 70
     1
102
RTVSPropertyOp8
 70
     1
102
RTVSPropertyOp9
 70
     1
102
RTVSPropertyOp10
 70
     1
102
RTVSPropertyOp11
 70
     1
102
RTVSPropertyOp12
 70
     1
102
RTVSPropertyOp13
 70
     1
102
RTVSPropertyOp14
 70
     1
102
RTVSPropertyOp15
 70
     1
102
RTVSPropertyOp16
 70
     1
102
RTVSPropertyOp17
 70
     1
102
RTVSPropertyOp18
 70
     1
102
RTVSPropertyOp19
 70
     1
102
RTVSPropertyOp20
 70
     1
102
RTVSPropertyOp21
 70
     1
102
RTVSPropertyOp22
 70
     1
102
RTVSPropertyOp23
 70
     1
102
RTVSPropertyOp24
 70
     1
102
RTVSPropertyOp25
 70
     1
102
RTVSPropertyOp26
 70
     1
102
RTVSPropertyOp27
 70
     1
  0
XRECORD
  5
21F
102
{ACAD_REACTORS
330
21E
102
}
330
21E
100
AcDbXrecord
280
     1
102
RTVSPropertyOp0
 70
     1
102
RTVSPropertyOp1
 70
     1
102
RTVSPropertyOp2
 70
     1
102
RTVSPropertyOp3
 70
     1
102
RTVSPropertyOp4
 70
     1
102
RTVSPropertyOp5
 70
     1
102
RTVSPropertyOp6
 70
     1
102
RTVSPropertyOp7
 70
     1
102
RTVSPropertyOp8
 70
     1
102
RTVSPropertyOp9
 70
     1
102
RTVSPropertyOp10
 70
     1
102
RTVSPropertyOp11
 70
     1
102
RTVSPropertyOp12
 70
     1
102
RTVSPropertyOp13
 70
     1
102
RTVSPropertyOp14
 70
     1
102
RTVSPropertyOp15
 70
     1
102
RTVSPropertyOp16
 70
     1
102
RTVSPropertyOp17
 70
     1
102
RTVSPropertyOp18
 70
     1
102
RTVSPropertyOp19
 70
     1
102
RTVSPropertyOp20
 70
     1
102
RTVSPropertyOp21
 70
     1
102
RTVSPropertyOp22
 70
     1
102
RTVSPropertyOp23
 70
     1
102
RTVSPropertyOp24
 70
     1
102
RTVSPropertyOp25
 70
     1
102
RTVSPropertyOp26
 70
     1
102
RTVSPropertyOp27
 70
     1
  0
XRECORD
  5
221
102
{ACAD_REACTORS
330
220
102
}
330
220
100
AcDbXrecord
280
     1
102
RTVSPropertyOp0
 70
     1
102
RTVSPropertyOp1
 70
     1
102
RTVSPropertyOp2
 70
     1
102
RTVSPropertyOp3
 70
     1
102
RTVSPropertyOp4
 70
     1
102
RTVSPropertyOp5
 70
     1
102
RTVSPropertyOp6
 70
     1
102
RTVSPropertyOp7
 70
     1
102
RTVSPropertyOp8
 70
     1
102
RTVSPropertyOp9
 70
     1
102
RTVSPropertyOp10
 70
     1
102
RTVSPropertyOp11
 70
     1
102
RTVSPropertyOp12
 70
     1
102
RTVSPropertyOp13
 70
     1
102
RTVSPropertyOp14
 70
     1
102
RTVSPropertyOp15
 70
     1
102
RTVSPropertyOp16
 70
     1
102
RTVSPropertyOp17
 70
     1
102
RTVSPropertyOp18
 70
     1
102
RTVSPropertyOp19
 70
     1
102
RTVSPropertyOp20
 70
     1
102
RTVSPropertyOp21
 70
     1
102
RTVSPropertyOp22
 70
     1
102
RTVSPropertyOp23
 70
     1
102
RTVSPropertyOp24
 70
     1
102
RTVSPropertyOp25
 70
     1
102
RTVSPropertyOp26
 70
     1
102
RTVSPropertyOp27
 70
     1
  0
XRECORD
  5
223
102
{ACAD_REACTORS
330
222
102
}
330
222
100
AcDbXrecord
280
     1
102
RTVSPropertyOp0
 70
     1
102
RTVSPropertyOp1
 70
     1
102
RTVSPropertyOp2
 70
     1
102
RTVSPropertyOp3
 70
     1
102
RTVSPropertyOp4
 70
     1
102
RTVSPropertyOp5
 70
     1
102
RTVSPropertyOp6
 70
     1
102
RTVSPropertyOp7
 70
     1
102
RTVSPropertyOp8
 70
     1
102
RTVSPropertyOp9
 70
     1
102
RTVSPropertyOp10
 70
     1
102
RTVSPropertyOp11
 70
     1
102
RTVSPropertyOp12
 70
     1
102
RTVSPropertyOp13
 70
     1
102
RTVSPropertyOp14
 70
     1
102
RTVSPropertyOp15
 70
     1
102
RTVSPropertyOp16
 70
     1
102
RTVSPropertyOp17
 70
     1
102
RTVSPropertyOp18
 70
     1
102
RTVSPropertyOp19
 70
     1
102
RTVSPropertyOp20
 70
     1
102
RTVSPropertyOp21
 70
     1
102
RTVSPropertyOp22
 70
     1
102
RTVSPropertyOp23
 70
     1
102
RTVSPropertyOp24
 70
     1
102
RTVSPropertyOp25
 70
     1
102
RTVSPropertyOp26
 70
     1
102
RTVSPropertyOp27
 70
     1
  0
XRECORD
  5
231
102
{ACAD_REACTORS
330
230
102
}
330
230
100
AcDbXrecord
280
     1
102
RTVSPropertyOp0
 70
     1
102
RTVSPropertyOp1
 70
     1
102
RTVSPropertyOp2
 70
     1
102
RTVSPropertyOp3
 70
     1
102
RTVSPropertyOp4
 70
     1
102
RTVSPropertyOp5
 70
     1
102
RTVSPropertyOp6
 70
     1
102
RTVSPropertyOp7
 70
     1
102
RTVSPropertyOp8
 70
     1
102
RTVSPropertyOp9
 70
     1
102
RTVSPropertyOp10
 70
     1
102
RTVSPropertyOp11
 70
     1
102
RTVSPropertyOp12
 70
     1
102
RTVSPropertyOp13
 70
     1
102
RTVSPropertyOp14
 70
     1
102
RTVSPropertyOp15
 70
     1
102
RTVSPropertyOp16
 70
     1
102
RTVSPropertyOp17
 70
     1
102
RTVSPropertyOp18
 70
     1
102
RTVSPropertyOp19
 70
     1
102
RTVSPropertyOp20
 70
     1
102
RTVSPropertyOp21
 70
     1
102
RTVSPropertyOp22
 70
     1
102
RTVSPropertyOp23
 70
     1
102
RTVSPropertyOp24
 70
     1
102
RTVSPropertyOp25
 70
     1
102
RTVSPropertyOp26
 70
     1
102
RTVSPropertyOp27
 70
     1
  0
XRECORD
  5
219
102
{ACAD_REACTORS
330
218
102
}
330
218
100
AcDbXrecord
280
     1
102
RTVSPropertyOp0
 70
     1
102
RTVSPropertyOp1
 70
     1
102
RTVSPropertyOp2
 70
     1
102
RTVSPropertyOp3
 70
     1
102
RTVSPropertyOp4
 70
     1
102
RTVSPropertyOp5
 70
     1
102
RTVSPropertyOp6
 70
     1
102
RTVSPropertyOp7
 70
     1
102
RTVSPropertyOp8
 70
     1
102
RTVSPropertyOp9
 70
     1
102
RTVSPropertyOp10
 70
     1
102
RTVSPropertyOp11
 70
     1
102
RTVSPropertyOp12
 70
     1
102
RTVSPropertyOp13
 70
     1
102
RTVSPropertyOp14
 70
     1
102
RTVSPropertyOp15
 70
     1
102
RTVSPropertyOp16
 70
     1
102
RTVSPropertyOp17
 70
     1
102
RTVSPropertyOp18
 70
     1
102
RTVSPropertyOp19
 70
     1
102
RTVSPropertyOp20
 70
     1
102
RTVSPropertyOp21
 70
     1
102
RTVSPropertyOp22
 70
     1
102
RTVSPropertyOp23
 70
     1
102
RTVSPropertyOp24
 70
     1
102
RTVSPropertyOp25
 70
     1
102
RTVSPropertyOp26
 70
     1
102
RTVSPropertyOp27
 70
     1
  0
XRECORD
  5
22F
102
{ACAD_REACTORS
330
22E
102
}
330
22E
100
AcDbXrecord
280
     1
102
RTVSPropertyOp0
 70
     1
102
RTVSPropertyOp1
 70
     1
102
RTVSPropertyOp2
 70
     1
102
RTVSPropertyOp3
 70
     1
102
RTVSPropertyOp4
 70
     1
102
RTVSPropertyOp5
 70
     1
102
RTVSPropertyOp6
 70
     1
102
RTVSPropertyOp7
 70
     1
102
RTVSPropertyOp8
 70
     1
102
RTVSPropertyOp9
 70
     1
102
RTVSPropertyOp10
 70
     1
102
RTVSPropertyOp11
 70
     1
102
RTVSPropertyOp12
 70
     1
102
RTVSPropertyOp13
 70
     1
102
RTVSPropertyOp14
 70
     1
102
RTVSPropertyOp15
 70
     1
102
RTVSPropertyOp16
 70
     1
102
RTVSPropertyOp17
 70
     1
102
RTVSPropertyOp18
 70
     1
102
RTVSPropertyOp19
 70
     1
102
RTVSPropertyOp20
 70
     1
102
RTVSPropertyOp21
 70
     1
102
RTVSPropertyOp22
 70
     1
102
RTVSPropertyOp23
 70
     1
102
RTVSPropertyOp24
 70
     1
102
RTVSPropertyOp25
 70
     1
102
RTVSPropertyOp26
 70
     1
102
RTVSPropertyOp27
 70
     1
  0
ENDSEC
  0
EOF
